  0
SECTION
  2
HEADER
  9
$ACADVER
  1
AC1009
  9
$LUNITS
 70
2
  9
$LUPREC
 70
4
  9
$LTSCALE
 40
1.0
  9
$EXTMIN
 10
192.2192
 20
-66.6014
 30
0
  9
$EXTMAX
 10
469.2192
 20
123.3986
 30
0
  0
ENDSEC
  0
SECTION
  2
TABLES
  0
TABLE
  2
LTYPE
 70
256
  0
ENDTAB
  0
TABLE
  2
LAYER
 70
4
  0
LAYER
  2
LAYER_1
 70
64
 62
7
  6
CONTINUOUS
  0
LAYER
  2
LAYER_2
 70
64
 62
7
  6
CONTINUOUS
  0
LAYER
  2
LAYER_3
 70
64
 62
7
  6
CONTINUOUS
  0
LAYER
  2
LAYER_4
 70
64
 62
7
  6
CONTINUOUS
  0
ENDTAB
  0
TABLE
  2
STYLE
 70
6
  0
STYLE
  2
STANDARD
 70
0
 40
0
 50
0
 71
0
 41
0
 42
0
  3
TXT
  4
BIGFONT
  0
ENDTAB
  0
ENDSEC
  0
SECTION
  2
BLOCKS
  0
BLOCK
  8
LAYER_1
  2
AIGNBL01020004
 70
64
 10
0
 20
0
 30
0
  3
AIGNBL01020004
  0
LINE
  8
LAYER_1
 10
351.634
 20
-18.6711
 11
351.634
 21
-24.6285
  0
LINE
  8
LAYER_1
 10
351.634
 20
-24.6285
 11
352.6587
 21
-24.6285
  0
LINE
  8
LAYER_1
 10
352.6587
 20
-24.6285
 11
352.6587
 21
-24.1826
  0
LINE
  8
LAYER_1
 10
352.6587
 20
-24.1826
 11
355.3363
 21
-24.1826
  0
LINE
  8
LAYER_1
 10
355.3363
 20
-24.1826
 11
355.3363
 21
-24.6285
  0
LINE
  8
LAYER_1
 10
355.3363
 20
-24.6285
 11
356.4088
 21
-24.6285
  0
LINE
  8
LAYER_1
 10
356.4088
 20
-24.6285
 11
356.4088
 21
-18.6711
  0
LINE
  8
LAYER_1
 10
356.4088
 20
-18.6711
 11
351.634
 21
-18.6711
  0
LINE
  8
LAYER_1
 10
355.3363
 20
-23.1898
 11
352.6586
 21
-23.1898
  0
LINE
  8
LAYER_1
 10
352.6586
 20
-23.1898
 11
352.6586
 21
-21.8997
  0
LINE
  8
LAYER_1
 10
352.6586
 20
-21.8997
 11
355.3363
 21
-21.8997
  0
LINE
  8
LAYER_1
 10
355.3363
 20
-21.8997
 11
355.3363
 21
-23.1898
  0
LINE
  8
LAYER_1
 10
355.3363
 20
-20.9271
 11
352.6586
 21
-20.9271
  0
LINE
  8
LAYER_1
 10
352.6586
 20
-20.9271
 11
352.6586
 21
-19.6639
  0
LINE
  8
LAYER_1
 10
352.6586
 20
-19.6639
 11
355.3363
 21
-19.6639
  0
LINE
  8
LAYER_1
 10
355.3363
 20
-19.6639
 11
355.3363
 21
-20.9271
  0
ENDBLK
  0
BLOCK
  8
LAYER_1
  2
AIGNBL01020005
 70
64
 10
0
 20
0
 30
0
  3
AIGNBL01020005
  0
LINE
  8
LAYER_1
 10
361.1681
 20
-20.6459
 11
363.008
 21
-20.6459
  0
LINE
  8
LAYER_1
 10
363.008
 20
-20.6459
 11
363.008
 21
-19.7228
  0
LINE
  8
LAYER_1
 10
363.008
 20
-19.7228
 11
360.6276
 21
-19.7228
  0
LINE
  8
LAYER_1
 10
360.6276
 20
-19.7228
 11
360.6276
 21
-18.5117
  0
LINE
  8
LAYER_1
 10
360.6276
 20
-18.5117
 11
359.6812
 21
-18.5117
  0
LINE
  8
LAYER_1
 10
359.6812
 20
-18.5117
 11
359.6812
 21
-19.7228
  0
LINE
  8
LAYER_1
 10
359.6812
 20
-19.7228
 11
357.3157
 21
-19.7228
  0
LINE
  8
LAYER_1
 10
357.3157
 20
-19.7228
 11
357.3157
 21
-20.6459
  0
LINE
  8
LAYER_1
 10
357.3157
 20
-20.6459
 11
359.1556
 21
-20.6459
  0
ARC
  8
LAYER_1
 10
352.8276
 20
-17.2979
 40
7.1591
 50
320.0917859
 51
332.1180421
  0
ARC
  8
LAYER_1
 10
354.1944
 20
-18.4775
 40
5.354
 50
306.7907036
 51
320.3902793
  0
ARC
  8
LAYER_1
 10
355.3363
 20
-19.9182
 40
3.5167
 50
299.7830223
 51
305.9495886
  0
ARC
  8
LAYER_1
 10
357.3366
 20
-22.9301
 40
0.2567
 50
189.041004
 51
222.7124317
  0
ARC
  8
LAYER_1
 10
349.1542
 20
-31.1842
 40
11.3661
 50
41.86910415
 51
45.30722701
  0
ARC
  8
LAYER_1
 10
356.4547
 20
-24.3706
 40
1.3966
 50
27.03066843
 51
33.5811519
  0
ARC
  8
LAYER_1
 10
357.1788
 20
-22.7326
 40
1.13
 50
297.394358
 51
310.3971421
  0
ARC
  8
LAYER_1
 10
353.9902
 20
-18.4282
 40
6.4846
 50
307.2029948
 51
316.160652
  0
LINE
  8
LAYER_1
 10
358.6675
 20
-22.9197
 11
358.6675
 21
-23.6346
  0
LINE
  8
LAYER_1
 10
358.6675
 20
-23.6346
 11
359.6812
 21
-23.6346
  0
LINE
  8
LAYER_1
 10
359.6812
 20
-23.6346
 11
359.6812
 21
-24.6759
  0
LINE
  8
LAYER_1
 10
359.6812
 20
-24.6759
 11
360.6276
 21
-24.6759
  0
LINE
  8
LAYER_1
 10
360.6276
 20
-24.6759
 11
360.6276
 21
-23.6346
  0
LINE
  8
LAYER_1
 10
360.6276
 20
-23.6346
 11
361.6037
 21
-23.6346
  0
LINE
  8
LAYER_1
 10
361.6037
 20
-23.6346
 11
361.6037
 21
-22.841
  0
ARC
  8
LAYER_1
 10
367.4661
 20
-17.4087
 40
7.9923
 50
222.8194562
 51
229.3954874
  0
ARC
  8
LAYER_1
 10
363.3101
 20
-22.3212
 40
1.5583
 50
227.8544941
 51
243.3097661
  0
ARC
  8
LAYER_1
 10
365.3024
 20
-25.2751
 40
3.1124
 50
130.023252
 51
149.8845162
  0
ARC
  8
LAYER_1
 10
366.6789
 20
-17.3801
 40
6.4644
 50
224.4780119
 51
238.495716
  0
ARC
  8
LAYER_1
 10
366.2221
 20
-18.0281
 40
5.6863
 50
209.4870909
 51
223.04385
  0
ARC
  8
LAYER_1
 10
368.6669
 20
-16.4506
 40
8.5926
 50
209.2256363
 51
210.6193192
  0
LINE
  8
LAYER_1
 10
359.6812
 20
-22.7172
 11
358.8476
 21
-22.7172
  0
ARC
  8
LAYER_1
 10
349.8686
 20
-15.6118
 40
11.4502
 50
321.6442745
 51
327.3776932
  0
ARC
  8
LAYER_1
 10
358.7097
 20
-21.1904
 40
0.9988
 50
323.4874232
 51
346.5604038
  0
LINE
  8
LAYER_1
 10
359.6812
 20
-21.4225
 11
359.6812
 21
-22.7172
  0
LINE
  8
LAYER_1
 10
360.6276
 20
-22.7172
 11
360.6201
 21
-21.417
  0
ARC
  8
LAYER_1
 10
362.6431
 20
-20.5799
 40
2.1894
 50
202.4797564
 51
213.37689
  0
ARC
  8
LAYER_1
 10
369.8308
 20
-15.9598
 40
10.7338
 50
212.8634514
 51
219.016696
  0
LINE
  8
LAYER_1
 10
361.4911
 20
-22.7172
 11
360.6276
 21
-22.7172
  0
ENDBLK
  0
BLOCK
  8
LAYER_1
  2
AIGNBL01020006
 70
64
 10
0
 20
0
 30
0
  3
AIGNBL01020006
  0
LINE
  8
LAYER_1
 10
364.353
 20
-22.0385
 11
364.353
 21
-24.6934
  0
LINE
  8
LAYER_1
 10
364.353
 20
-24.6934
 11
365.251
 21
-24.6934
  0
LINE
  8
LAYER_1
 10
365.251
 20
-24.6934
 11
365.251
 21
-24.5104
  0
LINE
  8
LAYER_1
 10
365.251
 20
-24.5104
 11
367.9774
 21
-24.5104
  0
LINE
  8
LAYER_1
 10
367.9774
 20
-24.5104
 11
367.9774
 21
-24.6413
  0
LINE
  8
LAYER_1
 10
367.9774
 20
-24.6413
 11
368.9207
 21
-24.6413
  0
LINE
  8
LAYER_1
 10
368.9207
 20
-24.6413
 11
368.9207
 21
-22.0385
  0
LINE
  8
LAYER_1
 10
368.9207
 20
-22.0385
 11
364.353
 21
-22.0385
  0
LINE
  8
LAYER_1
 10
365.251
 20
-22.5754
 11
366.1491
 21
-22.5754
  0
LINE
  8
LAYER_1
 10
366.1491
 20
-22.5754
 11
366.1491
 21
-23.001
  0
LINE
  8
LAYER_1
 10
366.1491
 20
-23.001
 11
365.251
 21
-23.001
  0
LINE
  8
LAYER_1
 10
365.251
 20
-23.001
 11
365.251
 21
-22.5754
  0
LINE
  8
LAYER_1
 10
366.1554
 20
-23.9658
 11
365.2445
 21
-23.9658
  0
LINE
  8
LAYER_1
 10
365.2445
 20
-23.9658
 11
365.2445
 21
-23.5598
  0
LINE
  8
LAYER_1
 10
365.2445
 20
-23.5598
 11
366.1554
 21
-23.5598
  0
LINE
  8
LAYER_1
 10
366.1554
 20
-23.5598
 11
366.1554
 21
-23.9658
  0
LINE
  8
LAYER_1
 10
367.9774
 20
-23.9658
 11
367.0666
 21
-23.9658
  0
LINE
  8
LAYER_1
 10
367.0666
 20
-23.9658
 11
367.0666
 21
-23.5598
  0
LINE
  8
LAYER_1
 10
367.0666
 20
-23.5598
 11
367.9774
 21
-23.5598
  0
LINE
  8
LAYER_1
 10
367.9774
 20
-23.5598
 11
367.9774
 21
-23.9658
  0
LINE
  8
LAYER_1
 10
367.9774
 20
-22.9838
 11
367.0666
 21
-22.9838
  0
LINE
  8
LAYER_1
 10
367.0666
 20
-22.9838
 11
367.0666
 21
-22.5778
  0
LINE
  8
LAYER_1
 10
367.0666
 20
-22.5778
 11
367.9774
 21
-22.5778
  0
LINE
  8
LAYER_1
 10
367.9774
 20
-22.5778
 11
367.9774
 21
-22.9838
  0
ENDBLK
  0
BLOCK
  8
LAYER_1
  2
AIGNBL01020007
 70
64
 10
0
 20
0
 30
0
  3
AIGNBL01020007
  0
LINE
  8
LAYER_1
 10
372.7452
 20
-19.4621
 11
372.7452
 21
-18.6054
  0
LINE
  8
LAYER_1
 10
372.7452
 20
-18.6054
 11
370.0962
 21
-18.6054
  0
LINE
  8
LAYER_1
 10
370.0962
 20
-18.6054
 11
370.0962
 21
-19.4621
  0
LINE
  8
LAYER_1
 10
370.0962
 20
-19.4621
 11
370.7877
 21
-19.4621
  0
ARC
  8
LAYER_1
 10
356.4551
 20
-17.2525
 40
14.5019
 50
345.1349411
 51
351.2357341
  0
ARC
  8
LAYER_1
 10
366.802
 20
-20.0262
 40
3.7898
 50
328.8608594
 51
345.5353604
  0
ARC
  8
LAYER_1
 10
368.4031
 20
-20.8719
 40
1.9848
 50
321.3923211
 51
325.8550342
  0
ARC
  8
LAYER_1
 10
368.3485
 20
-23.4939
 40
2.1195
 50
13.84391695
 51
40.75156376
  0
LINE
  8
LAYER_1
 10
370.4064
 20
-22.9868
 11
370.5615
 21
-22.7841
  0
LINE
  8
LAYER_1
 10
370.5615
 20
-22.7841
 11
370.5615
 21
-24.2749
  0
LINE
  8
LAYER_1
 10
370.5615
 20
-24.2749
 11
371.369
 21
-24.2749
  0
LINE
  8
LAYER_1
 10
371.369
 20
-24.2749
 11
371.369
 21
-23.8042
  0
LINE
  8
LAYER_1
 10
371.369
 20
-23.8042
 11
372.6033
 21
-23.8042
  0
LINE
  8
LAYER_1
 10
372.6033
 20
-23.8042
 11
372.6033
 21
-20.6849
  0
LINE
  8
LAYER_1
 10
372.6033
 20
-20.6849
 11
371.4401
 21
-20.6849
  0
ARC
  8
LAYER_1
 10
363.6739
 20
-18.489
 40
8.0707
 50
344.211629
 51
353.0748089
  0
LINE
  8
LAYER_1
 10
371.6857
 20
-19.4621
 11
372.7452
 21
-19.4621
  0
LINE
  8
LAYER_1
 10
371.7762
 20
-22.9803
 11
371.369
 21
-22.9803
  0
LINE
  8
LAYER_1
 10
371.369
 20
-22.9803
 11
371.369
 21
-21.5088
  0
LINE
  8
LAYER_1
 10
371.369
 20
-21.5088
 11
371.7762
 21
-21.5088
  0
LINE
  8
LAYER_1
 10
371.7762
 20
-21.5088
 11
371.7762
 21
-22.9803
  0
ENDBLK
  0
BLOCK
  8
LAYER_1
  2
AIGNBL01020008
 70
64
 10
0
 20
0
 30
0
  3
AIGNBL01020008
  0
LINE
  8
LAYER_1
 10
375.5575
 20
-21.051
 11
375.5575
 21
-19.4816
  0
LINE
  8
LAYER_1
 10
375.5575
 20
-19.4816
 11
376.0616
 21
-19.4816
  0
LINE
  8
LAYER_1
 10
376.0616
 20
-19.4816
 11
376.0616
 21
-18.6054
  0
LINE
  8
LAYER_1
 10
376.0616
 20
-18.6054
 11
372.8633
 21
-18.6054
  0
LINE
  8
LAYER_1
 10
372.8633
 20
-18.6054
 11
372.8633
 21
-19.4816
  0
LINE
  8
LAYER_1
 10
372.8633
 20
-19.4816
 11
373.2962
 21
-19.4816
  0
LINE
  8
LAYER_1
 10
373.2962
 20
-19.4816
 11
373.2962
 21
-21.051
  0
LINE
  8
LAYER_1
 10
373.2962
 20
-21.051
 11
372.7018
 21
-21.051
  0
LINE
  8
LAYER_1
 10
372.7018
 20
-21.051
 11
372.7018
 21
-21.947
  0
LINE
  8
LAYER_1
 10
372.7018
 20
-21.947
 11
373.2703
 21
-21.947
  0
ARC
  8
LAYER_1
 10
370.4907
 20
-21.8995
 40
2.78
 50
338.6739026
 51
359.020829
  0
ARC
  8
LAYER_1
 10
370.2143
 20
-21.8418
 40
3.0588
 50
321.0666271
 51
339.5496315
  0
ARC
  8
LAYER_1
 10
370.4444
 20
-22.0084
 40
2.7752
 50
312.3585522
 51
320.7581845
  0
ARC
  8
LAYER_1
 10
369.8947
 20
-28.2056
 40
4.8008
 50
49.00077315
 51
59.73701801
  0
ARC
  8
LAYER_1
 10
371.6019
 20
-22.7805
 40
2.3081
 50
308.6774859
 51
331.7345597
  0
ARC
  8
LAYER_1
 10
370.3082
 20
-22.0282
 40
3.8042
 50
330.9812449
 51
347.5175671
  0
ARC
  8
LAYER_1
 10
369.0208
 20
-21.651
 40
5.1434
 50
346.5148777
 51
356.7006512
  0
LINE
  8
LAYER_1
 10
374.1557
 20
-21.947
 11
374.666
 21
-21.947
  0
LINE
  8
LAYER_1
 10
374.666
 20
-21.947
 11
374.666
 21
-24.5628
  0
LINE
  8
LAYER_1
 10
374.666
 20
-24.5628
 11
375.5575
 21
-24.5628
  0
LINE
  8
LAYER_1
 10
375.5575
 20
-24.5628
 11
375.5575
 21
-21.947
  0
LINE
  8
LAYER_1
 10
375.5575
 20
-21.947
 11
376.1391
 21
-21.947
  0
LINE
  8
LAYER_1
 10
376.1391
 20
-21.947
 11
376.1391
 21
-21.051
  0
LINE
  8
LAYER_1
 10
376.1391
 20
-21.051
 11
375.5575
 21
-21.051
  0
LINE
  8
LAYER_1
 10
374.666
 20
-21.051
 11
374.175
 21
-21.051
  0
LINE
  8
LAYER_1
 10
374.175
 20
-21.051
 11
374.175
 21
-19.4816
  0
LINE
  8
LAYER_1
 10
374.175
 20
-19.4816
 11
374.666
 21
-19.4816
  0
LINE
  8
LAYER_1
 10
374.666
 20
-19.4816
 11
374.666
 21
-21.051
  0
ENDBLK
  0
BLOCK
  8
LAYER_1
  2
AIGNBL01020009
 70
64
 10
0
 20
0
 30
0
  3
AIGNBL01020009
  0
ARC
  8
LAYER_1
 10
348.7477
 20
-19.6909
 40
1.9543
 50
288.5797233
 51
313.5605526
  0
ARC
  8
LAYER_1
 10
349.2658
 20
-20.3305
 40
1.1357
 50
316.8592502
 51
347.2169924
  0
ARC
  8
LAYER_1
 10
348.4324
 20
-20.1279
 40
1.9933
 50
346.8357246
 51
1.013818946
  0
ARC
  8
LAYER_1
 10
349.1667
 20
-20.0958
 40
1.2587
 50
0.1437428936
 51
45.46620489
  0
ARC
  8
LAYER_1
 10
348.6376
 20
-20.5947
 40
1.9857
 50
44.68101911
 51
67.71603928
  0
ARC
  8
LAYER_1
 10
348.3757
 20
-21.0773
 40
2.5322
 50
66.37312008
 51
86.05362229
  0
ARC
  8
LAYER_1
 10
348.4798
 20
-20.2861
 40
1.7364
 50
87.68404332
 51
89.78894779
  0
LINE
  8
LAYER_1
 10
348.4862
 20
-18.5497
 11
345.5153
 21
-18.5497
  0
LINE
  8
LAYER_1
 10
345.5153
 20
-18.5497
 11
345.5153
 21
-21.8112
  0
LINE
  8
LAYER_1
 10
345.5153
 20
-21.8112
 11
347.2783
 21
-21.8112
  0
ARC
  8
LAYER_1
 10
347.3042
 20
-23.4491
 40
1.6382
 50
64.35464453
 51
90.90591812
  0
ARC
  8
LAYER_1
 10
347.505
 20
-22.9498
 40
1.1016
 50
16.86208198
 51
62.52674647
  0
ARC
  8
LAYER_1
 10
347.6845
 20
-22.8808
 40
0.91
 50
0.3653414868
 51
15.98543397
  0
LINE
  8
LAYER_1
 10
348.5944
 20
-22.875
 11
348.5944
 21
-24.6076
  0
LINE
  8
LAYER_1
 10
348.5944
 20
-24.6076
 11
350.1389
 21
-24.6076
  0
LINE
  8
LAYER_1
 10
350.1389
 20
-24.6076
 11
350.1389
 21
-22.7788
  0
ARC
  8
LAYER_1
 10
348.0901
 20
-22.7357
 40
2.0493
 50
358.7952707
 51
12.52382505
  0
ARC
  8
LAYER_1
 10
349.1418
 20
-22.4969
 40
0.9708
 50
12.22608926
 51
45.01685242
  0
ARC
  8
LAYER_1
 10
348.9638
 20
-22.7666
 40
1.289
 50
47.8965793
 51
71.61411127
  0
LINE
  8
LAYER_1
 10
348.296
 20
-20.7595
 11
347.0579
 21
-20.7595
  0
LINE
  8
LAYER_1
 10
347.0579
 20
-20.7595
 11
347.0579
 21
-19.6056
  0
LINE
  8
LAYER_1
 10
347.0579
 20
-19.6056
 11
347.094
 21
-19.6056
  0
LINE
  8
LAYER_1
 10
347.094
 20
-19.6056
 11
348.328
 21
-19.6056
  0
ARC
  8
LAYER_1
 10
348.2872
 20
-20.2689
 40
0.6645
 50
46.60866758
 51
86.48378525
  0
ARC
  8
LAYER_1
 10
348.3533
 20
-20.1538
 40
0.5364
 50
356.9381223
 51
43.29359479
  0
ARC
  8
LAYER_1
 10
348.3437
 20
-20.1812
 40
0.5453
 50
290.0148134
 51
359.8586292
  0
ARC
  8
LAYER_1
 10
348.1673
 20
-19.8538
 40
0.9148
 50
278.085377
 51
293.3808036
  0
ENDBLK
  0
BLOCK
  8
LAYER_1
  2
AIGNBL0102000B
 70
64
 10
0
 20
0
 30
0
  3
AIGNBL0102000B
  0
LINE
  8
LAYER_1
 10
411.2795
 20
-23.7667
 11
411.2795
 21
-20.7929
  0
LINE
  8
LAYER_1
 10
411.2795
 20
-20.7929
 11
411.5907
 21
-20.7929
  0
LINE
  8
LAYER_1
 10
411.5907
 20
-20.7929
 11
411.5907
 21
-24.2863
  0
LINE
  8
LAYER_1
 10
411.5907
 20
-24.2863
 11
411.2574
 21
-24.2863
  0
LINE
  8
LAYER_1
 10
411.2574
 20
-24.2863
 11
409.2808
 21
-21.1691
  0
LINE
  8
LAYER_1
 10
409.2808
 20
-21.1691
 11
409.2808
 21
-24.2863
  0
LINE
  8
LAYER_1
 10
409.2808
 20
-24.2863
 11
408.97
 21
-24.2863
  0
LINE
  8
LAYER_1
 10
408.97
 20
-24.2863
 11
408.97
 21
-20.7929
  0
LINE
  8
LAYER_1
 10
408.97
 20
-20.7929
 11
409.3696
 21
-20.7929
  0
LINE
  8
LAYER_1
 10
409.3696
 20
-20.7929
 11
411.2795
 21
-23.7667
  0
ENDBLK
  0
BLOCK
  8
LAYER_1
  2
AIGNBL0102000C
 70
64
 10
0
 20
0
 30
0
  3
AIGNBL0102000C
  0
LINE
  8
LAYER_1
 10
412.6345
 20
-21.1691
 11
412.2794
 21
-21.1691
  0
LINE
  8
LAYER_1
 10
412.2794
 20
-21.1691
 11
412.2794
 21
-20.7929
  0
LINE
  8
LAYER_1
 10
412.2794
 20
-20.7929
 11
412.6345
 21
-20.7929
  0
LINE
  8
LAYER_1
 10
412.6345
 20
-20.7929
 11
412.6345
 21
-21.1691
  0
LINE
  8
LAYER_1
 10
412.6124
 20
-24.2863
 11
412.3015
 21
-24.2863
  0
LINE
  8
LAYER_1
 10
412.3015
 20
-24.2863
 11
412.3015
 21
-21.832
  0
LINE
  8
LAYER_1
 10
412.3015
 20
-21.832
 11
412.6124
 21
-21.832
  0
LINE
  8
LAYER_1
 10
412.6124
 20
-21.832
 11
412.6124
 21
-24.2863
  0
ENDBLK
  0
BLOCK
  8
LAYER_1
  2
AIGNBL0102000D
 70
64
 10
0
 20
0
 30
0
  3
AIGNBL0102000D
  0
LINE
  8
LAYER_1
 10
413.634
 20
-24.2863
 11
413.3232
 21
-24.2863
  0
LINE
  8
LAYER_1
 10
413.3232
 20
-24.2863
 11
413.3232
 21
-20.7929
  0
LINE
  8
LAYER_1
 10
413.3232
 20
-20.7929
 11
413.634
 21
-20.7929
  0
LINE
  8
LAYER_1
 10
413.634
 20
-20.7929
 11
413.634
 21
-22.3336
  0
ARC
  8
LAYER_1
 10
414.6562
 20
-22.9593
 40
1.1985
 50
129.0840266
 51
148.5281447
  0
ARC
  8
LAYER_1
 10
414.4607
 20
-22.7328
 40
0.8995
 50
91.66388353
 51
128.5113565
  0
ARC
  8
LAYER_1
 10
414.4975
 20
-22.9718
 40
1.1398
 50
89.86245447
 51
93.16440324
  0
ARC
  8
LAYER_1
 10
414.5358
 20
-22.7453
 40
0.914
 50
55.37270639
 51
92.23536778
  0
ARC
  8
LAYER_1
 10
414.6025
 20
-22.5243
 40
0.6979
 50
7.406258716
 51
49.55637664
  0
ARC
  8
LAYER_1
 10
413.69
 20
-22.7322
 40
1.632
 50
359.5284552
 51
10.51345892
  0
LINE
  8
LAYER_1
 10
415.3219
 20
-22.7456
 11
415.3219
 21
-24.2863
  0
LINE
  8
LAYER_1
 10
415.3219
 20
-24.2863
 11
415.011
 21
-24.2863
  0
LINE
  8
LAYER_1
 10
415.011
 20
-24.2863
 11
415.011
 21
-22.7814
  0
ARC
  8
LAYER_1
 10
413.8771
 20
-22.7414
 40
1.1346
 50
357.9797634
 51
16.98467093
  0
ARC
  8
LAYER_1
 10
414.5462
 20
-22.534
 40
0.4341
 50
16.59939675
 51
48.63141937
  0
ARC
  8
LAYER_1
 10
414.4626
 20
-22.6895
 40
0.6074
 50
52.41132045
 51
92.74352394
  0
ARC
  8
LAYER_1
 10
414.4338
 20
-22.7759
 40
0.6931
 50
90.02415888
 51
129.8757432
  0
ARC
  8
LAYER_1
 10
414.5666
 20
-22.9815
 40
0.9365
 50
128.0467338
 51
164.2262689
  0
ARC
  8
LAYER_1
 10
414.6219
 20
-22.9738
 40
0.9879
 50
165.5296484
 51
180.2726432
  0
LINE
  8
LAYER_1
 10
413.634
 20
-22.9785
 11
413.634
 21
-24.2863
  0
ENDBLK
  0
BLOCK
  8
LAYER_1
  2
AIGNBL0102000E
 70
64
 10
0
 20
0
 30
0
  3
AIGNBL0102000E
  0
ARC
  8
LAYER_1
 10
417.1467
 20
-23.0177
 40
1.1857
 50
50.65866774
 51
90.17981855
  0
ARC
  8
LAYER_1
 10
417.2907
 20
-22.8428
 40
0.9592
 50
14.76823995
 51
50.68858398
  0
ARC
  8
LAYER_1
 10
416.6791
 20
-23.0244
 40
1.597
 50
359.0745588
 51
15.47326638
  0
ARC
  8
LAYER_1
 10
416.7877
 20
-23.0882
 40
1.4886
 50
332.9214674
 51
1.464442957
  0
ARC
  8
LAYER_1
 10
417.3296
 20
-23.3144
 40
0.9043
 50
308.9716226
 51
330.0511264
  0
ARC
  8
LAYER_1
 10
417.144
 20
-23.0933
 40
1.193
 50
269.9514466
 51
309.2235324
  0
ARC
  8
LAYER_1
 10
417.1392
 20
-23.1026
 40
1.1837
 50
230.6166449
 51
270.1844057
  0
ARC
  8
LAYER_1
 10
416.9886
 20
-23.2831
 40
0.9487
 50
194.561833
 51
230.7309215
  0
ARC
  8
LAYER_1
 10
417.6705
 20
-23.0792
 40
1.6601
 50
178.9997067
 51
195.4548114
  0
ARC
  8
LAYER_1
 10
417.4448
 20
-23.0142
 40
1.4346
 50
152.440143
 51
181.4386246
  0
ARC
  8
LAYER_1
 10
416.9614
 20
-22.8122
 40
0.9137
 50
128.8590762
 51
149.64206
  0
ARC
  8
LAYER_1
 10
417.1417
 20
-23.0231
 40
1.1911
 50
89.93770614
 51
129.247771
  0
ARC
  8
LAYER_1
 10
417.1134
 20
-22.8538
 40
0.749
 50
129.972269
 51
170.5092975
  0
ARC
  8
LAYER_1
 10
417.8654
 20
-23.0368
 40
1.522
 50
168.3827589
 51
180.5047729
  0
ARC
  8
LAYER_1
 10
417.5555
 20
-23.095
 40
1.2128
 50
177.8808615
 51
209.7571183
  0
ARC
  8
LAYER_1
 10
417.0377
 20
-23.3366
 40
0.6452
 50
213.9608257
 51
231.0572481
  0
ARC
  8
LAYER_1
 10
417.136
 20
-23.2195
 40
0.798
 50
230.8526879
 51
270.5032785
  0
ARC
  8
LAYER_1
 10
417.1486
 20
-23.2151
 40
0.8024
 50
269.6036594
 51
309.0333707
  0
ARC
  8
LAYER_1
 10
417.1742
 20
-23.2679
 40
0.7453
 50
310.0589858
 51
350.8067204
  0
ARC
  8
LAYER_1
 10
416.3521
 20
-23.0662
 40
1.5906
 50
348.3621131
 51
0.5748288015
  0
ARC
  8
LAYER_1
 10
416.7809
 20
-23.0085
 40
1.1625
 50
357.9435385
 51
30.40240925
  0
ARC
  8
LAYER_1
 10
417.2382
 20
-22.7935
 40
0.6608
 50
34.39797876
 51
51.02249247
  0
ARC
  8
LAYER_1
 10
417.1489
 20
-22.902
 40
0.8013
 50
50.93832654
 51
90.42464333
  0
ARC
  8
LAYER_1
 10
417.1378
 20
-22.9038
 40
0.8031
 50
89.62768797
 51
129.0163456
  0
ENDBLK
  0
BLOCK
  8
LAYER_1
  2
AIGNBL0102000F
 70
64
 10
0
 20
0
 30
0
  3
AIGNBL0102000F
  0
ARC
  8
LAYER_1
 10
420.274
 20
-22.5082
 40
0.6525
 50
6.051320533
 51
49.62775877
  0
ARC
  8
LAYER_1
 10
419.4998
 20
-22.6684
 40
1.4414
 50
359.7755146
 51
9.137569315
  0
LINE
  8
LAYER_1
 10
420.9412
 20
-22.674
 11
420.9412
 21
-24.2863
  0
LINE
  8
LAYER_1
 10
420.9412
 20
-24.2863
 11
420.6304
 21
-24.2863
  0
LINE
  8
LAYER_1
 10
420.6304
 20
-24.2863
 11
420.6304
 21
-22.7098
  0
ARC
  8
LAYER_1
 10
419.7708
 20
-22.6807
 40
0.8601
 50
358.0594108
 51
19.48845346
  0
ARC
  8
LAYER_1
 10
420.1741
 20
-22.5396
 40
0.4329
 50
19.69864775
 51
49.96997673
  0
ARC
  8
LAYER_1
 10
420.1188
 20
-22.6635
 40
0.5645
 50
53.76025628
 51
94.44920695
  0
ARC
  8
LAYER_1
 10
420.0753
 20
-22.7942
 40
0.6935
 50
90.02758188
 51
129.8640462
  0
ARC
  8
LAYER_1
 10
420.3337
 20
-23.1241
 40
1.1125
 50
129.1896126
 51
162.056815
  0
LINE
  8
LAYER_1
 10
419.2754
 20
-22.7814
 11
419.2754
 21
-24.2863
  0
LINE
  8
LAYER_1
 10
419.2754
 20
-24.2863
 11
418.9646
 21
-24.2863
  0
LINE
  8
LAYER_1
 10
418.9646
 20
-24.2863
 11
418.9646
 21
-21.832
  0
LINE
  8
LAYER_1
 10
418.9646
 20
-21.832
 11
419.2754
 21
-21.832
  0
LINE
  8
LAYER_1
 10
419.2754
 20
-21.832
 11
419.2754
 21
-22.3336
  0
ARC
  8
LAYER_1
 10
420.196
 20
-22.9249
 40
1.0941
 50
128.1836958
 51
147.2859099
  0
ARC
  8
LAYER_1
 10
420.1679
 20
-22.8433
 40
1.013
 50
94.71086038
 51
129.7881234
  0
ARC
  8
LAYER_1
 10
420.1409
 20
-22.7506
 40
0.9186
 50
89.95836414
 51
93.51044868
  0
ARC
  8
LAYER_1
 10
420.161
 20
-22.7238
 40
0.892
 50
53.92660088
 51
91.24598101
  0
ARC
  8
LAYER_1
 10
420.213
 20
-22.6124
 40
0.7717
 50
51.18250667
 51
52.17433635
  0
ENDBLK
  0
BLOCK
  8
LAYER_1
  2
AIGNBL01020010
 70
64
 10
0
 20
0
 30
0
  3
AIGNBL01020010
  0
LINE
  8
LAYER_1
 10
424.4278
 20
-24.2863
 11
424.0503
 21
-24.2863
  0
LINE
  8
LAYER_1
 10
424.0503
 20
-24.2863
 11
422.8953
 21
-22.674
  0
LINE
  8
LAYER_1
 10
422.8953
 20
-22.674
 11
421.9404
 21
-22.674
  0
LINE
  8
LAYER_1
 10
421.9404
 20
-22.674
 11
421.9404
 21
-24.2863
  0
LINE
  8
LAYER_1
 10
421.9404
 20
-24.2863
 11
421.6295
 21
-24.2863
  0
LINE
  8
LAYER_1
 10
421.6295
 20
-24.2863
 11
421.6295
 21
-20.7929
  0
LINE
  8
LAYER_1
 10
421.6295
 20
-20.7929
 11
423.0287
 21
-20.7929
  0
ARC
  8
LAYER_1
 10
423.0772
 20
-22.5045
 40
1.7123
 50
64.78439451
 51
91.62278741
  0
ARC
  8
LAYER_1
 10
423.3809
 20
-21.7372
 40
0.8903
 50
51.17007386
 51
61.42861306
  0
ARC
  8
LAYER_1
 10
423.4125
 20
-21.6959
 40
0.8383
 50
358.0480093
 51
51.083151
  0
ARC
  8
LAYER_1
 10
423.3681
 20
-21.7413
 40
0.8824
 50
324.0458879
 51
1.092550089
  0
ARC
  8
LAYER_1
 10
423.3997
 20
-21.7319
 40
0.8627
 50
308.6991012
 51
322.3059117
  0
ARC
  8
LAYER_1
 10
423.3216
 20
-21.6144
 40
1.0033
 50
290.1206728
 51
307.9863064
  0
ARC
  8
LAYER_1
 10
423.0509
 20
-20.8588
 40
1.806
 50
275.6482374
 51
289.9384932
  0
LINE
  8
LAYER_1
 10
423.2286
 20
-22.656
 11
424.4278
 21
-24.2863
  0
LINE
  8
LAYER_1
 10
421.9404
 20
-21.0617
 11
421.9404
 21
-22.4052
  0
LINE
  8
LAYER_1
 10
421.9404
 20
-22.4052
 11
422.9399
 21
-22.4052
  0
ARC
  8
LAYER_1
 10
422.9753
 20
-20.6958
 40
1.7098
 50
268.812229
 51
283.8228245
  0
ARC
  8
LAYER_1
 10
423.1893
 20
-21.5457
 40
0.8334
 50
283.4983152
 51
307.3475513
  0
ARC
  8
LAYER_1
 10
423.3218
 20
-21.744
 40
0.5955
 50
308.7937325
 51
1.880035625
  0
ARC
  8
LAYER_1
 10
423.3051
 20
-21.7126
 40
0.612
 50
358.8878167
 51
50.43841515
  0
ARC
  8
LAYER_1
 10
423.2453
 20
-21.8209
 40
0.7339
 50
52.22192401
 51
73.15695802
  0
ARC
  8
LAYER_1
 10
423.0637
 20
-22.449
 40
1.3877
 50
73.49331903
 51
91.44420239
  0
LINE
  8
LAYER_1
 10
423.0287
 20
-21.0617
 11
421.9404
 21
-21.0617
  0
ENDBLK
  0
BLOCK
  8
LAYER_1
  2
AIGNBL01020011
 70
64
 10
0
 20
0
 30
0
  3
AIGNBL01020011
  0
ARC
  8
LAYER_1
 10
426.268
 20
-22.5361
 40
0.6477
 50
358.8914527
 51
51.52566279
  0
LINE
  8
LAYER_1
 10
426.9156
 20
-22.5486
 11
426.9156
 21
-23.7667
  0
ARC
  8
LAYER_1
 10
427.9546
 20
-23.777
 40
1.0391
 50
179.4299303
 51
209.3471846
  0
LINE
  8
LAYER_1
 10
427.0489
 20
-24.2863
 11
426.7156
 21
-24.2863
  0
ARC
  8
LAYER_1
 10
427.3164
 20
-23.904
 40
0.7121
 50
181.9288426
 51
212.467545
  0
ARC
  8
LAYER_1
 10
425.9476
 20
-23.363
 40
0.8666
 50
307.189829
 51
319.3119411
  0
ARC
  8
LAYER_1
 10
425.8156
 20
-23.2319
 40
1.0512
 50
274.3562349
 51
308.6009336
  0
ARC
  8
LAYER_1
 10
425.7671
 20
-22.9729
 40
1.3134
 50
269.7158358
 51
275.6064427
  0
ARC
  8
LAYER_1
 10
425.7367
 20
-23.2721
 40
1.0145
 50
236.2873254
 51
271.3502145
  0
ARC
  8
LAYER_1
 10
425.6569
 20
-23.4474
 40
0.8249
 50
231.0752257
 51
234.1383564
  0
ARC
  8
LAYER_1
 10
425.4713
 20
-23.6734
 40
0.5325
 50
178.4803253
 51
231.3299955
  0
ARC
  8
LAYER_1
 10
425.4746
 20
-23.6636
 40
0.5357
 50
125.8271978
 51
179.5390433
  0
ARC
  8
LAYER_1
 10
425.9574
 20
-24.293
 40
1.3287
 50
111.9690772
 51
126.8176025
  0
ARC
  8
LAYER_1
 10
426.8688
 20
-26.4669
 40
3.6859
 50
106.0549833
 51
112.4656274
  0
ARC
  8
LAYER_1
 10
424.8168
 20
-19.0661
 40
3.9945
 50
284.9820093
 51
296.5899391
  0
ARC
  8
LAYER_1
 10
426.0697
 20
-22.6049
 40
0.536
 50
356.4438295
 51
44.96059349
  0
ARC
  8
LAYER_1
 10
426.0317
 20
-22.7595
 40
0.6773
 50
51.96445878
 51
92.27588681
  0
ARC
  8
LAYER_1
 10
425.9953
 20
-22.748
 40
0.6653
 50
89.17817295
 51
128.3258088
  0
ARC
  8
LAYER_1
 10
425.9515
 20
-22.6663
 40
0.5742
 50
129.9552979
 51
171.8025225
  0
LINE
  8
LAYER_1
 10
425.3831
 20
-22.5844
 11
425.0277
 21
-22.5844
  0
ARC
  8
LAYER_1
 10
425.8605
 20
-22.7062
 40
0.8417
 50
126.4298433
 51
171.6790604
  0
ARC
  8
LAYER_1
 10
425.9262
 20
-22.7569
 40
0.9218
 50
91.54123222
 51
127.8423203
  0
ARC
  8
LAYER_1
 10
425.9988
 20
-23.1894
 40
1.3574
 50
89.74498539
 51
94.1121847
  0
ARC
  8
LAYER_1
 10
426.0394
 20
-22.9616
 40
1.1302
 50
58.6348866
 51
91.75554824
  0
ARC
  8
LAYER_1
 10
426.1864
 20
-22.6324
 40
0.7739
 50
51.23220963
 51
55.23785098
  0
ARC
  8
LAYER_1
 10
425.5364
 20
-20.7946
 40
2.3831
 50
282.4316544
 51
296.6339692
  0
ARC
  8
LAYER_1
 10
426.3694
 20
-24.8125
 40
1.7207
 50
100.7174926
 51
123.1962243
  0
ARC
  8
LAYER_1
 10
425.6503
 20
-23.6789
 40
0.3789
 50
126.0498224
 51
177.0321353
  0
ARC
  8
LAYER_1
 10
425.5873
 20
-23.6525
 40
0.3154
 50
181.2326443
 51
234.7485733
  0
ARC
  8
LAYER_1
 10
425.7388
 20
-23.4547
 40
0.5646
 50
233.7781881
 51
274.4593555
  0
ARC
  8
LAYER_1
 10
425.8117
 20
-23.1506
 40
0.8673
 50
268.0847434
 51
305.5521241
  0
ARC
  8
LAYER_1
 10
425.2792
 20
-22.5232
 40
1.6888
 50
307.8732192
 51
321.7084926
  0
LINE
  8
LAYER_1
 10
426.6047
 20
-23.5697
 11
426.6047
 21
-22.9248
  0
ENDBLK
  0
BLOCK
  8
LAYER_1
  2
AIGNBL01020012
 70
64
 10
0
 20
0
 30
0
  3
AIGNBL01020012
  0
LINE
  8
LAYER_1
 10
428.0926
 20
-21.1691
 11
427.7376
 21
-21.1691
  0
LINE
  8
LAYER_1
 10
427.7376
 20
-21.1691
 11
427.7376
 21
-20.7929
  0
LINE
  8
LAYER_1
 10
427.7376
 20
-20.7929
 11
428.0926
 21
-20.7929
  0
LINE
  8
LAYER_1
 10
428.0926
 20
-20.7929
 11
428.0926
 21
-21.1691
  0
LINE
  8
LAYER_1
 10
428.0705
 20
-24.2863
 11
427.7597
 21
-24.2863
  0
LINE
  8
LAYER_1
 10
427.7597
 20
-24.2863
 11
427.7597
 21
-21.832
  0
LINE
  8
LAYER_1
 10
427.7597
 20
-21.832
 11
428.0705
 21
-21.832
  0
LINE
  8
LAYER_1
 10
428.0705
 20
-21.832
 11
428.0705
 21
-24.2863
  0
ENDBLK
  0
BLOCK
  8
LAYER_1
  2
AIGNBL01020013
 70
64
 10
0
 20
0
 30
0
  3
AIGNBL01020013
  0
LINE
  8
LAYER_1
 10
429.0922
 20
-22.9964
 11
430.4025
 21
-21.832
  0
LINE
  8
LAYER_1
 10
430.4025
 20
-21.832
 11
430.8021
 21
-21.832
  0
LINE
  8
LAYER_1
 10
430.8021
 20
-21.832
 11
429.803
 21
-22.7456
  0
LINE
  8
LAYER_1
 10
429.803
 20
-22.7456
 11
430.9579
 21
-24.2863
  0
LINE
  8
LAYER_1
 10
430.9579
 20
-24.2863
 11
430.5801
 21
-24.2863
  0
LINE
  8
LAYER_1
 10
430.5801
 20
-24.2863
 11
429.5809
 21
-22.9427
  0
LINE
  8
LAYER_1
 10
429.5809
 20
-22.9427
 11
429.0922
 21
-23.3547
  0
LINE
  8
LAYER_1
 10
429.0922
 20
-23.3547
 11
429.0922
 21
-24.2863
  0
LINE
  8
LAYER_1
 10
429.0922
 20
-24.2863
 11
428.7813
 21
-24.2863
  0
LINE
  8
LAYER_1
 10
428.7813
 20
-24.2863
 11
428.7813
 21
-20.7929
  0
LINE
  8
LAYER_1
 10
428.7813
 20
-20.7929
 11
429.0922
 21
-20.7929
  0
LINE
  8
LAYER_1
 10
429.0922
 20
-20.7929
 11
429.0922
 21
-22.9964
  0
ENDBLK
  0
BLOCK
  8
LAYER_1
  2
AIGNBL01020014
 70
64
 10
0
 20
0
 30
0
  3
AIGNBL01020014
  0
ARC
  8
LAYER_1
 10
432.923
 20
-22.7348
 40
0.8773
 50
12.60535839
 51
49.78015098
  0
ARC
  8
LAYER_1
 10
431.8135
 20
-23.058
 40
2.032
 50
358.7043305
 51
14.67021056
  0
LINE
  8
LAYER_1
 10
433.8449
 20
-23.1039
 11
431.9792
 21
-23.1039
  0
ARC
  8
LAYER_1
 10
433.1446
 20
-23.1008
 40
1.1654
 50
180.1541271
 51
212.9251105
  0
ARC
  8
LAYER_1
 10
432.6542
 20
-23.3604
 40
0.6146
 50
217.4544653
 51
231.0501541
  0
ARC
  8
LAYER_1
 10
432.7717
 20
-23.2195
 40
0.798
 50
230.8526879
 51
270.5032785
  0
ARC
  8
LAYER_1
 10
432.7843
 20
-23.2151
 40
0.8024
 50
269.6036594
 51
309.0333707
  0
ARC
  8
LAYER_1
 10
432.9293
 20
-23.3979
 40
0.5691
 50
309.2815712
 51
349.8712316
  0
LINE
  8
LAYER_1
 10
433.4895
 20
-23.498
 11
433.8004
 21
-23.498
  0
ARC
  8
LAYER_1
 10
432.9801
 20
-23.4059
 40
0.8255
 50
314.8960604
 51
353.5965947
  0
ARC
  8
LAYER_1
 10
433.0268
 20
-23.4308
 40
0.7751
 50
308.7219829
 51
313.7478398
  0
ARC
  8
LAYER_1
 10
432.7997
 20
-23.1514
 40
1.1351
 50
268.9403694
 51
308.8417504
  0
ARC
  8
LAYER_1
 10
432.7611
 20
-23.0594
 40
1.2271
 50
239.292602
 51
270.8214191
  0
ARC
  8
LAYER_1
 10
432.7119
 20
-23.1859
 40
1.0933
 50
230.9887202
 51
238.1207089
  0
ARC
  8
LAYER_1
 10
432.6237
 20
-23.3049
 40
0.9454
 50
194.4784115
 51
230.6018738
  0
ARC
  8
LAYER_1
 10
433.357
 20
-23.0831
 40
1.7111
 50
178.8982337
 51
195.532566
  0
ARC
  8
LAYER_1
 10
433.1099
 20
-23.0154
 40
1.4642
 50
152.2541315
 51
181.3638845
  0
ARC
  8
LAYER_1
 10
432.6597
 20
-22.8282
 40
0.9796
 50
128.8086845
 51
149.6805449
  0
ARC
  8
LAYER_1
 10
432.7009
 20
-22.8921
 40
1.0552
 50
94.53278857
 51
128.378639
  0
ARC
  8
LAYER_1
 10
432.7695
 20
-23.2399
 40
1.4079
 50
89.62760171
 51
96.19889102
  0
ARC
  8
LAYER_1
 10
432.7972
 20
-22.9935
 40
1.1617
 50
58.69833938
 51
90.91339307
  0
ARC
  8
LAYER_1
 10
432.8549
 20
-22.8518
 40
1.0109
 50
51.11576378
 51
57.3182685
  0
ARC
  8
LAYER_1
 10
432.619
 20
-22.8447
 40
0.8927
 50
0.6118269148
 51
37.95172425
  0
ARC
  8
LAYER_1
 10
432.9213
 20
-22.67
 40
0.549
 50
42.98225932
 51
50.89942591
  0
ARC
  8
LAYER_1
 10
432.8029
 20
-22.8311
 40
0.7487
 50
51.6443233
 51
91.851885
  0
ARC
  8
LAYER_1
 10
432.7565
 20
-22.9023
 40
0.8198
 50
88.44617899
 51
126.5834834
  0
ARC
  8
LAYER_1
 10
432.7613
 20
-22.851
 40
0.7823
 50
129.1047762
 51
178.8400429
  0
LINE
  8
LAYER_1
 10
431.9792
 20
-22.8352
 11
433.5116
 21
-22.8352
  0
ENDBLK
  0
BLOCK
  8
LAYER_1
  2
AIGNBL01020015
 70
64
 10
0
 20
0
 30
0
  3
AIGNBL01020015
  0
ARC
  8
LAYER_1
 10
435.843
 20
-22.5082
 40
0.6525
 50
6.051320533
 51
49.62775877
  0
ARC
  8
LAYER_1
 10
435.0688
 20
-22.6684
 40
1.4414
 50
359.7755146
 51
9.137569315
  0
LINE
  8
LAYER_1
 10
436.5102
 20
-22.674
 11
436.5102
 21
-24.2863
  0
LINE
  8
LAYER_1
 10
436.5102
 20
-24.2863
 11
436.1994
 21
-24.2863
  0
LINE
  8
LAYER_1
 10
436.1994
 20
-24.2863
 11
436.1994
 21
-22.7098
  0
ARC
  8
LAYER_1
 10
435.3398
 20
-22.6807
 40
0.8601
 50
358.0594108
 51
19.48845346
  0
ARC
  8
LAYER_1
 10
435.7431
 20
-22.5396
 40
0.4329
 50
19.69864775
 51
49.96997673
  0
ARC
  8
LAYER_1
 10
435.6879
 20
-22.6632
 40
0.5642
 50
53.74913583
 51
94.46032741
  0
ARC
  8
LAYER_1
 10
435.6443
 20
-22.7938
 40
0.6931
 50
90.02415888
 51
129.8757432
  0
ARC
  8
LAYER_1
 10
435.9021
 20
-23.1236
 40
1.1116
 50
129.176133
 51
162.0702946
  0
LINE
  8
LAYER_1
 10
434.8445
 20
-22.7814
 11
434.8445
 21
-24.2863
  0
LINE
  8
LAYER_1
 10
434.8445
 20
-24.2863
 11
434.5336
 21
-24.2863
  0
LINE
  8
LAYER_1
 10
434.5336
 20
-24.2863
 11
434.5336
 21
-21.832
  0
LINE
  8
LAYER_1
 10
434.5336
 20
-21.832
 11
434.8445
 21
-21.832
  0
LINE
  8
LAYER_1
 10
434.8445
 20
-21.832
 11
434.8445
 21
-22.3336
  0
ARC
  8
LAYER_1
 10
435.7634
 20
-22.9231
 40
1.0917
 50
128.1761014
 51
147.3168645
  0
ARC
  8
LAYER_1
 10
435.7369
 20
-22.8433
 40
1.013
 50
94.70572815
 51
129.7878288
  0
ARC
  8
LAYER_1
 10
435.71
 20
-22.7512
 40
0.9192
 50
89.957982
 51
93.50939217
  0
ARC
  8
LAYER_1
 10
435.7301
 20
-22.7234
 40
0.8917
 50
53.9196421
 51
91.2469403
  0
ARC
  8
LAYER_1
 10
435.7817
 20
-22.6127
 40
0.7721
 50
51.1823524
 51
52.17362777
  0
ENDBLK
  0
BLOCK
  8
LAYER_1
  2
AIGNBL01020016
 70
64
 10
0
 20
0
 30
0
  3
AIGNBL01020016
  0
LINE
  8
LAYER_1
 10
438.6423
 20
-23.8563
 11
439.7085
 21
-20.7929
  0
LINE
  8
LAYER_1
 10
439.7085
 20
-20.7929
 11
440.0859
 21
-20.7929
  0
LINE
  8
LAYER_1
 10
440.0859
 20
-20.7929
 11
438.8201
 21
-24.2863
  0
LINE
  8
LAYER_1
 10
438.8201
 20
-24.2863
 11
438.4647
 21
-24.2863
  0
LINE
  8
LAYER_1
 10
438.4647
 20
-24.2863
 11
437.1989
 21
-20.7929
  0
LINE
  8
LAYER_1
 10
437.1989
 20
-20.7929
 11
437.5764
 21
-20.7929
  0
LINE
  8
LAYER_1
 10
437.5764
 20
-20.7929
 11
438.6423
 21
-23.8563
  0
ENDBLK
  0
BLOCK
  8
LAYER_1
  2
AIGNBL01020017
 70
64
 10
0
 20
0
 30
0
  3
AIGNBL01020017
  0
ARC
  8
LAYER_1
 10
442.0514
 20
-22.7348
 40
0.8773
 50
12.60535839
 51
49.78015098
  0
ARC
  8
LAYER_1
 10
440.9419
 20
-23.058
 40
2.032
 50
358.7043305
 51
14.67021056
  0
LINE
  8
LAYER_1
 10
442.9733
 20
-23.1039
 11
441.1076
 21
-23.1039
  0
ARC
  8
LAYER_1
 10
442.273
 20
-23.1008
 40
1.1654
 50
180.1541271
 51
212.9251105
  0
ARC
  8
LAYER_1
 10
441.7826
 20
-23.3604
 40
0.6146
 50
217.4544653
 51
231.0501541
  0
ARC
  8
LAYER_1
 10
441.9001
 20
-23.2195
 40
0.798
 50
230.8526879
 51
270.5032785
  0
ARC
  8
LAYER_1
 10
441.9127
 20
-23.2151
 40
0.8024
 50
269.6036594
 51
309.0333707
  0
ARC
  8
LAYER_1
 10
442.0577
 20
-23.3979
 40
0.5691
 50
309.2815712
 51
349.8712316
  0
LINE
  8
LAYER_1
 10
442.6179
 20
-23.498
 11
442.9288
 21
-23.498
  0
ARC
  8
LAYER_1
 10
442.1085
 20
-23.4059
 40
0.8255
 50
314.8960604
 51
353.5965947
  0
ARC
  8
LAYER_1
 10
442.1552
 20
-23.4308
 40
0.7751
 50
308.7219829
 51
313.7478398
  0
ARC
  8
LAYER_1
 10
441.9281
 20
-23.1514
 40
1.1351
 50
268.9403694
 51
308.8417504
  0
ARC
  8
LAYER_1
 10
441.8895
 20
-23.0594
 40
1.2271
 50
239.292602
 51
270.8214191
  0
ARC
  8
LAYER_1
 10
441.8403
 20
-23.1859
 40
1.0933
 50
230.9887202
 51
238.1207089
  0
ARC
  8
LAYER_1
 10
441.7521
 20
-23.3049
 40
0.9454
 50
194.4784115
 51
230.6018738
  0
ARC
  8
LAYER_1
 10
442.4854
 20
-23.0831
 40
1.7111
 50
178.8982337
 51
195.532566
  0
ARC
  8
LAYER_1
 10
442.2383
 20
-23.0154
 40
1.4642
 50
152.2541315
 51
181.3638845
  0
ARC
  8
LAYER_1
 10
441.7881
 20
-22.8282
 40
0.9796
 50
128.8086845
 51
149.6805449
  0
ARC
  8
LAYER_1
 10
441.8293
 20
-22.8921
 40
1.0552
 50
94.53278857
 51
128.378639
  0
ARC
  8
LAYER_1
 10
441.8979
 20
-23.2399
 40
1.4079
 50
89.62760171
 51
96.19889102
  0
ARC
  8
LAYER_1
 10
441.9256
 20
-22.9935
 40
1.1617
 50
58.69833938
 51
90.91339307
  0
ARC
  8
LAYER_1
 10
441.9833
 20
-22.8518
 40
1.0109
 50
51.11576378
 51
57.3182685
  0
ARC
  8
LAYER_1
 10
441.7474
 20
-22.8447
 40
0.8927
 50
0.6118269149
 51
37.95172425
  0
ARC
  8
LAYER_1
 10
442.0497
 20
-22.67
 40
0.549
 50
42.98225932
 51
50.89942591
  0
ARC
  8
LAYER_1
 10
441.9313
 20
-22.8311
 40
0.7487
 50
51.6443233
 51
91.851885
  0
ARC
  8
LAYER_1
 10
441.8848
 20
-22.9021
 40
0.8196
 50
88.44194211
 51
126.5877202
  0
ARC
  8
LAYER_1
 10
441.8897
 20
-22.851
 40
0.7823
 50
129.1047762
 51
178.8400429
  0
LINE
  8
LAYER_1
 10
441.1076
 20
-22.8352
 11
442.64
 21
-22.8352
  0
ENDBLK
  0
BLOCK
  8
LAYER_1
  2
AIGNBL01020018
 70
64
 10
0
 20
0
 30
0
  3
AIGNBL01020018
  0
ARC
  8
LAYER_1
 10
444.9571
 20
-22.6983
 40
0.8372
 50
1.663112334
 51
51.07154525
  0
LINE
  8
LAYER_1
 10
445.794
 20
-22.674
 11
445.4608
 21
-22.674
  0
ARC
  8
LAYER_1
 10
444.8165
 20
-22.692
 40
0.6446
 50
1.60059682
 51
45.70743423
  0
ARC
  8
LAYER_1
 10
444.9672
 20
-22.5884
 40
0.4665
 50
50.07973121
 51
50.95470873
  0
ARC
  8
LAYER_1
 10
444.8433
 20
-22.761
 40
0.6787
 50
52.00800242
 51
92.22480384
  0
ARC
  8
LAYER_1
 10
444.8116
 20
-22.8866
 40
0.8038
 50
89.61710353
 51
128.9989307
  0
ARC
  8
LAYER_1
 10
444.8186
 20
-22.8794
 40
0.8027
 50
129.7095234
 51
169.2383847
  0
ARC
  8
LAYER_1
 10
445.5032
 20
-23.0532
 40
1.5083
 50
167.6063946
 51
180.5653725
  0
ARC
  8
LAYER_1
 10
445.207
 20
-23.113
 40
1.2129
 50
177.8776841
 51
209.7531783
  0
ARC
  8
LAYER_1
 10
444.6889
 20
-23.3546
 40
0.6448
 50
213.9644615
 51
231.0723734
  0
ARC
  8
LAYER_1
 10
444.7798
 20
-23.2593
 40
0.7763
 50
230.2735397
 51
269.4517866
  0
ARC
  8
LAYER_1
 10
444.7926
 20
-23.4004
 40
0.6354
 50
268.1802574
 51
306.6648982
  0
ARC
  8
LAYER_1
 10
444.7412
 20
-23.39
 40
0.6753
 50
309.6313204
 51
331.3959845
  0
ARC
  8
LAYER_1
 10
444.3076
 20
-23.1661
 40
1.1632
 50
331.9405103
 51
352.4534227
  0
LINE
  8
LAYER_1
 10
445.4608
 20
-23.3189
 11
445.794
 21
-23.3189
  0
ARC
  8
LAYER_1
 10
444.6101
 20
-23.2497
 40
1.1859
 50
324.481718
 51
356.656741
  0
ARC
  8
LAYER_1
 10
444.9846
 20
-23.4632
 40
0.7584
 50
308.8963025
 51
321.1652313
  0
ARC
  8
LAYER_1
 10
444.8044
 20
-23.245
 40
1.0414
 50
269.4571187
 51
309.0762371
  0
ARC
  8
LAYER_1
 10
444.7705
 20
-23.0663
 40
1.2203
 50
239.4752117
 51
271.1278274
  0
ARC
  8
LAYER_1
 10
444.6768
 20
-23.2912
 40
0.9795
 50
231.091741
 51
237.5131765
  0
ARC
  8
LAYER_1
 10
444.699
 20
-23.2682
 40
1.0113
 50
196.2076981
 51
230.9284391
  0
ARC
  8
LAYER_1
 10
445.2494
 20
-23.097
 40
1.5877
 50
178.9571715
 51
196.5979576
  0
ARC
  8
LAYER_1
 10
445.1255
 20
-23.0332
 40
1.464
 50
152.2522295
 51
181.3642106
  0
ARC
  8
LAYER_1
 10
444.6761
 20
-22.8465
 40
0.9802
 50
128.8196472
 51
149.67893
  0
ARC
  8
LAYER_1
 10
444.7806
 20
-22.9853
 40
1.1538
 50
88.19025853
 51
128.543058
  0
ARC
  8
LAYER_1
 10
444.838
 20
-22.9204
 40
1.0886
 50
57.47608577
 51
91.10358994
  0
ARC
  8
LAYER_1
 10
444.9064
 20
-22.7619
 40
0.9186
 50
51.10259524
 51
55.76020991
  0
ENDBLK
  0
BLOCK
  8
LAYER_1
  2
AIGNBL01020019
 70
64
 10
0
 20
0
 30
0
  3
AIGNBL01020019
  0
LINE
  8
LAYER_1
 10
446.8602
 20
-22.1007
 11
446.4827
 21
-22.1007
  0
LINE
  8
LAYER_1
 10
446.4827
 20
-22.1007
 11
446.4827
 21
-21.832
  0
LINE
  8
LAYER_1
 10
446.4827
 20
-21.832
 11
446.8602
 21
-21.832
  0
LINE
  8
LAYER_1
 10
446.8602
 20
-21.832
 11
446.8602
 21
-21.1512
  0
LINE
  8
LAYER_1
 10
446.8602
 20
-21.1512
 11
447.1711
 21
-21.1512
  0
LINE
  8
LAYER_1
 10
447.1711
 20
-21.1512
 11
447.1711
 21
-21.832
  0
LINE
  8
LAYER_1
 10
447.1711
 20
-21.832
 11
447.8152
 21
-21.832
  0
LINE
  8
LAYER_1
 10
447.8152
 20
-21.832
 11
447.8152
 21
-22.1007
  0
LINE
  8
LAYER_1
 10
447.8152
 20
-22.1007
 11
447.1711
 21
-22.1007
  0
LINE
  8
LAYER_1
 10
447.1711
 20
-22.1007
 11
447.1711
 21
-23.8026
  0
ARC
  8
LAYER_1
 10
447.3663
 20
-23.8163
 40
0.1957
 50
175.9815948
 51
228.9144727
  0
ARC
  8
LAYER_1
 10
447.4268
 20
-23.668
 40
0.3511
 50
237.4176742
 51
275.3977506
  0
ARC
  8
LAYER_1
 10
447.3875
 20
-21.9627
 40
2.0561
 50
272.0139483
 51
283.2785335
  0
LINE
  8
LAYER_1
 10
447.8598
 20
-23.9638
 11
447.8598
 21
-24.2325
  0
ARC
  8
LAYER_1
 10
447.4503
 20
-22.7121
 40
1.5746
 50
268.727154
 51
285.0752825
  0
ARC
  8
LAYER_1
 10
447.3691
 20
-23.5868
 40
0.701
 50
237.614618
 51
273.7828259
  0
ARC
  8
LAYER_1
 10
447.2419
 20
-23.8872
 40
0.383
 50
175.3659316
 51
229.5782906
  0
LINE
  8
LAYER_1
 10
446.8602
 20
-23.8563
 11
446.8602
 21
-22.1007
  0
ENDBLK
  0
BLOCK
  8
LAYER_1
  2
AIGNBL0102001A
 70
64
 10
0
 20
0
 30
0
  3
AIGNBL0102001A
  0
ARC
  8
LAYER_1
 10
449.6843
 20
-23.0179
 40
1.1859
 50
50.66136279
 51
90.17712349
  0
ARC
  8
LAYER_1
 10
449.8283
 20
-22.8428
 40
0.9592
 50
14.76823995
 51
50.68858398
  0
ARC
  8
LAYER_1
 10
449.2167
 20
-23.0244
 40
1.597
 50
359.0745588
 51
15.47326638
  0
ARC
  8
LAYER_1
 10
449.3253
 20
-23.0882
 40
1.4886
 50
332.9214674
 51
1.464442957
  0
ARC
  8
LAYER_1
 10
449.8672
 20
-23.3144
 40
0.9043
 50
308.9716226
 51
330.0511264
  0
ARC
  8
LAYER_1
 10
449.6816
 20
-23.0932
 40
1.1931
 50
269.9540453
 51
309.2209337
  0
ARC
  8
LAYER_1
 10
449.6768
 20
-23.1024
 40
1.1839
 50
230.6202422
 51
270.1856047
  0
ARC
  8
LAYER_1
 10
449.5265
 20
-23.2828
 40
0.9491
 50
194.5685782
 51
230.7194827
  0
ARC
  8
LAYER_1
 10
450.2075
 20
-23.0791
 40
1.6597
 50
179.0008328
 51
195.4605398
  0
ARC
  8
LAYER_1
 10
449.9822
 20
-23.0142
 40
1.4345
 50
152.4352517
 51
181.4366148
  0
ARC
  8
LAYER_1
 10
449.4993
 20
-22.8124
 40
0.9142
 50
128.8709262
 51
149.6419077
  0
ARC
  8
LAYER_1
 10
449.6794
 20
-23.0236
 40
1.1916
 50
89.94023073
 51
129.2404515
  0
ARC
  8
LAYER_1
 10
449.6507
 20
-22.8538
 40
0.7488
 50
129.9562898
 51
170.506786
  0
ARC
  8
LAYER_1
 10
450.4027
 20
-23.0368
 40
1.5217
 50
168.3811631
 51
180.5051151
  0
ARC
  8
LAYER_1
 10
450.0927
 20
-23.0951
 40
1.2125
 50
177.8795135
 51
209.7652959
  0
ARC
  8
LAYER_1
 10
449.5752
 20
-23.3365
 40
0.6452
 50
213.9717645
 51
231.0723404
  0
ARC
  8
LAYER_1
 10
449.6735
 20
-23.2197
 40
0.7978
 50
230.8483722
 51
270.5075942
  0
ARC
  8
LAYER_1
 10
449.6862
 20
-23.2154
 40
0.8021
 50
269.6030079
 51
309.0410257
  0
ARC
  8
LAYER_1
 10
449.712
 20
-23.2679
 40
0.7452
 50
310.0430385
 51
350.8041923
  0
ARC
  8
LAYER_1
 10
448.89
 20
-23.0662
 40
1.5903
 50
348.3604548
 51
0.5752092068
  0
ARC
  8
LAYER_1
 10
449.3188
 20
-23.0085
 40
1.1621
 50
357.9421966
 51
30.41074147
  0
ARC
  8
LAYER_1
 10
449.7759
 20
-22.7936
 40
0.6608
 50
34.40895059
 51
51.0375671
  0
ARC
  8
LAYER_1
 10
449.6865
 20
-22.9018
 40
0.8011
 50
50.93306435
 51
90.42290204
  0
ARC
  8
LAYER_1
 10
449.6753
 20
-22.9036
 40
0.8029
 50
89.62325414
 51
129.0207794
  0
ENDBLK
  0
BLOCK
  8
LAYER_1
  2
AIGNBL0102001B
 70
64
 10
0
 20
0
 30
0
  3
AIGNBL0102001B
  0
ARC
  8
LAYER_1
 10
452.8927
 20
-23.1836
 40
1.0477
 50
91.97097397
 51
126.0381327
  0
ARC
  8
LAYER_1
 10
452.8379
 20
-23.0709
 40
0.9246
 50
127.3965684
 51
128.9125782
  0
ARC
  8
LAYER_1
 10
453.0784
 20
-23.3538
 40
1.2958
 50
129.3300534
 51
159.9060324
  0
ARC
  8
LAYER_1
 10
453.4125
 20
-23.5184
 40
1.6666
 50
158.5393833
 51
163.685527
  0
LINE
  8
LAYER_1
 10
451.813
 20
-23.0502
 11
451.813
 21
-24.2863
  0
LINE
  8
LAYER_1
 10
451.813
 20
-24.2863
 11
451.5022
 21
-24.2863
  0
LINE
  8
LAYER_1
 10
451.5022
 20
-24.2863
 11
451.5022
 21
-21.832
  0
LINE
  8
LAYER_1
 10
451.5022
 20
-21.832
 11
451.813
 21
-21.832
  0
LINE
  8
LAYER_1
 10
451.813
 20
-21.832
 11
451.813
 21
-22.4769
  0
ARC
  8
LAYER_1
 10
452.7347
 20
-22.9219
 40
1.0235
 50
126.6471734
 51
154.2287677
  0
ARC
  8
LAYER_1
 10
452.8861
 20
-23.0684
 40
1.2319
 50
96.74353549
 51
128.2269731
  0
ARC
  8
LAYER_1
 10
452.9856
 20
-23.4847
 40
1.6577
 50
94.46061072
 51
98.47202668
  0
LINE
  8
LAYER_1
 10
452.8567
 20
-21.832
 11
452.8567
 21
-22.1365
  0
ENDBLK
  0
BLOCK
  8
LAYER_1
  2
AIGNBL0102001C
 70
64
 10
0
 20
0
 30
0
  3
AIGNBL0102001C
  0
ARC
  8
LAYER_1
 10
456.9156
 20
-22.1545
 40
1.3702
 50
21.61201352
 51
51.67268522
  0
ARC
  8
LAYER_1
 10
456.8769
 20
-22.1443
 40
1.4026
 50
3.97659016
 51
20.64199539
  0
LINE
  8
LAYER_1
 10
458.2761
 20
-22.047
 11
457.9207
 21
-22.047
  0
ARC
  8
LAYER_1
 10
456.6327
 20
-22.2566
 40
1.305
 50
9.243777606
 51
39.90748912
  0
ARC
  8
LAYER_1
 10
456.8976
 20
-22.0841
 40
0.9918
 50
42.08295968
 51
51.07953506
  0
ARC
  8
LAYER_1
 10
456.9128
 20
-22.0639
 40
0.9665
 50
51.02760566
 51
90.81327206
  0
ARC
  8
LAYER_1
 10
456.8989
 20
-22.1042
 40
1.0067
 50
89.98703245
 51
129.7662279
  0
ARC
  8
LAYER_1
 10
456.9774
 20
-22.212
 40
1.1398
 50
129.3376781
 51
161.8421636
  0
ARC
  8
LAYER_1
 10
457.8102
 20
-22.5059
 40
2.0228
 50
161.2831493
 51
181.7180446
  0
ARC
  8
LAYER_1
 10
457.8887
 20
-22.621
 40
2.1011
 50
178.5125538
 51
202.8965371
  0
ARC
  8
LAYER_1
 10
456.8331
 20
-23.0137
 40
0.9771
 50
205.77068
 51
230.4128973
  0
ARC
  8
LAYER_1
 10
456.819
 20
-22.9998
 40
0.9791
 50
231.5658276
 51
266.9483369
  0
ARC
  8
LAYER_1
 10
456.8712
 20
-22.7015
 40
1.2802
 50
265.3248171
 51
270.2405773
  0
ARC
  8
LAYER_1
 10
456.8977
 20
-22.8924
 40
1.0895
 50
268.8910908
 51
302.509721
  0
ARC
  8
LAYER_1
 10
456.9667
 20
-23.0521
 40
0.9181
 50
304.2368089
 51
308.8969843
  0
ARC
  8
LAYER_1
 10
456.9252
 20
-23.0271
 40
0.9638
 50
309.8847267
 51
345.8007272
  0
ARC
  8
LAYER_1
 10
456.0975
 20
-22.7501
 40
1.8353
 50
343.7537335
 51
353.4137821
  0
LINE
  8
LAYER_1
 10
457.9207
 20
-22.9606
 11
458.2761
 21
-22.9606
  0
ARC
  8
LAYER_1
 10
456.5105
 20
-22.8314
 40
1.7703
 50
329.5108163
 51
355.8133908
  0
ARC
  8
LAYER_1
 10
457.1292
 20
-23.1426
 40
1.0802
 50
309.0339685
 51
327.0861672
  0
ARC
  8
LAYER_1
 10
456.9395
 20
-22.8944
 40
1.3925
 50
268.3355677
 51
308.6626688
  0
ARC
  8
LAYER_1
 10
456.8827
 20
-22.7289
 40
1.5575
 50
242.6574863
 51
270.6025838
  0
ARC
  8
LAYER_1
 10
456.8522
 20
-22.8413
 40
1.4439
 50
231.025797
 51
241.6821659
  0
ARC
  8
LAYER_1
 10
456.7107
 20
-23.0324
 40
1.2062
 50
198.8298963
 51
230.5439311
  0
ARC
  8
LAYER_1
 10
457.4572
 20
-22.7332
 40
2.0099
 50
188.8828728
 51
200.0356265
  0
ARC
  8
LAYER_1
 10
458.6061
 20
-22.5526
 40
3.1728
 50
179.6024255
 51
188.9007786
  0
ARC
  8
LAYER_1
 10
457.5626
 20
-22.4995
 40
2.1295
 50
156.9971807
 51
180.8362556
  0
ARC
  8
LAYER_1
 10
456.982
 20
-22.2993
 40
1.5174
 50
128.7196973
 51
155.3873018
  0
ARC
  8
LAYER_1
 10
456.9482
 20
-22.2234
 40
1.4372
 50
100.5878905
 51
129.5641865
  0
ARC
  8
LAYER_1
 10
456.8984
 20
-22.0977
 40
1.3048
 50
89.97098811
 51
99.45215317
  0
ARC
  8
LAYER_1
 10
456.9177
 20
-22.2175
 40
1.4248
 50
61.28626972
 51
90.74695435
  0
ARC
  8
LAYER_1
 10
456.9667
 20
-22.0717
 40
1.2735
 50
51.16646023
 51
60.06761422
  0
ENDBLK
  0
BLOCK
  8
LAYER_1
  2
AIGNBL0102001D
 70
64
 10
0
 20
0
 30
0
  3
AIGNBL0102001D
  0
ARC
  8
LAYER_1
 10
460.101
 20
-23.0176
 40
1.1856
 50
50.65609095
 51
90.17760489
  0
ARC
  8
LAYER_1
 10
460.2449
 20
-22.8428
 40
0.9592
 50
14.76823995
 51
50.68858398
  0
ARC
  8
LAYER_1
 10
459.6333
 20
-23.0244
 40
1.597
 50
359.0745588
 51
15.47326638
  0
ARC
  8
LAYER_1
 10
459.7419
 20
-23.0882
 40
1.4886
 50
332.9214674
 51
1.464442957
  0
ARC
  8
LAYER_1
 10
460.2838
 20
-23.3144
 40
0.9043
 50
308.9716226
 51
330.0511264
  0
ARC
  8
LAYER_1
 10
460.0982
 20
-23.0933
 40
1.193
 50
269.9558314
 51
309.2239394
  0
ARC
  8
LAYER_1
 10
460.0935
 20
-23.1024
 40
1.1839
 50
230.6202422
 51
270.1856047
  0
ARC
  8
LAYER_1
 10
459.9428
 20
-23.2831
 40
0.9487
 50
194.561833
 51
230.7309215
  0
ARC
  8
LAYER_1
 10
460.6247
 20
-23.0792
 40
1.6601
 50
178.9997067
 51
195.4548114
  0
ARC
  8
LAYER_1
 10
460.399
 20
-23.0142
 40
1.4346
 50
152.440143
 51
181.4386246
  0
ARC
  8
LAYER_1
 10
459.9156
 20
-22.8122
 40
0.9137
 50
128.8590762
 51
149.64206
  0
ARC
  8
LAYER_1
 10
460.0961
 20
-23.0236
 40
1.1916
 50
89.94023073
 51
129.2404515
  0
ARC
  8
LAYER_1
 10
460.0674
 20
-22.8538
 40
0.7488
 50
129.9562898
 51
170.506786
  0
ARC
  8
LAYER_1
 10
460.8194
 20
-23.0368
 40
1.5217
 50
168.3811631
 51
180.5051151
  0
ARC
  8
LAYER_1
 10
460.5094
 20
-23.0951
 40
1.2125
 50
177.8795135
 51
209.7652959
  0
ARC
  8
LAYER_1
 10
459.9919
 20
-23.3365
 40
0.6452
 50
213.9717645
 51
231.0723404
  0
ARC
  8
LAYER_1
 10
460.0902
 20
-23.2197
 40
0.7978
 50
230.8483722
 51
270.5075942
  0
ARC
  8
LAYER_1
 10
460.1028
 20
-23.2152
 40
0.8023
 50
269.6074376
 51
309.036596
  0
ARC
  8
LAYER_1
 10
460.1288
 20
-23.2681
 40
0.7449
 50
310.0444612
 51
350.8169273
  0
ARC
  8
LAYER_1
 10
459.3055
 20
-23.0662
 40
1.5914
 50
348.3690332
 51
0.575486832
  0
ARC
  8
LAYER_1
 10
459.7351
 20
-23.0084
 40
1.1625
 50
357.9402401
 51
30.39842287
  0
ARC
  8
LAYER_1
 10
460.1928
 20
-22.7934
 40
0.6605
 50
34.4016338
 51
51.03760954
  0
ARC
  8
LAYER_1
 10
460.1032
 20
-22.902
 40
0.8013
 50
50.93743053
 51
90.41853585
  0
ARC
  8
LAYER_1
 10
460.092
 20
-22.9036
 40
0.8029
 50
89.62325414
 51
129.0207794
  0
ENDBLK
  0
BLOCK
  8
LAYER_1
  2
AIGNBL0102001E
 70
64
 10
0
 20
0
 30
0
  3
AIGNBL0102001E
  0
ARC
  8
LAYER_1
 10
463.3094
 20
-23.1836
 40
1.0477
 50
91.97097397
 51
126.0381327
  0
ARC
  8
LAYER_1
 10
463.2546
 20
-23.0709
 40
0.9246
 50
127.3965684
 51
128.9125782
  0
ARC
  8
LAYER_1
 10
463.4942
 20
-23.3532
 40
1.2948
 50
129.318059
 51
159.9171039
  0
ARC
  8
LAYER_1
 10
463.83
 20
-23.5186
 40
1.6675
 50
158.5432417
 51
163.6865596
  0
LINE
  8
LAYER_1
 10
462.2297
 20
-23.0502
 11
462.2297
 21
-24.2863
  0
LINE
  8
LAYER_1
 10
462.2297
 20
-24.2863
 11
461.9188
 21
-24.2863
  0
LINE
  8
LAYER_1
 10
461.9188
 20
-24.2863
 11
461.9188
 21
-21.832
  0
LINE
  8
LAYER_1
 10
461.9188
 20
-21.832
 11
462.2297
 21
-21.832
  0
LINE
  8
LAYER_1
 10
462.2297
 20
-21.832
 11
462.2297
 21
-22.4769
  0
ARC
  8
LAYER_1
 10
463.1508
 20
-22.9214
 40
1.0227
 50
126.6359012
 51
154.2400399
  0
ARC
  8
LAYER_1
 10
463.3027
 20
-23.0682
 40
1.2317
 50
96.74246499
 51
128.2300082
  0
ARC
  8
LAYER_1
 10
463.4023
 20
-23.4847
 40
1.6578
 50
94.45845648
 51
98.47084945
  0
LINE
  8
LAYER_1
 10
463.2734
 20
-21.832
 11
463.2734
 21
-22.1365
  0
ENDBLK
  0
BLOCK
  8
LAYER_1
  2
AIGNBL0102001F
 70
64
 10
0
 20
0
 30
0
  3
AIGNBL0102001F
  0
LINE
  8
LAYER_1
 10
464.2729
 20
-24.9491
 11
463.9621
 21
-24.9491
  0
LINE
  8
LAYER_1
 10
463.9621
 20
-24.9491
 11
463.9621
 21
-21.832
  0
LINE
  8
LAYER_1
 10
463.9621
 20
-21.832
 11
464.2729
 21
-21.832
  0
LINE
  8
LAYER_1
 10
464.2729
 20
-21.832
 11
464.2729
 21
-22.2978
  0
ARC
  8
LAYER_1
 10
465.194
 20
-22.8893
 40
1.0947
 50
128.1972663
 51
147.2935614
  0
ARC
  8
LAYER_1
 10
465.0701
 20
-22.7067
 40
0.8747
 50
89.8444149
 51
129.2147073
  0
ARC
  8
LAYER_1
 10
465.0895
 20
-22.7963
 40
0.9644
 50
55.11413052
 51
91.00899415
  0
ARC
  8
LAYER_1
 10
465.1308
 20
-22.7012
 40
0.8631
 50
51.15978905
 51
53.75666745
  0
ARC
  8
LAYER_1
 10
465.0339
 20
-22.815
 40
1.0125
 50
16.22617072
 51
50.92224531
  0
ARC
  8
LAYER_1
 10
464.4865
 20
-22.9856
 40
1.5857
 50
358.9645701
 51
16.62129814
  0
ARC
  8
LAYER_1
 10
464.3816
 20
-23.0584
 40
1.691
 50
334.5026619
 51
1.495265783
  0
ARC
  8
LAYER_1
 10
465.0752
 20
-23.3374
 40
0.946
 50
309.1217101
 51
331.6662015
  0
ARC
  8
LAYER_1
 10
465.0638
 20
-23.3186
 40
0.9678
 50
269.2083642
 51
308.9450639
  0
ARC
  8
LAYER_1
 10
465.0512
 20
-23.403
 40
0.8833
 50
230.9732535
 51
269.9492989
  0
ARC
  8
LAYER_1
 10
464.9537
 20
-23.4839
 40
0.7595
 50
206.3088508
 51
232.8435404
  0
LINE
  8
LAYER_1
 10
464.2729
 20
-23.8205
 11
464.2729
 21
-24.9491
  0
ARC
  8
LAYER_1
 10
465.0445
 20
-23.3834
 40
0.6366
 50
309.5625865
 51
332.3229825
  0
ARC
  8
LAYER_1
 10
464.7202
 20
-23.2186
 40
1.0004
 50
332.5931744
 51
348.28086
  0
ARC
  8
LAYER_1
 10
463.8515
 20
-23.0395
 40
1.8873
 50
348.3117543
 51
0.7641592305
  0
ARC
  8
LAYER_1
 10
464.2446
 20
-22.9816
 40
1.4945
 50
358.7443527
 51
14.79207003
  0
ARC
  8
LAYER_1
 10
465.0024
 20
-22.7753
 40
0.7091
 50
14.31003923
 51
48.52072897
  0
ARC
  8
LAYER_1
 10
465.0635
 20
-22.7544
 40
0.6538
 50
51.31691743
 51
91.14601637
  0
ARC
  8
LAYER_1
 10
465.0428
 20
-22.8345
 40
0.7339
 50
89.40525117
 51
128.7125513
  0
ARC
  8
LAYER_1
 10
465.0939
 20
-22.8811
 40
0.8022
 50
129.4803755
 51
169.0282108
  0
ARC
  8
LAYER_1
 10
465.7128
 20
-23.037
 40
1.44
 50
167.6242357
 51
180.5237551
  0
ARC
  8
LAYER_1
 10
465.4807
 20
-23.0884
 40
1.2084
 50
178.1875963
 51
209.9212857
  0
ARC
  8
LAYER_1
 10
465.0405
 20
-23.2891
 40
0.7282
 50
213.5166307
 51
231.1606718
  0
ARC
  8
LAYER_1
 10
465.0318
 20
-23.3144
 40
0.7031
 50
230.4192347
 51
269.6808632
  0
ARC
  8
LAYER_1
 10
465.0379
 20
-23.3536
 40
0.664
 50
269.1391726
 51
308.3648093
  0
ENDBLK
  0
BLOCK
  8
LAYER_1
  2
AIGNBL01020020
 70
64
 10
0
 20
0
 30
0
  3
AIGNBL01020020
  0
LINE
  8
LAYER_1
 10
467.2045
 20
-23.9101
 11
467.2045
 21
-24.2863
  0
LINE
  8
LAYER_1
 10
467.2045
 20
-24.2863
 11
466.7603
 21
-24.2863
  0
LINE
  8
LAYER_1
 10
466.7603
 20
-24.2863
 11
466.7603
 21
-23.9101
  0
LINE
  8
LAYER_1
 10
466.7603
 20
-23.9101
 11
467.2045
 21
-23.9101
  0
ENDBLK
  0
BLOCK
  8
LAYER_1
  2
AIGNBL01010002
 70
64
 10
0
 20
0
 30
0
  3
AIGNBL01010002
  0
LINE
  8
LAYER_1
 10
339.2192
 20
-16.6014
 11
469.2192
 21
-16.6014
  0
LINE
  8
LAYER_1
 10
339.2192
 20
-26.6014
 11
469.2192
 21
-26.6014
  0
LINE
  8
LAYER_1
 10
339.2192
 20
-66.6014
 11
339.2192
 21
-16.6014
  0
LINE
  8
LAYER_1
 10
359.2192
 20
-66.6014
 11
359.2192
 21
-26.6014
  0
LINE
  8
LAYER_1
 10
424.2192
 20
-66.6014
 11
424.2192
 21
-26.6014
  0
LINE
  8
LAYER_1
 10
404.2192
 20
-66.6014
 11
404.2192
 21
-26.6014
  0
LINE
  8
LAYER_1
 10
339.2192
 20
-36.6014
 11
469.2192
 21
-36.6014
  0
LINE
  8
LAYER_1
 10
339.2192
 20
-46.6014
 11
469.2192
 21
-46.6014
  0
LINE
  8
LAYER_1
 10
339.2192
 20
-56.6014
 11
469.2192
 21
-56.6014
  0
LINE
  8
LAYER_1
 10
469.2192
 20
-66.6014
 11
192.2192
 21
-66.6014
  0
LINE
  8
LAYER_1
 10
192.2192
 20
-66.6014
 11
192.2192
 21
123.3986
  0
LINE
  8
LAYER_1
 10
192.2192
 20
123.3986
 11
469.2192
 21
123.3986
  0
LINE
  8
LAYER_1
 10
469.2192
 20
123.3986
 11
469.2192
 21
-66.6014
  0
ENDBLK
  0
BLOCK
  8
LAYER_1
  2
AIGNBL01010003
 70
64
 10
0
 20
0
 30
0
  3
AIGNBL01010003
  0
INSERT
  8
LAYER_1
  2
AIGNBL01020004
 10
0
 20
0
 30
0
  0
INSERT
  8
LAYER_1
  2
AIGNBL01020005
 10
0
 20
0
 30
0
  0
LINE
  8
LAYER_1
 10
364.2048
 20
-18.5813
 11
364.2048
 21
-19.3139
  0
LINE
  8
LAYER_1
 10
364.2048
 20
-19.3139
 11
366.1562
 21
-19.3139
  0
LINE
  8
LAYER_1
 10
366.1562
 20
-19.3139
 11
366.1562
 21
-19.5982
  0
LINE
  8
LAYER_1
 10
366.1562
 20
-19.5982
 11
363.723
 21
-19.5982
  0
LINE
  8
LAYER_1
 10
363.723
 20
-19.5982
 11
363.723
 21
-21.1415
  0
LINE
  8
LAYER_1
 10
363.723
 20
-21.1415
 11
364.5501
 21
-21.1415
  0
LINE
  8
LAYER_1
 10
364.5501
 20
-21.1415
 11
364.5501
 21
-20.3176
  0
LINE
  8
LAYER_1
 10
364.5501
 20
-20.3176
 11
366.1523
 21
-20.3176
  0
LINE
  8
LAYER_1
 10
366.1523
 20
-20.3176
 11
366.1523
 21
-21.9393
  0
LINE
  8
LAYER_1
 10
366.1523
 20
-21.9393
 11
367.0698
 21
-21.9393
  0
LINE
  8
LAYER_1
 10
367.0698
 20
-21.9393
 11
367.0698
 21
-20.3176
  0
LINE
  8
LAYER_1
 10
367.0698
 20
-20.3176
 11
368.6851
 21
-20.3176
  0
LINE
  8
LAYER_1
 10
368.6851
 20
-20.3176
 11
368.6851
 21
-21.1415
  0
LINE
  8
LAYER_1
 10
368.6851
 20
-21.1415
 11
369.5506
 21
-21.1415
  0
LINE
  8
LAYER_1
 10
369.5506
 20
-21.1415
 11
369.5506
 21
-19.5982
  0
LINE
  8
LAYER_1
 10
369.5506
 20
-19.5982
 11
367.0735
 21
-19.5982
  0
LINE
  8
LAYER_1
 10
367.0735
 20
-19.5982
 11
367.0735
 21
-19.3139
  0
LINE
  8
LAYER_1
 10
367.0735
 20
-19.3139
 11
369.0311
 21
-19.3139
  0
LINE
  8
LAYER_1
 10
369.0311
 20
-19.3139
 11
369.0311
 21
-18.5813
  0
LINE
  8
LAYER_1
 10
369.0311
 20
-18.5813
 11
364.2048
 21
-18.5813
  0
LINE
  8
LAYER_1
 10
364.7018
 20
-21.0377
 11
365.8815
 21
-21.0377
  0
LINE
  8
LAYER_1
 10
365.8815
 20
-21.0377
 11
365.8815
 21
-20.5723
  0
LINE
  8
LAYER_1
 10
365.8815
 20
-20.5723
 11
364.7018
 21
-20.5723
  0
LINE
  8
LAYER_1
 10
364.7018
 20
-20.5723
 11
364.7018
 21
-21.0377
  0
LINE
  8
LAYER_1
 10
364.5596
 20
-21.7428
 11
365.8814
 21
-21.7428
  0
LINE
  8
LAYER_1
 10
365.8814
 20
-21.7428
 11
365.8814
 21
-21.2775
  0
LINE
  8
LAYER_1
 10
365.8814
 20
-21.2775
 11
364.5596
 21
-21.2775
  0
LINE
  8
LAYER_1
 10
364.5596
 20
-21.2775
 11
364.5596
 21
-21.7428
  0
LINE
  8
LAYER_1
 10
367.3404
 20
-21.0377
 11
368.5202
 21
-21.0377
  0
LINE
  8
LAYER_1
 10
368.5202
 20
-21.0377
 11
368.5202
 21
-20.5723
  0
LINE
  8
LAYER_1
 10
368.5202
 20
-20.5723
 11
367.3404
 21
-20.5723
  0
LINE
  8
LAYER_1
 10
367.3404
 20
-20.5723
 11
367.3404
 21
-21.0377
  0
LINE
  8
LAYER_1
 10
367.3404
 20
-21.7428
 11
368.6687
 21
-21.7428
  0
LINE
  8
LAYER_1
 10
368.6687
 20
-21.7428
 11
368.6687
 21
-21.2775
  0
LINE
  8
LAYER_1
 10
368.6687
 20
-21.2775
 11
367.3404
 21
-21.2775
  0
LINE
  8
LAYER_1
 10
367.3404
 20
-21.2775
 11
367.3404
 21
-21.7428
  0
INSERT
  8
LAYER_1
  2
AIGNBL01020006
 10
0
 20
0
 30
0
  0
INSERT
  8
LAYER_1
  2
AIGNBL01020007
 10
0
 20
0
 30
0
  0
INSERT
  8
LAYER_1
  2
AIGNBL01020008
 10
0
 20
0
 30
0
  0
LINE
  8
LAYER_1
 10
341.8674
 20
-18.5497
 11
343.4079
 21
-18.5497
  0
LINE
  8
LAYER_1
 10
343.4079
 20
-18.5497
 11
345.5153
 21
-23.0672
  0
LINE
  8
LAYER_1
 10
345.5153
 20
-23.0672
 11
345.5153
 21
-22.298
  0
LINE
  8
LAYER_1
 10
345.5153
 20
-22.298
 11
347.0579
 21
-22.298
  0
LINE
  8
LAYER_1
 10
347.0579
 20
-22.298
 11
347.0579
 21
-24.6076
  0
LINE
  8
LAYER_1
 10
347.0579
 20
-24.6076
 11
344.7501
 21
-24.6076
  0
LINE
  8
LAYER_1
 10
344.7501
 20
-24.6076
 11
343.4039
 21
-21.7852
  0
LINE
  8
LAYER_1
 10
343.4039
 20
-21.7852
 11
343.4039
 21
-24.6076
  0
LINE
  8
LAYER_1
 10
343.4039
 20
-24.6076
 11
341.8674
 21
-24.6076
  0
LINE
  8
LAYER_1
 10
341.8674
 20
-24.6076
 11
341.8674
 21
-18.5497
  0
INSERT
  8
LAYER_1
  2
AIGNBL01020009
 10
0
 20
0
 30
0
  0
ARC
  8
LAYER_1
 10
395.596
 20
-22.2305
 40
1.991
 50
311.8582543
 51
336.6691081
  0
ARC
  8
LAYER_1
 10
395.1872
 20
-22.027
 40
2.4471
 50
336.0851003
 51
355.051428
  0
LINE
  8
LAYER_1
 10
397.6252
 20
-22.2381
 11
397.6252
 21
-19.0376
  0
LINE
  8
LAYER_1
 10
397.6252
 20
-19.0376
 11
396.439
 21
-19.0376
  0
LINE
  8
LAYER_1
 10
396.439
 20
-19.0376
 11
396.439
 21
-21.9035
  0
ARC
  8
LAYER_1
 10
394.9224
 20
-21.8627
 40
1.5172
 50
331.8855724
 51
358.4603658
  0
ARC
  8
LAYER_1
 10
395.7102
 20
-22.2079
 40
0.6631
 50
317.1647517
 51
326.1018195
  0
ARC
  8
LAYER_1
 10
394.7639
 20
-21.2533
 40
2.0068
 50
296.3435913
 51
315.5475613
  0
LINE
  8
LAYER_1
 10
395.6544
 20
-23.0517
 11
395.6544
 21
-24.2465
  0
ARC
  8
LAYER_1
 10
395.7026
 20
-23.0786
 40
1.1689
 50
267.6356835
 51
281.1038486
  0
ARC
  8
LAYER_1
 10
395.5768
 20
-22.3638
 40
1.8946
 50
280.6747965
 51
303.9554361
  0
ARC
  8
LAYER_1
 10
395.2907
 20
-21.8813
 40
2.4549
 50
303.2046092
 51
311.7270832
  0
ARC
  8
LAYER_1
 10
383.8314
 20
-21.2252
 40
1.9121
 50
200.4586691
 51
212.6743406
  0
ARC
  8
LAYER_1
 10
360.8031
 20
-29.6204
 40
22.5988
 50
19.99339328
 51
22.95988574
  0
ARC
  8
LAYER_1
 10
378.6067
 20
-22.1833
 40
3.306
 50
24.64219126
 51
41.47959493
  0
ARC
  8
LAYER_1
 10
379.6806
 20
-21.3028
 40
1.9189
 50
43.02136381
 51
66.4525374
  0
ARC
  8
LAYER_1
 10
379.7184
 20
-21.2605
 40
1.8651
 50
66.99773131
 51
74.27463074
  0
ARC
  8
LAYER_1
 10
379.368
 20
-22.5551
 40
3.2062
 50
74.51769902
 51
94.05431675
  0
ARC
  8
LAYER_1
 10
379.4093
 20
-23.447
 40
4.0989
 50
93.74814268
 51
109.4943972
  0
ARC
  8
LAYER_1
 10
379.2887
 20
-23.2382
 40
3.8621
 50
108.8424771
 51
117.7754332
  0
ARC
  8
LAYER_1
 10
368.4598
 20
-19.7018
 40
9.0299
 50
353.3553696
 51
359.2433099
  0
ARC
  8
LAYER_1
 10
374.571
 20
-20.4664
 40
2.8719
 50
340.8487615
 51
354.3996639
  0
ARC
  8
LAYER_1
 10
375.9584
 20
-20.8526
 40
1.4373
 50
308.1864107
 51
337.2448854
  0
ARC
  8
LAYER_1
 10
376.1592
 20
-21.149
 40
1.0806
 50
298.9349453
 51
309.5336083
  0
LINE
  8
LAYER_1
 10
376.682
 20
-22.0947
 11
376.682
 21
-23.3672
  0
ARC
  8
LAYER_1
 10
376.106
 20
-20.7972
 40
2.6338
 50
282.6333893
 51
311.7909383
  0
ARC
  8
LAYER_1
 10
376.7215
 20
-21.5796
 40
1.6414
 50
313.9717018
 51
325.1049997
  0
ARC
  8
LAYER_1
 10
376.0497
 20
-21.1555
 40
2.4353
 50
325.9629591
 51
337.240755
  0
ARC
  8
LAYER_1
 10
374.4206
 20
-20.4649
 40
4.2047
 50
337.1507466
 51
344.9155216
  0
ARC
  8
LAYER_1
 10
372.5251
 20
-19.9354
 40
6.1727
 50
344.7493495
 51
353.2524826
  0
ARC
  8
LAYER_1
 10
379.4493
 20
-22.4387
 40
1.9473
 50
90.61876246
 51
114.0685798
  0
ARC
  8
LAYER_1
 10
379.4234
 20
-21.5819
 40
1.0904
 50
61.47137985
 51
89.74597004
  0
ARC
  8
LAYER_1
 10
379.5706
 20
-21.2465
 40
0.7261
 50
38.26904966
 51
59.03310735
  0
ARC
  8
LAYER_1
 10
378.9205
 20
-21.7504
 40
1.5486
 50
25.30110041
 51
38.00948986
  0
ARC
  8
LAYER_1
 10
373.9749
 20
-24.0791
 40
7.0151
 50
19.69687393
 51
25.23305814
  0
ARC
  8
LAYER_1
 10
386.9193
 20
-19.5279
 40
6.7064
 50
199.0311157
 51
214.1623346
  0
ARC
  8
LAYER_1
 10
385.1618
 20
-20.5836
 40
4.6607
 50
215.5556811
 51
216.3864882
  0
ARC
  8
LAYER_1
 10
383.6584
 20
-21.6584
 40
2.813
 50
216.9292895
 51
237.9542217
  0
ARC
  8
LAYER_1
 10
383.2331
 20
-22.3029
 40
2.0411
 50
238.4757313
 51
260.7201572
  0
ARC
  8
LAYER_1
 10
383.0318
 20
-23.1827
 40
1.1418
 50
263.5694348
 51
265.8958457
  0
LINE
  8
LAYER_1
 10
382.9501
 20
-24.3215
 11
382.9501
 21
-22.9626
  0
ARC
  8
LAYER_1
 10
383.3167
 20
-22.1353
 40
0.9049
 50
229.96988
 51
246.0987164
  0
ARC
  8
LAYER_1
 10
384.3907
 20
-20.8244
 40
2.5995
 50
213.456037
 51
230.4288522
  0
LINE
  8
LAYER_1
 10
382.0633
 20
-19.8679
 11
381.4477
 21
-19.8679
  0
LINE
  8
LAYER_1
 10
381.4477
 20
-19.8679
 11
381.2887
 21
-18.8697
  0
LINE
  8
LAYER_1
 10
381.2887
 20
-18.8697
 11
381.9051
 21
-18.8697
  0
LINE
  8
LAYER_1
 10
381.9051
 20
-18.8697
 11
382.0633
 21
-19.8679
  0
LINE
  8
LAYER_1
 10
382.9921
 20
-19.8679
 11
382.3761
 21
-19.8679
  0
LINE
  8
LAYER_1
 10
382.3761
 20
-19.8679
 11
382.2174
 21
-18.8697
  0
LINE
  8
LAYER_1
 10
382.2174
 20
-18.8697
 11
382.8338
 21
-18.8697
  0
LINE
  8
LAYER_1
 10
382.8338
 20
-18.8697
 11
382.9921
 21
-19.8679
  0
ARC
  8
LAYER_1
 10
383.3183
 20
-19.5509
 40
1.2599
 50
294.8524511
 51
325.7601155
  0
ARC
  8
LAYER_1
 10
383.5601
 20
-20.0703
 40
0.687
 50
280.6890826
 51
294.7646552
  0
LINE
  8
LAYER_1
 10
383.6875
 20
-20.7454
 11
383.6875
 21
-21.9955
  0
ARC
  8
LAYER_1
 10
383.3612
 20
-19.5589
 40
2.4583
 50
277.6270469
 51
307.9992312
  0
ARC
  8
LAYER_1
 10
383.759
 20
-20.1928
 40
1.7156
 50
310.5659115
 51
312.159519
  0
ARC
  8
LAYER_1
 10
383.2856
 20
-19.7388
 40
2.3704
 50
313.2747973
 51
336.1316144
  0
ARC
  8
LAYER_1
 10
382.5215
 20
-19.2844
 40
3.2547
 50
334.2596537
 51
342.7183427
  0
LINE
  8
LAYER_1
 10
385.6293
 20
-20.2513
 11
388.0564
 21
-20.2513
  0
ARC
  8
LAYER_1
 10
383.9915
 20
-20.4643
 40
4.0705
 50
346.9025011
 51
2.999941785
  0
ARC
  8
LAYER_1
 10
385.2963
 20
-20.7731
 40
2.7296
 50
327.7013818
 51
347.0097259
  0
ARC
  8
LAYER_1
 10
386.0912
 20
-21.2284
 40
1.8149
 50
312.9843281
 51
326.4412197
  0
ARC
  8
LAYER_1
 10
386.1351
 20
-21.2356
 40
1.7799
 50
298.6810039
 51
312.1080356
  0
ARC
  8
LAYER_1
 10
385.6921
 20
-20.4223
 40
2.7061
 50
288.722301
 51
298.6442188
  0
ARC
  8
LAYER_1
 10
385.0397
 20
-18.4461
 40
4.7871
 50
273.6032038
 51
288.52565
  0
ARC
  8
LAYER_1
 10
384.7344
 20
-16.1893
 40
7.0605
 50
268.3272302
 51
274.9251996
  0
LINE
  8
LAYER_1
 10
384.5283
 20
-23.2468
 11
384.5283
 21
-24.3762
  0
ARC
  8
LAYER_1
 10
384.9397
 20
-16.1249
 40
8.2616
 50
267.1455437
 51
278.4125604
  0
ARC
  8
LAYER_1
 10
385.3612
 20
-18.8424
 40
5.5117
 50
278.2115029
 51
291.6013334
  0
ARC
  8
LAYER_1
 10
386.2851
 20
-21.2815
 40
2.904
 50
292.3692145
 51
310.8515205
  0
ARC
  8
LAYER_1
 10
386.8714
 20
-22.0266
 40
1.9574
 50
312.1360864
 51
321.436068
  0
ARC
  8
LAYER_1
 10
386.3223
 20
-21.2624
 40
2.8745
 50
316.3423507
 51
335.9455414
  0
ARC
  8
LAYER_1
 10
384.9462
 20
-20.6098
 40
4.3972
 50
335.4890821
 51
350.5543308
  0
ARC
  8
LAYER_1
 10
382.2886
 20
-20.0879
 40
7.1048
 50
349.9197281
 51
2.135212313
  0
ARC
  8
LAYER_1
 10
382.287
 20
-19.9966
 40
7.1036
 50
1.398722959
 51
7.163049353
  0
LINE
  8
LAYER_1
 10
389.3352
 20
-19.1108
 11
384.6489
 21
-19.1108
  0
ARC
  8
LAYER_1
 10
379.5344
 20
-18.5618
 40
5.1439
 50
346.1210031
 51
353.873627
  0
ARC
  8
LAYER_1
 10
382.5149
 20
-19.3286
 40
2.0667
 50
333.2191461
 51
346.9369516
  0
ARC
  8
LAYER_1
 10
377.3581
 20
-106.0549
 40
86.6934
 50
78.78619818
 51
80.56721488
  0
LINE
  8
LAYER_1
 10
391.5663
 20
-20.5337
 11
391.5663
 21
-18.898
  0
LINE
  8
LAYER_1
 10
391.5663
 20
-18.898
 11
390.269
 21
-18.898
  0
LINE
  8
LAYER_1
 10
390.269
 20
-18.898
 11
390.269
 21
-24.3761
  0
LINE
  8
LAYER_1
 10
390.269
 20
-24.3761
 11
391.5663
 21
-24.3761
  0
LINE
  8
LAYER_1
 10
391.5663
 20
-24.3761
 11
391.5663
 21
-21.7819
  0
ARC
  8
LAYER_1
 10
391.7852
 20
-24.3524
 40
2.5798
 50
85.26775014
 51
94.86744205
  0
ARC
  8
LAYER_1
 10
391.52
 20
-28.0008
 40
6.2378
 50
76.32782001
 51
85.60477529
  0
ARC
  8
LAYER_1
 10
382.626
 20
-65.2082
 40
44.4934
 50
73.58727212
 51
76.52432327
  0
LINE
  8
LAYER_1
 10
395.1978
 20
-22.5279
 11
395.1978
 21
-21.2767
  0
ARC
  8
LAYER_1
 10
391.9879
 20
-31.3982
 40
10.6184
 50
72.40409508
 51
77.87934456
  0
ARC
  8
LAYER_1
 10
398.8619
 20
-20.905
 40
3.2372
 50
288.2676156
 51
307.571469
  0
ARC
  8
LAYER_1
 10
398.3782
 20
-19.5848
 40
4.6427
 50
274.0170413
 51
288.8286188
  0
ARC
  8
LAYER_1
 10
398.3782
 20
-20.38
 40
3.8498
 50
268.3636006
 51
274.8463176
  0
LINE
  8
LAYER_1
 10
398.2683
 20
-24.2283
 11
398.2683
 21
-18.8317
  0
LINE
  8
LAYER_1
 10
398.2683
 20
-18.8317
 11
399.5571
 21
-18.8317
  0
LINE
  8
LAYER_1
 10
399.5571
 20
-18.8317
 11
399.5571
 21
-22.8266
  0
ARC
  8
LAYER_1
 10
399.4689
 20
-22.1219
 40
0.7102
 50
277.1312516
 51
295.9598069
  0
ARC
  8
LAYER_1
 10
399.252
 20
-21.6746
 40
1.2073
 50
295.9211317
 51
325.4874792
  0
ARC
  8
LAYER_1
 10
398.8869
 20
-21.3464
 40
1.6953
 50
323.3409614
 51
327.8529278
  0
ARC
  8
LAYER_1
 10
399.1244
 20
-21.5213
 40
1.4014
 50
328.7418196
 51
343.5600414
  0
ARC
  8
LAYER_1
 10
397.9122
 20
-21.1581
 40
2.6668
 50
343.4460064
 51
352.9523201
  0
ARC
  8
LAYER_1
 10
395.8445
 20
-20.896
 40
4.751
 50
352.8751095
 51
4.074034293
  0
LINE
  8
LAYER_1
 10
400.5835
 20
-20.5585
 11
401.769
 21
-20.5585
  0
ARC
  8
LAYER_1
 10
396.0236
 20
-20.7917
 40
5.7501
 50
348.7693155
 51
2.324417275
  0
ARC
  8
LAYER_1
 10
398.1197
 20
-21.2139
 40
3.6119
 50
332.2810934
 51
348.8631434
  0
ARC
  8
LAYER_1
 10
399.5975
 20
-21.9483
 40
1.9625
 50
309.1216995
 51
331.1911364
  0
ENDBLK
  0
BLOCK
  8
LAYER_1
  2
AIGNBL0101000A
 70
64
 10
0
 20
0
 30
0
  3
AIGNBL0101000A
  0
INSERT
  8
LAYER_1
  2
AIGNBL0102000B
 10
0
 20
0
 30
0
  0
INSERT
  8
LAYER_1
  2
AIGNBL0102000C
 10
0
 20
0
 30
0
  0
INSERT
  8
LAYER_1
  2
AIGNBL0102000D
 10
0
 20
0
 30
0
  0
INSERT
  8
LAYER_1
  2
AIGNBL0102000E
 10
0
 20
0
 30
0
  0
INSERT
  8
LAYER_1
  2
AIGNBL0102000F
 10
0
 20
0
 30
0
  0
INSERT
  8
LAYER_1
  2
AIGNBL01020010
 10
0
 20
0
 30
0
  0
INSERT
  8
LAYER_1
  2
AIGNBL01020011
 10
0
 20
0
 30
0
  0
INSERT
  8
LAYER_1
  2
AIGNBL01020012
 10
0
 20
0
 30
0
  0
INSERT
  8
LAYER_1
  2
AIGNBL01020013
 10
0
 20
0
 30
0
  0
INSERT
  8
LAYER_1
  2
AIGNBL01020014
 10
0
 20
0
 30
0
  0
INSERT
  8
LAYER_1
  2
AIGNBL01020015
 10
0
 20
0
 30
0
  0
INSERT
  8
LAYER_1
  2
AIGNBL01020016
 10
0
 20
0
 30
0
  0
INSERT
  8
LAYER_1
  2
AIGNBL01020017
 10
0
 20
0
 30
0
  0
INSERT
  8
LAYER_1
  2
AIGNBL01020018
 10
0
 20
0
 30
0
  0
INSERT
  8
LAYER_1
  2
AIGNBL01020019
 10
0
 20
0
 30
0
  0
INSERT
  8
LAYER_1
  2
AIGNBL0102001A
 10
0
 20
0
 30
0
  0
INSERT
  8
LAYER_1
  2
AIGNBL0102001B
 10
0
 20
0
 30
0
  0
INSERT
  8
LAYER_1
  2
AIGNBL0102001C
 10
0
 20
0
 30
0
  0
INSERT
  8
LAYER_1
  2
AIGNBL0102001D
 10
0
 20
0
 30
0
  0
INSERT
  8
LAYER_1
  2
AIGNBL0102001E
 10
0
 20
0
 30
0
  0
INSERT
  8
LAYER_1
  2
AIGNBL0102001F
 10
0
 20
0
 30
0
  0
INSERT
  8
LAYER_1
  2
AIGNBL01020020
 10
0
 20
0
 30
0
  0
ENDBLK
  0
BLOCK
  8
LAYER_2
  2
AIGNBL02010002
 70
64
 10
0
 20
0
 30
0
  3
AIGNBL02010002
  0
ENDBLK
  0
BLOCK
  8
LAYER_2
  2
AIGNBL02010003
 70
64
 10
0
 20
0
 30
0
  3
AIGNBL02010003
  0
ENDBLK
  0
BLOCK
  8
LAYER_2
  2
AIGNBL02010004
 70
64
 10
0
 20
0
 30
0
  3
AIGNBL02010004
  0
ENDBLK
  0
BLOCK
  8
LAYER_2
  2
AIGNBL02010005
 70
64
 10
0
 20
0
 30
0
  3
AIGNBL02010005
  0
ENDBLK
  0
BLOCK
  8
LAYER_2
  2
AIGNBL02010006
 70
64
 10
0
 20
0
 30
0
  3
AIGNBL02010006
  0
ENDBLK
  0
BLOCK
  8
LAYER_2
  2
AIGNBL02010007
 70
64
 10
0
 20
0
 30
0
  3
AIGNBL02010007
  0
ENDBLK
  0
BLOCK
  8
LAYER_2
  2
AIGNBL02010008
 70
64
 10
0
 20
0
 30
0
  3
AIGNBL02010008
  0
LINE
  8
LAYER_2
 10
400.1767
 20
29.1615
 11
397.1767
 21
29.1615
  0
LINE
  8
LAYER_2
 10
397.1767
 20
29.1615
 11
397.1767
 21
22.1615
  0
LINE
  8
LAYER_2
 10
397.1767
 20
22.1615
 11
400.1767
 21
22.1615
  0
LINE
  8
LAYER_2
 10
400.1767
 20
22.1615
 11
400.1767
 21
29.1615
  0
ENDBLK
  0
BLOCK
  8
LAYER_2
  2
AIGNBL02010009
 70
64
 10
0
 20
0
 30
0
  3
AIGNBL02010009
  0
LINE
  8
LAYER_2
 10
293.5811
 20
26.6615
 11
305.5811
 21
26.6615
  0
LINE
  8
LAYER_2
 10
305.5811
 20
26.6615
 11
305.5811
 21
22.1615
  0
LINE
  8
LAYER_2
 10
305.5811
 20
22.1615
 11
293.5811
 21
22.1615
  0
LINE
  8
LAYER_2
 10
293.5811
 20
22.1615
 11
293.5811
 21
26.6615
  0
ENDBLK
  0
BLOCK
  8
LAYER_2
  2
AIGNBL0201000A
 70
64
 10
0
 20
0
 30
0
  3
AIGNBL0201000A
  0
ENDBLK
  0
BLOCK
  8
LAYER_2
  2
AIGNBL0201000B
 70
64
 10
0
 20
0
 30
0
  3
AIGNBL0201000B
  0
ENDBLK
  0
BLOCK
  8
LAYER_2
  2
AIGNBL0201000C
 70
64
 10
0
 20
0
 30
0
  3
AIGNBL0201000C
  0
ENDBLK
  0
BLOCK
  8
LAYER_2
  2
AIGNBL0201000D
 70
64
 10
0
 20
0
 30
0
  3
AIGNBL0201000D
  0
LINE
  8
LAYER_2
 10
274.5811
 20
-10.3708
 11
324.5811
 21
-10.3708
  0
LINE
  8
LAYER_2
 10
324.5811
 20
-10.3708
 11
324.5811
 21
-40.3708
  0
LINE
  8
LAYER_2
 10
324.5811
 20
-40.3708
 11
274.5811
 21
-40.3708
  0
LINE
  8
LAYER_2
 10
274.5811
 20
-40.3708
 11
274.5811
 21
-10.3708
  0
ENDBLK
  0
BLOCK
  8
LAYER_2
  2
AIGNBL0201000E
 70
64
 10
0
 20
0
 30
0
  3
AIGNBL0201000E
  0
LINE
  8
LAYER_2
 10
283.5811
 20
-40.3708
 11
315.5811
 21
-40.3708
  0
LINE
  8
LAYER_2
 10
315.5811
 20
-40.3708
 11
315.5811
 21
-49.3708
  0
LINE
  8
LAYER_2
 10
315.5811
 20
-49.3708
 11
283.5811
 21
-49.3708
  0
LINE
  8
LAYER_2
 10
283.5811
 20
-49.3708
 11
283.5811
 21
-40.3708
  0
ENDBLK
  0
BLOCK
  8
LAYER_2
  2
AIGNBL0201000F
 70
64
 10
0
 20
0
 30
0
  3
AIGNBL0201000F
  0
LINE
  8
LAYER_2
 10
293.5811
 20
-49.3708
 11
305.5811
 21
-49.3708
  0
LINE
  8
LAYER_2
 10
305.5811
 20
-49.3708
 11
305.5811
 21
-46.3708
  0
LINE
  8
LAYER_2
 10
305.5811
 20
-46.3708
 11
293.5811
 21
-46.3708
  0
LINE
  8
LAYER_2
 10
293.5811
 20
-46.3708
 11
293.5811
 21
-49.3708
  0
ENDBLK
  0
BLOCK
  8
LAYER_2
  2
AIGNBL02010010
 70
64
 10
0
 20
0
 30
0
  3
AIGNBL02010010
  0
LINE
  8
LAYER_2
 10
278.5811
 20
-10.3708
 11
320.5811
 21
-10.3708
  0
LINE
  8
LAYER_2
 10
320.5811
 20
-10.3708
 11
320.5811
 21
-27.3708
  0
LINE
  8
LAYER_2
 10
320.5811
 20
-27.3708
 11
278.5811
 21
-27.3708
  0
LINE
  8
LAYER_2
 10
278.5811
 20
-27.3708
 11
278.5811
 21
-10.3708
  0
ENDBLK
  0
BLOCK
  8
LAYER_2
  2
AIGNBL02010011
 70
64
 10
0
 20
0
 30
0
  3
AIGNBL02010011
  0
LINE
  8
LAYER_2
 10
278.5811
 20
-10.3708
 11
320.5811
 21
-10.3708
  0
LINE
  8
LAYER_2
 10
320.5811
 20
-10.3708
 11
320.5811
 21
-10.7708
  0
LINE
  8
LAYER_2
 10
320.5811
 20
-10.7708
 11
278.5811
 21
-10.7708
  0
LINE
  8
LAYER_2
 10
278.5811
 20
-10.7708
 11
278.5811
 21
-10.3708
  0
ENDBLK
  0
BLOCK
  8
LAYER_2
  2
AIGNBL02010012
 70
64
 10
0
 20
0
 30
0
  3
AIGNBL02010012
  0
LINE
  8
LAYER_2
 10
280.5811
 20
-11.2708
 11
280.5811
 21
-10.7708
  0
LINE
  8
LAYER_2
 10
280.5811
 20
-10.7708
 11
278.5811
 21
-10.7708
  0
LINE
  8
LAYER_2
 10
278.5811
 20
-10.7708
 11
278.5811
 21
-11.2708
  0
ENDBLK
  0
BLOCK
  8
LAYER_2
  2
AIGNBL02010013
 70
64
 10
0
 20
0
 30
0
  3
AIGNBL02010013
  0
LINE
  8
LAYER_2
 10
278.5811
 20
-12.2708
 11
278.5811
 21
-27.3708
  0
ENDBLK
  0
BLOCK
  8
LAYER_2
  2
AIGNBL02010014
 70
64
 10
0
 20
0
 30
0
  3
AIGNBL02010014
  0
LINE
  8
LAYER_2
 10
280.5811
 20
-25.3708
 11
280.5811
 21
-12.2708
  0
ENDBLK
  0
BLOCK
  8
LAYER_2
  2
AIGNBL02010015
 70
64
 10
0
 20
0
 30
0
  3
AIGNBL02010015
  0
ARC
  8
LAYER_2
 10
278.5687
 20
-12.1475
 40
0.1239
 50
275.7587691
 51
324.8490524
  0
ARC
  8
LAYER_2
 10
278.2988
 20
-11.948
 40
0.4596
 50
323.8855414
 51
346.4884017
  0
ARC
  8
LAYER_2
 10
277.6972
 20
-11.78
 40
1.084
 50
345.2868084
 51
0.488388166
  0
ARC
  8
LAYER_2
 10
277.7853
 20
-11.7522
 40
0.996
 50
358.9326052
 51
18.32546933
  0
ARC
  8
LAYER_2
 10
278.5033
 20
-11.4907
 40
0.2333
 50
12.7815794
 51
70.51168872
  0
ENDBLK
  0
BLOCK
  8
LAYER_2
  2
AIGNBL02010016
 70
64
 10
0
 20
0
 30
0
  3
AIGNBL02010016
  0
ARC
  8
LAYER_2
 10
280.5936
 20
-12.1475
 40
0.1239
 50
215.1427819
 51
264.2247767
  0
ARC
  8
LAYER_2
 10
280.8637
 20
-11.9478
 40
0.4598
 50
193.521894
 51
216.1138042
  0
ARC
  8
LAYER_2
 10
281.4644
 20
-11.78
 40
1.0834
 50
179.5128082
 51
194.7227548
  0
ARC
  8
LAYER_2
 10
281.3766
 20
-11.7523
 40
0.9956
 50
161.6651742
 51
181.0651489
  0
ARC
  8
LAYER_2
 10
280.659
 20
-11.4908
 40
0.2334
 50
109.5102277
 51
167.2095694
  0
ENDBLK
  0
BLOCK
  8
LAYER_2
  2
AIGNBL02010017
 70
64
 10
0
 20
0
 30
0
  3
AIGNBL02010017
  0
LINE
  8
LAYER_2
 10
290.5811
 20
-11.2708
 11
290.5811
 21
-10.7708
  0
LINE
  8
LAYER_2
 10
290.5811
 20
-10.7708
 11
288.5811
 21
-10.7708
  0
LINE
  8
LAYER_2
 10
288.5811
 20
-10.7708
 11
288.5811
 21
-11.2708
  0
ENDBLK
  0
BLOCK
  8
LAYER_2
  2
AIGNBL02010018
 70
64
 10
0
 20
0
 30
0
  3
AIGNBL02010018
  0
LINE
  8
LAYER_2
 10
288.5811
 20
-12.2708
 11
288.5811
 21
-25.3708
  0
ENDBLK
  0
BLOCK
  8
LAYER_2
  2
AIGNBL02010019
 70
64
 10
0
 20
0
 30
0
  3
AIGNBL02010019
  0
ENDBLK
  0
BLOCK
  8
LAYER_2
  2
AIGNBL0201001A
 70
64
 10
0
 20
0
 30
0
  3
AIGNBL0201001A
  0
LINE
  8
LAYER_2
 10
290.5811
 20
-25.3708
 11
290.5811
 21
-12.2708
  0
ENDBLK
  0
BLOCK
  8
LAYER_2
  2
AIGNBL0201001B
 70
64
 10
0
 20
0
 30
0
  3
AIGNBL0201001B
  0
ARC
  8
LAYER_2
 10
288.5687
 20
-12.1475
 40
0.1239
 50
275.7587691
 51
324.8490524
  0
ARC
  8
LAYER_2
 10
288.2988
 20
-11.948
 40
0.4596
 50
323.8855414
 51
346.4884017
  0
ARC
  8
LAYER_2
 10
287.6972
 20
-11.78
 40
1.084
 50
345.2868084
 51
0.488388166
  0
ARC
  8
LAYER_2
 10
287.7853
 20
-11.7522
 40
0.996
 50
358.9326052
 51
18.32546933
  0
ARC
  8
LAYER_2
 10
288.5033
 20
-11.4907
 40
0.2333
 50
12.7815794
 51
70.51168872
  0
ENDBLK
  0
BLOCK
  8
LAYER_2
  2
AIGNBL0201001C
 70
64
 10
0
 20
0
 30
0
  3
AIGNBL0201001C
  0
ARC
  8
LAYER_2
 10
290.5936
 20
-12.1475
 40
0.1239
 50
215.1427819
 51
264.2247767
  0
ARC
  8
LAYER_2
 10
290.8637
 20
-11.9478
 40
0.4598
 50
193.521894
 51
216.1138042
  0
ARC
  8
LAYER_2
 10
291.4644
 20
-11.78
 40
1.0834
 50
179.5128082
 51
194.7227548
  0
ARC
  8
LAYER_2
 10
291.3766
 20
-11.7523
 40
0.9956
 50
161.6651742
 51
181.0651489
  0
ARC
  8
LAYER_2
 10
290.659
 20
-11.4908
 40
0.2334
 50
109.5102277
 51
167.2095694
  0
ENDBLK
  0
BLOCK
  8
LAYER_2
  2
AIGNBL0201001D
 70
64
 10
0
 20
0
 30
0
  3
AIGNBL0201001D
  0
LINE
  8
LAYER_2
 10
300.5811
 20
-11.2708
 11
300.5811
 21
-10.7708
  0
LINE
  8
LAYER_2
 10
300.5811
 20
-10.7708
 11
298.5811
 21
-10.7708
  0
LINE
  8
LAYER_2
 10
298.5811
 20
-10.7708
 11
298.5811
 21
-11.2708
  0
ENDBLK
  0
BLOCK
  8
LAYER_2
  2
AIGNBL0201001E
 70
64
 10
0
 20
0
 30
0
  3
AIGNBL0201001E
  0
LINE
  8
LAYER_2
 10
298.5811
 20
-12.2708
 11
298.5811
 21
-25.3708
  0
ENDBLK
  0
BLOCK
  8
LAYER_2
  2
AIGNBL0201001F
 70
64
 10
0
 20
0
 30
0
  3
AIGNBL0201001F
  0
LINE
  8
LAYER_2
 10
300.5811
 20
-25.3708
 11
300.5811
 21
-12.2708
  0
ENDBLK
  0
BLOCK
  8
LAYER_2
  2
AIGNBL02010020
 70
64
 10
0
 20
0
 30
0
  3
AIGNBL02010020
  0
ARC
  8
LAYER_2
 10
298.5687
 20
-12.1475
 40
0.1239
 50
275.7587691
 51
324.8490524
  0
ARC
  8
LAYER_2
 10
298.2988
 20
-11.948
 40
0.4596
 50
323.8855414
 51
346.4884017
  0
ARC
  8
LAYER_2
 10
297.6972
 20
-11.78
 40
1.084
 50
345.2868084
 51
0.488388166
  0
ARC
  8
LAYER_2
 10
297.7853
 20
-11.7522
 40
0.996
 50
358.9326052
 51
18.32546933
  0
ARC
  8
LAYER_2
 10
298.5033
 20
-11.4907
 40
0.2333
 50
12.7815794
 51
70.51168872
  0
ENDBLK
  0
BLOCK
  8
LAYER_2
  2
AIGNBL02010021
 70
64
 10
0
 20
0
 30
0
  3
AIGNBL02010021
  0
ARC
  8
LAYER_2
 10
300.5936
 20
-12.1475
 40
0.1239
 50
215.1427819
 51
264.2247767
  0
ARC
  8
LAYER_2
 10
300.8637
 20
-11.9478
 40
0.4598
 50
193.521894
 51
216.1138042
  0
ARC
  8
LAYER_2
 10
301.4644
 20
-11.78
 40
1.0834
 50
179.5128082
 51
194.7227548
  0
ARC
  8
LAYER_2
 10
301.3766
 20
-11.7523
 40
0.9956
 50
161.6651742
 51
181.0651489
  0
ARC
  8
LAYER_2
 10
300.659
 20
-11.4908
 40
0.2334
 50
109.5102277
 51
167.2095694
  0
ENDBLK
  0
BLOCK
  8
LAYER_2
  2
AIGNBL02010022
 70
64
 10
0
 20
0
 30
0
  3
AIGNBL02010022
  0
LINE
  8
LAYER_2
 10
310.5811
 20
-11.2708
 11
310.5811
 21
-10.7708
  0
LINE
  8
LAYER_2
 10
310.5811
 20
-10.7708
 11
308.5811
 21
-10.7708
  0
LINE
  8
LAYER_2
 10
308.5811
 20
-10.7708
 11
308.5811
 21
-11.2708
  0
ENDBLK
  0
BLOCK
  8
LAYER_2
  2
AIGNBL02010023
 70
64
 10
0
 20
0
 30
0
  3
AIGNBL02010023
  0
LINE
  8
LAYER_2
 10
308.5811
 20
-12.2708
 11
308.5811
 21
-25.3708
  0
ENDBLK
  0
BLOCK
  8
LAYER_2
  2
AIGNBL02010024
 70
64
 10
0
 20
0
 30
0
  3
AIGNBL02010024
  0
LINE
  8
LAYER_2
 10
310.5811
 20
-25.3708
 11
310.5811
 21
-12.2708
  0
ENDBLK
  0
BLOCK
  8
LAYER_2
  2
AIGNBL02010025
 70
64
 10
0
 20
0
 30
0
  3
AIGNBL02010025
  0
ARC
  8
LAYER_2
 10
308.5687
 20
-12.1475
 40
0.1239
 50
275.7587691
 51
324.8490524
  0
ARC
  8
LAYER_2
 10
308.2988
 20
-11.948
 40
0.4596
 50
323.8855414
 51
346.4884017
  0
ARC
  8
LAYER_2
 10
307.6972
 20
-11.78
 40
1.084
 50
345.2868084
 51
0.488388166
  0
ARC
  8
LAYER_2
 10
307.7853
 20
-11.7522
 40
0.996
 50
358.9326052
 51
18.32546933
  0
ARC
  8
LAYER_2
 10
308.5033
 20
-11.4907
 40
0.2333
 50
12.7815794
 51
70.51168872
  0
ENDBLK
  0
BLOCK
  8
LAYER_2
  2
AIGNBL02010026
 70
64
 10
0
 20
0
 30
0
  3
AIGNBL02010026
  0
ARC
  8
LAYER_2
 10
310.5936
 20
-12.1475
 40
0.1239
 50
215.1427819
 51
264.2247767
  0
ARC
  8
LAYER_2
 10
310.8637
 20
-11.9478
 40
0.4598
 50
193.521894
 51
216.1138042
  0
ARC
  8
LAYER_2
 10
311.4644
 20
-11.78
 40
1.0834
 50
179.5128082
 51
194.7227548
  0
ARC
  8
LAYER_2
 10
311.3766
 20
-11.7523
 40
0.9956
 50
161.6651742
 51
181.0651489
  0
ARC
  8
LAYER_2
 10
310.659
 20
-11.4908
 40
0.2334
 50
109.5102277
 51
167.2095694
  0
ENDBLK
  0
BLOCK
  8
LAYER_2
  2
AIGNBL02010027
 70
64
 10
0
 20
0
 30
0
  3
AIGNBL02010027
  0
LINE
  8
LAYER_2
 10
320.5811
 20
-11.2708
 11
320.5811
 21
-10.7708
  0
LINE
  8
LAYER_2
 10
320.5811
 20
-10.7708
 11
318.5811
 21
-10.7708
  0
LINE
  8
LAYER_2
 10
318.5811
 20
-10.7708
 11
318.5811
 21
-11.2708
  0
ENDBLK
  0
BLOCK
  8
LAYER_2
  2
AIGNBL02010028
 70
64
 10
0
 20
0
 30
0
  3
AIGNBL02010028
  0
LINE
  8
LAYER_2
 10
318.5811
 20
-12.2708
 11
318.5811
 21
-25.3708
  0
ENDBLK
  0
BLOCK
  8
LAYER_2
  2
AIGNBL02010029
 70
64
 10
0
 20
0
 30
0
  3
AIGNBL02010029
  0
LINE
  8
LAYER_2
 10
320.5811
 20
-27.3708
 11
320.5811
 21
-12.2708
  0
ENDBLK
  0
BLOCK
  8
LAYER_2
  2
AIGNBL0201002A
 70
64
 10
0
 20
0
 30
0
  3
AIGNBL0201002A
  0
ARC
  8
LAYER_2
 10
318.5687
 20
-12.1475
 40
0.1239
 50
275.7587691
 51
324.8490524
  0
ARC
  8
LAYER_2
 10
318.2988
 20
-11.948
 40
0.4596
 50
323.8855414
 51
346.4884017
  0
ARC
  8
LAYER_2
 10
317.6972
 20
-11.78
 40
1.084
 50
345.2868084
 51
0.488388166
  0
ARC
  8
LAYER_2
 10
317.7853
 20
-11.7522
 40
0.996
 50
358.9326052
 51
18.32546933
  0
ARC
  8
LAYER_2
 10
318.5033
 20
-11.4907
 40
0.2333
 50
12.7815794
 51
70.51168872
  0
ENDBLK
  0
BLOCK
  8
LAYER_2
  2
AIGNBL0201002B
 70
64
 10
0
 20
0
 30
0
  3
AIGNBL0201002B
  0
ARC
  8
LAYER_2
 10
320.5936
 20
-12.1475
 40
0.1239
 50
215.1427819
 51
264.2247767
  0
ARC
  8
LAYER_2
 10
320.8637
 20
-11.9478
 40
0.4598
 50
193.521894
 51
216.1138042
  0
ARC
  8
LAYER_2
 10
321.4644
 20
-11.78
 40
1.0834
 50
179.5128082
 51
194.7227548
  0
ARC
  8
LAYER_2
 10
321.3766
 20
-11.7523
 40
0.9956
 50
161.6651742
 51
181.0651489
  0
ARC
  8
LAYER_2
 10
320.659
 20
-11.4908
 40
0.2334
 50
109.5102277
 51
167.2095694
  0
ENDBLK
  0
BLOCK
  8
LAYER_2
  2
AIGNBL0201002C
 70
64
 10
0
 20
0
 30
0
  3
AIGNBL0201002C
  0
LINE
  8
LAYER_2
 10
318.5811
 20
-25.3708
 11
310.5811
 21
-25.3708
  0
ENDBLK
  0
BLOCK
  8
LAYER_2
  2
AIGNBL0201002D
 70
64
 10
0
 20
0
 30
0
  3
AIGNBL0201002D
  0
LINE
  8
LAYER_2
 10
308.5811
 20
-25.3708
 11
300.5811
 21
-25.3708
  0
ENDBLK
  0
BLOCK
  8
LAYER_2
  2
AIGNBL0201002E
 70
64
 10
0
 20
0
 30
0
  3
AIGNBL0201002E
  0
LINE
  8
LAYER_2
 10
298.5811
 20
-25.3708
 11
290.5811
 21
-25.3708
  0
ENDBLK
  0
BLOCK
  8
LAYER_2
  2
AIGNBL0201002F
 70
64
 10
0
 20
0
 30
0
  3
AIGNBL0201002F
  0
LINE
  8
LAYER_2
 10
288.5811
 20
-25.3708
 11
280.5811
 21
-25.3708
  0
ENDBLK
  0
BLOCK
  8
LAYER_2
  2
AIGNBL02010030
 70
64
 10
0
 20
0
 30
0
  3
AIGNBL02010030
  0
LINE
  8
LAYER_2
 10
280.5811
 20
-19.9708
 11
288.5811
 21
-19.9708
  0
ENDBLK
  0
BLOCK
  8
LAYER_2
  2
AIGNBL02010031
 70
64
 10
0
 20
0
 30
0
  3
AIGNBL02010031
  0
LINE
  8
LAYER_2
 10
290.5811
 20
-19.9708
 11
298.5811
 21
-19.9708
  0
ENDBLK
  0
BLOCK
  8
LAYER_2
  2
AIGNBL02010032
 70
64
 10
0
 20
0
 30
0
  3
AIGNBL02010032
  0
LINE
  8
LAYER_2
 10
300.5811
 20
-19.9708
 11
308.5811
 21
-19.9708
  0
ENDBLK
  0
BLOCK
  8
LAYER_2
  2
AIGNBL02010033
 70
64
 10
0
 20
0
 30
0
  3
AIGNBL02010033
  0
LINE
  8
LAYER_2
 10
310.5811
 20
-19.9708
 11
318.5811
 21
-19.9708
  0
ENDBLK
  0
BLOCK
  8
LAYER_2
  2
AIGNBL02010034
 70
64
 10
0
 20
0
 30
0
  3
AIGNBL02010034
  0
LINE
  8
LAYER_2
 10
280.5811
 20
-21.9708
 11
288.5811
 21
-21.9708
  0
ENDBLK
  0
BLOCK
  8
LAYER_2
  2
AIGNBL02010035
 70
64
 10
0
 20
0
 30
0
  3
AIGNBL02010035
  0
LINE
  8
LAYER_2
 10
290.5811
 20
-21.9708
 11
298.5811
 21
-21.9708
  0
ENDBLK
  0
BLOCK
  8
LAYER_2
  2
AIGNBL02010036
 70
64
 10
0
 20
0
 30
0
  3
AIGNBL02010036
  0
LINE
  8
LAYER_2
 10
300.5811
 20
-21.9708
 11
308.5811
 21
-21.9708
  0
ENDBLK
  0
BLOCK
  8
LAYER_2
  2
AIGNBL02010037
 70
64
 10
0
 20
0
 30
0
  3
AIGNBL02010037
  0
LINE
  8
LAYER_2
 10
310.5811
 20
-21.9708
 11
318.5811
 21
-21.9708
  0
ENDBLK
  0
BLOCK
  8
LAYER_2
  2
AIGNBL02010038
 70
64
 10
0
 20
0
 30
0
  3
AIGNBL02010038
  0
LINE
  8
LAYER_2
 10
280.5811
 20
-19.9708
 11
288.5811
 21
-19.9708
  0
LINE
  8
LAYER_2
 10
288.5811
 20
-19.9708
 11
288.5811
 21
-19.4708
  0
LINE
  8
LAYER_2
 10
288.5811
 20
-19.4708
 11
280.5811
 21
-19.4708
  0
LINE
  8
LAYER_2
 10
280.5811
 20
-19.4708
 11
280.5811
 21
-19.9708
  0
ENDBLK
  0
BLOCK
  8
LAYER_2
  2
AIGNBL02010039
 70
64
 10
0
 20
0
 30
0
  3
AIGNBL02010039
  0
LINE
  8
LAYER_2
 10
281.5811
 20
-17.9708
 11
287.5811
 21
-17.9708
  0
LINE
  8
LAYER_2
 10
287.5811
 20
-17.9708
 11
287.5811
 21
-17.4708
  0
LINE
  8
LAYER_2
 10
287.5811
 20
-17.4708
 11
281.5811
 21
-17.4708
  0
LINE
  8
LAYER_2
 10
281.5811
 20
-17.4708
 11
281.5811
 21
-17.9708
  0
ENDBLK
  0
BLOCK
  8
LAYER_2
  2
AIGNBL0201003A
 70
64
 10
0
 20
0
 30
0
  3
AIGNBL0201003A
  0
LINE
  8
LAYER_2
 10
282.0811
 20
-17.4708
 11
287.0811
 21
-17.4708
  0
ARC
  8
LAYER_2
 10
287.0811
 20
-16.9708
 40
0.5
 50
269.9972554
 51
0.002744613001
  0
LINE
  8
LAYER_2
 10
287.5811
 20
-16.9708
 11
287.5811
 21
-16.4708
  0
ARC
  8
LAYER_2
 10
286.0811
 20
-16.4708
 40
1.5
 50
0.0003584984295
 51
89.99964149
  0
LINE
  8
LAYER_2
 10
286.0811
 20
-14.9708
 11
283.0811
 21
-14.9708
  0
ARC
  8
LAYER_2
 10
283.0811
 20
-16.4708
 40
1.5
 50
90.0009148
 51
179.9990852
  0
LINE
  8
LAYER_2
 10
281.5811
 20
-16.4708
 11
281.5811
 21
-16.9708
  0
ARC
  8
LAYER_2
 10
282.0811
 20
-16.9708
 40
0.5
 50
179.9989246
 51
270.0010754
  0
ENDBLK
  0
BLOCK
  8
LAYER_2
  2
AIGNBL0201003B
 70
64
 10
0
 20
0
 30
0
  3
AIGNBL0201003B
  0
LINE
  8
LAYER_2
 10
283.2811
 20
-18.9708
 11
283.2811
 21
-19.4708
  0
LINE
  8
LAYER_2
 10
283.2811
 20
-19.4708
 11
285.8811
 21
-19.4708
  0
LINE
  8
LAYER_2
 10
285.8811
 20
-19.4708
 11
285.8811
 21
-18.9708
  0
ENDBLK
  0
BLOCK
  8
LAYER_2
  2
AIGNBL0201003C
 70
64
 10
0
 20
0
 30
0
  3
AIGNBL0201003C
  0
LINE
  8
LAYER_2
 10
283.2811
 20
-18.9708
 11
282.2811
 21
-18.9708
  0
ENDBLK
  0
BLOCK
  8
LAYER_2
  2
AIGNBL0201003D
 70
64
 10
0
 20
0
 30
0
  3
AIGNBL0201003D
  0
LINE
  8
LAYER_2
 10
282.2811
 20
-18.9708
 11
280.5811
 21
-19.4708
  0
ENDBLK
  0
BLOCK
  8
LAYER_2
  2
AIGNBL0201003E
 70
64
 10
0
 20
0
 30
0
  3
AIGNBL0201003E
  0
LINE
  8
LAYER_2
 10
280.5811
 20
-19.4708
 11
280.5811
 21
-18.4708
  0
ENDBLK
  0
BLOCK
  8
LAYER_2
  2
AIGNBL0201003F
 70
64
 10
0
 20
0
 30
0
  3
AIGNBL0201003F
  0
LINE
  8
LAYER_2
 10
280.5811
 20
-18.4708
 11
282.2811
 21
-17.9708
  0
ENDBLK
  0
BLOCK
  8
LAYER_2
  2
AIGNBL02010040
 70
64
 10
0
 20
0
 30
0
  3
AIGNBL02010040
  0
LINE
  8
LAYER_2
 10
282.2811
 20
-17.9708
 11
283.2811
 21
-17.9708
  0
ENDBLK
  0
BLOCK
  8
LAYER_2
  2
AIGNBL02010041
 70
64
 10
0
 20
0
 30
0
  3
AIGNBL02010041
  0
LINE
  8
LAYER_2
 10
283.2811
 20
-17.9708
 11
283.6344
 21
-18.3246
  0
ENDBLK
  0
BLOCK
  8
LAYER_2
  2
AIGNBL02010042
 70
64
 10
0
 20
0
 30
0
  3
AIGNBL02010042
  0
LINE
  8
LAYER_2
 10
285.8811
 20
-18.9708
 11
286.8811
 21
-18.9708
  0
ENDBLK
  0
BLOCK
  8
LAYER_2
  2
AIGNBL02010043
 70
64
 10
0
 20
0
 30
0
  3
AIGNBL02010043
  0
LINE
  8
LAYER_2
 10
286.8811
 20
-18.9708
 11
288.5811
 21
-19.4708
  0
ENDBLK
  0
BLOCK
  8
LAYER_2
  2
AIGNBL02010044
 70
64
 10
0
 20
0
 30
0
  3
AIGNBL02010044
  0
LINE
  8
LAYER_2
 10
288.5811
 20
-19.4708
 11
288.5811
 21
-18.4708
  0
ENDBLK
  0
BLOCK
  8
LAYER_2
  2
AIGNBL02010045
 70
64
 10
0
 20
0
 30
0
  3
AIGNBL02010045
  0
LINE
  8
LAYER_2
 10
288.5811
 20
-18.4708
 11
286.8811
 21
-17.9708
  0
ENDBLK
  0
BLOCK
  8
LAYER_2
  2
AIGNBL02010046
 70
64
 10
0
 20
0
 30
0
  3
AIGNBL02010046
  0
LINE
  8
LAYER_2
 10
286.8811
 20
-17.9708
 11
285.8811
 21
-17.9708
  0
ENDBLK
  0
BLOCK
  8
LAYER_2
  2
AIGNBL02010047
 70
64
 10
0
 20
0
 30
0
  3
AIGNBL02010047
  0
LINE
  8
LAYER_2
 10
285.8811
 20
-17.9708
 11
285.5253
 21
-18.3222
  0
ENDBLK
  0
BLOCK
  8
LAYER_2
  2
AIGNBL02010048
 70
64
 10
0
 20
0
 30
0
  3
AIGNBL02010048
  0
LINE
  8
LAYER_2
 10
285.5253
 20
-18.3222
 11
283.6344
 21
-18.3222
  0
ENDBLK
  0
BLOCK
  8
LAYER_2
  2
AIGNBL02010049
 70
64
 10
0
 20
0
 30
0
  3
AIGNBL02010049
  0
LINE
  8
LAYER_2
 10
291.5811
 20
-17.9708
 11
297.5811
 21
-17.9708
  0
LINE
  8
LAYER_2
 10
297.5811
 20
-17.9708
 11
297.5811
 21
-17.4708
  0
LINE
  8
LAYER_2
 10
297.5811
 20
-17.4708
 11
291.5811
 21
-17.4708
  0
LINE
  8
LAYER_2
 10
291.5811
 20
-17.4708
 11
291.5811
 21
-17.9708
  0
ENDBLK
  0
BLOCK
  8
LAYER_2
  2
AIGNBL0201004A
 70
64
 10
0
 20
0
 30
0
  3
AIGNBL0201004A
  0
LINE
  8
LAYER_2
 10
292.0811
 20
-17.4708
 11
297.0811
 21
-17.4708
  0
ARC
  8
LAYER_2
 10
297.0811
 20
-16.9708
 40
0.5
 50
269.9972553
 51
0.002744756208
  0
LINE
  8
LAYER_2
 10
297.5811
 20
-16.9708
 11
297.5811
 21
-16.4708
  0
ARC
  8
LAYER_2
 10
296.0811
 20
-16.4708
 40
1.5
 50
0.0003584507246
 51
89.99964154
  0
LINE
  8
LAYER_2
 10
296.0811
 20
-14.9708
 11
293.0811
 21
-14.9708
  0
ARC
  8
LAYER_2
 10
293.0811
 20
-16.4708
 40
1.5
 50
90.00091485
 51
179.9990851
  0
LINE
  8
LAYER_2
 10
291.5811
 20
-16.4708
 11
291.5811
 21
-16.9708
  0
ARC
  8
LAYER_2
 10
292.0811
 20
-16.9708
 40
0.5
 50
179.9989247
 51
270.0010753
  0
ENDBLK
  0
BLOCK
  8
LAYER_2
  2
AIGNBL0201004B
 70
64
 10
0
 20
0
 30
0
  3
AIGNBL0201004B
  0
LINE
  8
LAYER_2
 10
293.2811
 20
-18.9708
 11
293.2811
 21
-19.4708
  0
LINE
  8
LAYER_2
 10
293.2811
 20
-19.4708
 11
295.8811
 21
-19.4708
  0
LINE
  8
LAYER_2
 10
295.8811
 20
-19.4708
 11
295.8811
 21
-18.9708
  0
ENDBLK
  0
BLOCK
  8
LAYER_2
  2
AIGNBL0201004C
 70
64
 10
0
 20
0
 30
0
  3
AIGNBL0201004C
  0
LINE
  8
LAYER_2
 10
293.2811
 20
-18.9708
 11
292.2811
 21
-18.9708
  0
ENDBLK
  0
BLOCK
  8
LAYER_2
  2
AIGNBL0201004D
 70
64
 10
0
 20
0
 30
0
  3
AIGNBL0201004D
  0
LINE
  8
LAYER_2
 10
292.2811
 20
-18.9708
 11
290.5811
 21
-19.4708
  0
ENDBLK
  0
BLOCK
  8
LAYER_2
  2
AIGNBL0201004E
 70
64
 10
0
 20
0
 30
0
  3
AIGNBL0201004E
  0
LINE
  8
LAYER_2
 10
290.5811
 20
-19.4708
 11
290.5811
 21
-18.4708
  0
ENDBLK
  0
BLOCK
  8
LAYER_2
  2
AIGNBL0201004F
 70
64
 10
0
 20
0
 30
0
  3
AIGNBL0201004F
  0
LINE
  8
LAYER_2
 10
290.5811
 20
-18.4708
 11
292.2811
 21
-17.9708
  0
ENDBLK
  0
BLOCK
  8
LAYER_2
  2
AIGNBL02010050
 70
64
 10
0
 20
0
 30
0
  3
AIGNBL02010050
  0
LINE
  8
LAYER_2
 10
292.2811
 20
-17.9708
 11
293.2811
 21
-17.9708
  0
ENDBLK
  0
BLOCK
  8
LAYER_2
  2
AIGNBL02010051
 70
64
 10
0
 20
0
 30
0
  3
AIGNBL02010051
  0
LINE
  8
LAYER_2
 10
293.2811
 20
-17.9708
 11
293.6344
 21
-18.3246
  0
ENDBLK
  0
BLOCK
  8
LAYER_2
  2
AIGNBL02010052
 70
64
 10
0
 20
0
 30
0
  3
AIGNBL02010052
  0
LINE
  8
LAYER_2
 10
295.8811
 20
-18.9708
 11
296.8811
 21
-18.9708
  0
ENDBLK
  0
BLOCK
  8
LAYER_2
  2
AIGNBL02010053
 70
64
 10
0
 20
0
 30
0
  3
AIGNBL02010053
  0
LINE
  8
LAYER_2
 10
296.8811
 20
-18.9708
 11
298.5811
 21
-19.4708
  0
ENDBLK
  0
BLOCK
  8
LAYER_2
  2
AIGNBL02010054
 70
64
 10
0
 20
0
 30
0
  3
AIGNBL02010054
  0
LINE
  8
LAYER_2
 10
298.5811
 20
-19.4708
 11
298.5811
 21
-18.4708
  0
ENDBLK
  0
BLOCK
  8
LAYER_2
  2
AIGNBL02010055
 70
64
 10
0
 20
0
 30
0
  3
AIGNBL02010055
  0
LINE
  8
LAYER_2
 10
298.5811
 20
-18.4708
 11
296.8811
 21
-17.9708
  0
ENDBLK
  0
BLOCK
  8
LAYER_2
  2
AIGNBL02010056
 70
64
 10
0
 20
0
 30
0
  3
AIGNBL02010056
  0
LINE
  8
LAYER_2
 10
296.8811
 20
-17.9708
 11
295.8811
 21
-17.9708
  0
ENDBLK
  0
BLOCK
  8
LAYER_2
  2
AIGNBL02010057
 70
64
 10
0
 20
0
 30
0
  3
AIGNBL02010057
  0
LINE
  8
LAYER_2
 10
295.8811
 20
-17.9708
 11
295.5253
 21
-18.3222
  0
ENDBLK
  0
BLOCK
  8
LAYER_2
  2
AIGNBL02010058
 70
64
 10
0
 20
0
 30
0
  3
AIGNBL02010058
  0
LINE
  8
LAYER_2
 10
295.5253
 20
-18.3222
 11
293.6344
 21
-18.3222
  0
ENDBLK
  0
BLOCK
  8
LAYER_2
  2
AIGNBL02010059
 70
64
 10
0
 20
0
 30
0
  3
AIGNBL02010059
  0
LINE
  8
LAYER_2
 10
311.5811
 20
-17.9708
 11
317.5811
 21
-17.9708
  0
LINE
  8
LAYER_2
 10
317.5811
 20
-17.9708
 11
317.5811
 21
-17.4708
  0
LINE
  8
LAYER_2
 10
317.5811
 20
-17.4708
 11
311.5811
 21
-17.4708
  0
LINE
  8
LAYER_2
 10
311.5811
 20
-17.4708
 11
311.5811
 21
-17.9708
  0
ENDBLK
  0
BLOCK
  8
LAYER_2
  2
AIGNBL0201005A
 70
64
 10
0
 20
0
 30
0
  3
AIGNBL0201005A
  0
LINE
  8
LAYER_2
 10
312.0811
 20
-17.4708
 11
317.0811
 21
-17.4708
  0
ARC
  8
LAYER_2
 10
317.0811
 20
-16.9708
 40
0.5
 50
269.997255
 51
0.002745042831
  0
LINE
  8
LAYER_2
 10
317.5811
 20
-16.9708
 11
317.5811
 21
-16.4708
  0
ARC
  8
LAYER_2
 10
316.0811
 20
-16.4708
 40
1.5
 50
0.0003583552229
 51
89.99964163
  0
LINE
  8
LAYER_2
 10
316.0811
 20
-14.9708
 11
313.0811
 21
-14.9708
  0
ARC
  8
LAYER_2
 10
313.0811
 20
-16.4708
 40
1.5
 50
90.00091495
 51
179.999085
  0
LINE
  8
LAYER_2
 10
311.5811
 20
-16.4708
 11
311.5811
 21
-16.9708
  0
ARC
  8
LAYER_2
 10
312.0811
 20
-16.9708
 40
0.5
 50
179.998925
 51
270.001075
  0
ENDBLK
  0
BLOCK
  8
LAYER_2
  2
AIGNBL0201005B
 70
64
 10
0
 20
0
 30
0
  3
AIGNBL0201005B
  0
LINE
  8
LAYER_2
 10
313.2811
 20
-18.9708
 11
313.2811
 21
-19.4708
  0
LINE
  8
LAYER_2
 10
313.2811
 20
-19.4708
 11
315.8811
 21
-19.4708
  0
LINE
  8
LAYER_2
 10
315.8811
 20
-19.4708
 11
315.8811
 21
-18.9708
  0
ENDBLK
  0
BLOCK
  8
LAYER_2
  2
AIGNBL0201005C
 70
64
 10
0
 20
0
 30
0
  3
AIGNBL0201005C
  0
LINE
  8
LAYER_2
 10
313.2811
 20
-18.9708
 11
312.2811
 21
-18.9708
  0
ENDBLK
  0
BLOCK
  8
LAYER_2
  2
AIGNBL0201005D
 70
64
 10
0
 20
0
 30
0
  3
AIGNBL0201005D
  0
LINE
  8
LAYER_2
 10
312.2811
 20
-18.9708
 11
310.5811
 21
-19.4708
  0
ENDBLK
  0
BLOCK
  8
LAYER_2
  2
AIGNBL0201005E
 70
64
 10
0
 20
0
 30
0
  3
AIGNBL0201005E
  0
LINE
  8
LAYER_2
 10
310.5811
 20
-19.4708
 11
310.5811
 21
-18.4708
  0
ENDBLK
  0
BLOCK
  8
LAYER_2
  2
AIGNBL0201005F
 70
64
 10
0
 20
0
 30
0
  3
AIGNBL0201005F
  0
LINE
  8
LAYER_2
 10
310.5811
 20
-18.4708
 11
312.2811
 21
-17.9708
  0
ENDBLK
  0
BLOCK
  8
LAYER_2
  2
AIGNBL02010060
 70
64
 10
0
 20
0
 30
0
  3
AIGNBL02010060
  0
LINE
  8
LAYER_2
 10
312.2811
 20
-17.9708
 11
313.2811
 21
-17.9708
  0
ENDBLK
  0
BLOCK
  8
LAYER_2
  2
AIGNBL02010061
 70
64
 10
0
 20
0
 30
0
  3
AIGNBL02010061
  0
LINE
  8
LAYER_2
 10
313.2811
 20
-17.9708
 11
313.6344
 21
-18.3246
  0
ENDBLK
  0
BLOCK
  8
LAYER_2
  2
AIGNBL02010062
 70
64
 10
0
 20
0
 30
0
  3
AIGNBL02010062
  0
LINE
  8
LAYER_2
 10
315.8811
 20
-18.9708
 11
316.8811
 21
-18.9708
  0
ENDBLK
  0
BLOCK
  8
LAYER_2
  2
AIGNBL02010063
 70
64
 10
0
 20
0
 30
0
  3
AIGNBL02010063
  0
LINE
  8
LAYER_2
 10
316.8811
 20
-18.9708
 11
318.5811
 21
-19.4708
  0
ENDBLK
  0
BLOCK
  8
LAYER_2
  2
AIGNBL02010064
 70
64
 10
0
 20
0
 30
0
  3
AIGNBL02010064
  0
LINE
  8
LAYER_2
 10
318.5811
 20
-19.4708
 11
318.5811
 21
-18.4708
  0
ENDBLK
  0
BLOCK
  8
LAYER_2
  2
AIGNBL02010065
 70
64
 10
0
 20
0
 30
0
  3
AIGNBL02010065
  0
LINE
  8
LAYER_2
 10
318.5811
 20
-18.4708
 11
316.8811
 21
-17.9708
  0
ENDBLK
  0
BLOCK
  8
LAYER_2
  2
AIGNBL02010066
 70
64
 10
0
 20
0
 30
0
  3
AIGNBL02010066
  0
LINE
  8
LAYER_2
 10
316.8811
 20
-17.9708
 11
315.8811
 21
-17.9708
  0
ENDBLK
  0
BLOCK
  8
LAYER_2
  2
AIGNBL02010067
 70
64
 10
0
 20
0
 30
0
  3
AIGNBL02010067
  0
LINE
  8
LAYER_2
 10
315.8811
 20
-17.9708
 11
315.5253
 21
-18.3222
  0
ENDBLK
  0
BLOCK
  8
LAYER_2
  2
AIGNBL02010068
 70
64
 10
0
 20
0
 30
0
  3
AIGNBL02010068
  0
LINE
  8
LAYER_2
 10
315.5253
 20
-18.3222
 11
313.6344
 21
-18.3222
  0
ENDBLK
  0
BLOCK
  8
LAYER_2
  2
AIGNBL02010069
 70
64
 10
0
 20
0
 30
0
  3
AIGNBL02010069
  0
LINE
  8
LAYER_2
 10
290.5811
 20
-19.9708
 11
298.5811
 21
-19.9708
  0
LINE
  8
LAYER_2
 10
298.5811
 20
-19.9708
 11
298.5811
 21
-19.4708
  0
LINE
  8
LAYER_2
 10
298.5811
 20
-19.4708
 11
290.5811
 21
-19.4708
  0
LINE
  8
LAYER_2
 10
290.5811
 20
-19.4708
 11
290.5811
 21
-19.9708
  0
ENDBLK
  0
BLOCK
  8
LAYER_2
  2
AIGNBL0201006A
 70
64
 10
0
 20
0
 30
0
  3
AIGNBL0201006A
  0
LINE
  8
LAYER_2
 10
300.5811
 20
-19.9708
 11
308.5811
 21
-19.9708
  0
LINE
  8
LAYER_2
 10
308.5811
 20
-19.9708
 11
308.5811
 21
-19.4708
  0
LINE
  8
LAYER_2
 10
308.5811
 20
-19.4708
 11
300.5811
 21
-19.4708
  0
LINE
  8
LAYER_2
 10
300.5811
 20
-19.4708
 11
300.5811
 21
-19.9708
  0
ENDBLK
  0
BLOCK
  8
LAYER_2
  2
AIGNBL0201006B
 70
64
 10
0
 20
0
 30
0
  3
AIGNBL0201006B
  0
LINE
  8
LAYER_2
 10
310.5811
 20
-19.9708
 11
318.5811
 21
-19.9708
  0
LINE
  8
LAYER_2
 10
318.5811
 20
-19.9708
 11
318.5811
 21
-19.4708
  0
LINE
  8
LAYER_2
 10
318.5811
 20
-19.4708
 11
310.5811
 21
-19.4708
  0
LINE
  8
LAYER_2
 10
310.5811
 20
-19.4708
 11
310.5811
 21
-19.9708
  0
ENDBLK
  0
BLOCK
  8
LAYER_2
  2
AIGNBL0201006C
 70
64
 10
0
 20
0
 30
0
  3
AIGNBL0201006C
  0
ARC
  8
LAYER_2
 10
307.1975
 20
-19.4773
 40
0.3837
 50
0.9716005831
 51
30.68960122
  0
ARC
  8
LAYER_2
 10
306.9537
 20
-19.6265
 40
0.6695
 50
31.01638862
 51
49.74840365
  0
ARC
  8
LAYER_2
 10
306.495
 20
-20.1636
 40
1.3758
 50
49.6253861
 51
62.61654806
  0
ARC
  8
LAYER_2
 10
305.8678
 20
-21.3551
 40
2.7222
 50
62.42843148
 51
71.58562166
  0
ARC
  8
LAYER_2
 10
305.0092
 20
-23.9673
 40
5.4719
 50
71.69586174
 51
85.5066386
  0
ARC
  8
LAYER_2
 10
304.5901
 20
-27.1768
 40
8.706
 50
84.41150987
 51
90.05918815
  0
ARC
  8
LAYER_2
 10
304.5466
 20
-26.4329
 40
7.9622
 50
89.75142393
 51
102.1259908
  0
ARC
  8
LAYER_2
 10
303.6075
 20
-22.0379
 40
3.468
 50
102.2102676
 51
119.0020715
  0
ARC
  8
LAYER_2
 10
302.4463
 20
-19.8654
 40
1.0056
 50
121.1513302
 51
138.3444398
  0
ARC
  8
LAYER_2
 10
302.0261
 20
-19.4953
 40
0.4457
 50
137.9984512
 51
176.8542372
  0
ENDBLK
  0
BLOCK
  8
LAYER_2
  2
AIGNBL0201006D
 70
64
 10
0
 20
0
 30
0
  3
AIGNBL0201006D
  0
ENDBLK
  0
BLOCK
  8
LAYER_2
  2
AIGNBL0201006E
 70
64
 10
0
 20
0
 30
0
  3
AIGNBL0201006E
  0
ENDBLK
  0
BLOCK
  8
LAYER_2
  2
AIGNBL0201006F
 70
64
 10
0
 20
0
 30
0
  3
AIGNBL0201006F
  0
ENDBLK
  0
BLOCK
  8
LAYER_2
  2
AIGNBL02010070
 70
64
 10
0
 20
0
 30
0
  3
AIGNBL02010070
  0
LINE
  8
LAYER_2
 10
397.3767
 20
46.7615
 11
399.3767
 21
46.7615
  0
ENDBLK
  0
BLOCK
  8
LAYER_2
  2
AIGNBL02010071
 70
64
 10
0
 20
0
 30
0
  3
AIGNBL02010071
  0
LINE
  8
LAYER_2
 10
399.3767
 20
46.7615
 11
399.3767
 21
48.7615
  0
ENDBLK
  0
BLOCK
  8
LAYER_2
  2
AIGNBL02010072
 70
64
 10
0
 20
0
 30
0
  3
AIGNBL02010072
  0
LINE
  8
LAYER_2
 10
399.3767
 20
48.7615
 11
400.1767
 21
46.7615
  0
ENDBLK
  0
BLOCK
  8
LAYER_2
  2
AIGNBL02010073
 70
64
 10
0
 20
0
 30
0
  3
AIGNBL02010073
  0
LINE
  8
LAYER_2
 10
400.1767
 20
46.7615
 11
400.1767
 21
43.6615
  0
ENDBLK
  0
BLOCK
  8
LAYER_2
  2
AIGNBL02010074
 70
64
 10
0
 20
0
 30
0
  3
AIGNBL02010074
  0
LINE
  8
LAYER_2
 10
399.7767
 20
81.7615
 11
399.3942
 21
78.9878
  0
ENDBLK
  0
BLOCK
  8
LAYER_2
  2
AIGNBL02010075
 70
64
 10
0
 20
0
 30
0
  3
AIGNBL02010075
  0
LINE
  8
LAYER_2
 10
398.3767
 20
81.7615
 11
399.3942
 21
78.9878
  0
ENDBLK
  0
BLOCK
  8
LAYER_2
  2
AIGNBL02010076
 70
64
 10
0
 20
0
 30
0
  3
AIGNBL02010076
  0
ARC
  8
LAYER_2
 10
292.5811
 20
84.6615
 40
1.5
 50
90.00030339
 51
179.9996966
  0
ARC
  8
LAYER_2
 10
292.5811
 20
84.6615
 40
1.5
 50
359.999747
 51
90.00025301
  0
ARC
  8
LAYER_2
 10
292.5811
 20
84.6615
 40
1.5
 50
269.9996966
 51
0.0003033747712
  0
ARC
  8
LAYER_2
 10
292.5811
 20
84.6615
 40
1.5
 50
180.000253
 51
269.999747
  0
ENDBLK
  0
BLOCK
  8
LAYER_3
  2
AIGNBL03010002
 70
64
 10
0
 20
0
 30
0
  3
AIGNBL03010002
  0
LINE
  8
LAYER_3
 62
3
 10
273.9561
 20
101.6615
 11
256.2616
 21
101.6615
  0
ENDBLK
  0
BLOCK
  8
LAYER_3
  2
AIGNBL03010003
 70
64
 10
0
 20
0
 30
0
  3
AIGNBL03010003
  0
LINE
  8
LAYER_3
 62
3
 10
273.9561
 20
26.6615
 11
256.2616
 21
26.6615
  0
ENDBLK
  0
BLOCK
  8
LAYER_3
  2
AIGNBL03010004
 70
64
 10
0
 20
0
 30
0
  3
AIGNBL03010004
  0
LINE
  8
LAYER_3
 62
3
 10
257.5116
 20
99.1615
 11
257.5116
 21
29.1615
  0
ENDBLK
  0
BLOCK
  8
LAYER_3
  2
AIGNBL03010005
 70
64
 10
0
 20
0
 30
0
  3
AIGNBL03010005
  0
LINE
  8
LAYER_3
 62
3
 10
257.0949
 20
99.1615
 11
257.5116
 21
101.6615
  0
LINE
  8
LAYER_3
 62
3
 10
257.5116
 20
101.6615
 11
257.9283
 21
99.1615
  0
LINE
  8
LAYER_3
 62
3
 10
257.9283
 20
99.1615
 11
257.0949
 21
99.1615
  0
ENDBLK
  0
BLOCK
  8
LAYER_3
  2
AIGNBL03010006
 70
64
 10
0
 20
0
 30
0
  3
AIGNBL03010006
  0
LINE
  8
LAYER_3
 62
3
 10
257.0949
 20
29.1615
 11
257.5116
 21
26.6615
  0
LINE
  8
LAYER_3
 62
3
 10
257.5116
 20
26.6615
 11
257.9283
 21
29.1615
  0
LINE
  8
LAYER_3
 62
3
 10
257.9283
 20
29.1615
 11
257.0949
 21
29.1615
  0
ENDBLK
  0
BLOCK
  8
LAYER_3
  2
AIGNBL03010007
 70
64
 10
0
 20
0
 30
0
  3
AIGNBL03010007
  0
TEXT
  8
LAYER_3
 10
256.844
 20
62.2088
 11
256.844
 21
62.2088
 40
3.7421
 41
0.5
 50
89.99999999
 62
3
  1
75
  0
ENDBLK
  0
BLOCK
  8
LAYER_3
  2
AIGNBL03010008
 70
64
 10
0
 20
0
 30
0
  3
AIGNBL03010008
  0
LINE
  8
LAYER_3
 62
3
 10
274.5811
 20
26.0365
 11
274.5811
 21
8.0629
  0
ENDBLK
  0
BLOCK
  8
LAYER_3
  2
AIGNBL03010009
 70
64
 10
0
 20
0
 30
0
  3
AIGNBL03010009
  0
LINE
  8
LAYER_3
 62
3
 10
324.5811
 20
26.0365
 11
324.5811
 21
8.0629
  0
ENDBLK
  0
BLOCK
  8
LAYER_3
  2
AIGNBL0301000A
 70
64
 10
0
 20
0
 30
0
  3
AIGNBL0301000A
  0
LINE
  8
LAYER_3
 62
3
 10
277.0811
 20
9.3129
 11
322.0811
 21
9.3129
  0
ENDBLK
  0
BLOCK
  8
LAYER_3
  2
AIGNBL0301000B
 70
64
 10
0
 20
0
 30
0
  3
AIGNBL0301000B
  0
LINE
  8
LAYER_3
 62
3
 10
277.0811
 20
9.7296
 11
274.5811
 21
9.3129
  0
LINE
  8
LAYER_3
 62
3
 10
274.5811
 20
9.3129
 11
277.0811
 21
8.8962
  0
LINE
  8
LAYER_3
 62
3
 10
277.0811
 20
8.8962
 11
277.0811
 21
9.7296
  0
ENDBLK
  0
BLOCK
  8
LAYER_3
  2
AIGNBL0301000C
 70
64
 10
0
 20
0
 30
0
  3
AIGNBL0301000C
  0
LINE
  8
LAYER_3
 62
3
 10
322.0811
 20
9.7296
 11
324.5811
 21
9.3129
  0
LINE
  8
LAYER_3
 62
3
 10
324.5811
 20
9.3129
 11
322.0811
 21
8.8962
  0
LINE
  8
LAYER_3
 62
3
 10
322.0811
 20
8.8962
 11
322.0811
 21
9.7296
  0
ENDBLK
  0
BLOCK
  8
LAYER_3
  2
AIGNBL0301000D
 70
64
 10
0
 20
0
 30
0
  3
AIGNBL0301000D
  0
TEXT
  8
LAYER_3
 10
297.6524
 20
9.9806
 11
297.6524
 21
9.9806
 40
3.7421
 41
0.5
 62
3
  1
50
  0
ENDBLK
  0
BLOCK
  8
LAYER_3
  2
AIGNBL0301000E
 70
64
 10
0
 20
0
 30
0
  3
AIGNBL0301000E
  0
LINE
  8
LAYER_3
 62
3
 10
400.1767
 20
21.5365
 11
400.1767
 21
8.0629
  0
ENDBLK
  0
BLOCK
  8
LAYER_3
  2
AIGNBL0301000F
 70
64
 10
0
 20
0
 30
0
  3
AIGNBL0301000F
  0
LINE
  8
LAYER_3
 62
3
 10
361.1767
 20
21.5365
 11
361.1767
 21
8.0629
  0
ENDBLK
  0
BLOCK
  8
LAYER_3
  2
AIGNBL03010010
 70
64
 10
0
 20
0
 30
0
  3
AIGNBL03010010
  0
LINE
  8
LAYER_3
 62
3
 10
397.4633
 20
9.3129
 11
363.6767
 21
9.3129
  0
ENDBLK
  0
BLOCK
  8
LAYER_3
  2
AIGNBL03010011
 70
64
 10
0
 20
0
 30
0
  3
AIGNBL03010011
  0
LINE
  8
LAYER_3
 62
3
 10
397.4633
 20
9.7395
 11
400.0228
 21
9.3129
  0
LINE
  8
LAYER_3
 62
3
 10
400.0228
 20
9.3129
 11
397.4633
 21
8.8863
  0
LINE
  8
LAYER_3
 62
3
 10
397.4633
 20
8.8863
 11
397.4633
 21
9.7395
  0
ENDBLK
  0
BLOCK
  8
LAYER_3
  2
AIGNBL03010012
 70
64
 10
0
 20
0
 30
0
  3
AIGNBL03010012
  0
LINE
  8
LAYER_3
 62
3
 10
363.6767
 20
9.7296
 11
361.1767
 21
9.3129
  0
LINE
  8
LAYER_3
 62
3
 10
361.1767
 20
9.3129
 11
363.6767
 21
8.8962
  0
LINE
  8
LAYER_3
 62
3
 10
363.6767
 20
8.8962
 11
363.6767
 21
9.7296
  0
ENDBLK
  0
BLOCK
  8
LAYER_3
  2
AIGNBL03010013
 70
64
 10
0
 20
0
 30
0
  3
AIGNBL03010013
  0
TEXT
  8
LAYER_3
 10
378.2392
 20
9.9814
 11
378.2392
 21
9.9814
 40
3.7421
 41
0.5
 62
3
  1
39
  0
ENDBLK
  0
BLOCK
  8
LAYER_3
  2
AIGNBL03010014
 70
64
 10
0
 20
0
 30
0
  3
AIGNBL03010014
  0
LINE
  8
LAYER_3
 62
3
 10
273.9561
 20
-10.3708
 11
256.2616
 21
-10.3708
  0
ENDBLK
  0
BLOCK
  8
LAYER_3
  2
AIGNBL03010015
 70
64
 10
0
 20
0
 30
0
  3
AIGNBL03010015
  0
LINE
  8
LAYER_3
 62
3
 10
273.9561
 20
-49.3708
 11
256.2616
 21
-49.3708
  0
ENDBLK
  0
BLOCK
  8
LAYER_3
  2
AIGNBL03010016
 70
64
 10
0
 20
0
 30
0
  3
AIGNBL03010016
  0
LINE
  8
LAYER_3
 62
3
 10
257.5116
 20
-12.8708
 11
257.5116
 21
-46.8708
  0
ENDBLK
  0
BLOCK
  8
LAYER_3
  2
AIGNBL03010017
 70
64
 10
0
 20
0
 30
0
  3
AIGNBL03010017
  0
LINE
  8
LAYER_3
 62
3
 10
257.0949
 20
-12.8708
 11
257.5116
 21
-10.3708
  0
LINE
  8
LAYER_3
 62
3
 10
257.5116
 20
-10.3708
 11
257.9283
 21
-12.8708
  0
LINE
  8
LAYER_3
 62
3
 10
257.9283
 20
-12.8708
 11
257.0949
 21
-12.8708
  0
ENDBLK
  0
BLOCK
  8
LAYER_3
  2
AIGNBL03010018
 70
64
 10
0
 20
0
 30
0
  3
AIGNBL03010018
  0
LINE
  8
LAYER_3
 62
3
 10
257.0949
 20
-46.8708
 11
257.5116
 21
-49.3708
  0
LINE
  8
LAYER_3
 62
3
 10
257.5116
 20
-49.3708
 11
257.9283
 21
-46.8708
  0
LINE
  8
LAYER_3
 62
3
 10
257.9283
 20
-46.8708
 11
257.0949
 21
-46.8708
  0
ENDBLK
  0
BLOCK
  8
LAYER_3
  2
AIGNBL03010019
 70
64
 10
0
 20
0
 30
0
  3
AIGNBL03010019
  0
TEXT
  8
LAYER_3
 10
256.8431
 20
-31.8086
 11
256.8431
 21
-31.8086
 40
3.7421
 41
0.5
 50
89.99999999
 62
3
  1
39
  0
ENDBLK
  0
BLOCK
  8
LAYER_4
  2
AIGNBL04010002
 70
64
 10
0
 20
0
 30
0
  3
AIGNBL04010002
  0
LINE
  8
LAYER_4
 10
274.5811
 20
101.6615
 11
324.5811
 21
101.6615
  0
LINE
  8
LAYER_4
 10
324.5811
 20
101.6615
 11
324.5811
 21
26.6615
  0
LINE
  8
LAYER_4
 10
324.5811
 20
26.6615
 11
274.5811
 21
26.6615
  0
LINE
  8
LAYER_4
 10
274.5811
 20
26.6615
 11
274.5811
 21
101.6615
  0
ENDBLK
  0
BLOCK
  8
LAYER_4
  2
AIGNBL04010003
 70
64
 10
0
 20
0
 30
0
  3
AIGNBL04010003
  0
LINE
  8
LAYER_4
 10
278.5811
 20
26.6615
 11
278.5811
 21
41.6615
  0
ENDBLK
  0
BLOCK
  8
LAYER_4
  2
AIGNBL04010004
 70
64
 10
0
 20
0
 30
0
  3
AIGNBL04010004
  0
ARC
  8
LAYER_4
 10
279.5811
 20
41.6615
 40
1
 50
90.00045529
 51
179.9995447
  0
ENDBLK
  0
BLOCK
  8
LAYER_4
  2
AIGNBL04010005
 70
64
 10
0
 20
0
 30
0
  3
AIGNBL04010005
  0
LINE
  8
LAYER_4
 10
279.5811
 20
42.6615
 11
319.5811
 21
42.6615
  0
ENDBLK
  0
BLOCK
  8
LAYER_4
  2
AIGNBL04010006
 70
64
 10
0
 20
0
 30
0
  3
AIGNBL04010006
  0
LINE
  8
LAYER_4
 10
320.5811
 20
41.6615
 11
320.5811
 21
26.6615
  0
ENDBLK
  0
BLOCK
  8
LAYER_4
  2
AIGNBL04010007
 70
64
 10
0
 20
0
 30
0
  3
AIGNBL04010007
  0
ARC
  8
LAYER_4
 10
319.5811
 20
41.6615
 40
1
 50
359.9996206
 51
90.00037941
  0
ENDBLK
  0
BLOCK
  8
LAYER_4
  2
AIGNBL04010008
 70
64
 10
0
 20
0
 30
0
  3
AIGNBL04010008
  0
LINE
  8
LAYER_4
 10
278.5811
 20
41.1615
 11
320.5811
 21
41.1615
  0
ENDBLK
  0
BLOCK
  8
LAYER_4
  2
AIGNBL04010009
 70
64
 10
0
 20
0
 30
0
  3
AIGNBL04010009
  0
LINE
  8
LAYER_4
 10
278.5811
 20
41.1615
 11
320.5811
 21
41.1615
  0
LINE
  8
LAYER_4
 10
320.5811
 20
41.1615
 11
320.5811
 21
38.1615
  0
LINE
  8
LAYER_4
 10
320.5811
 20
38.1615
 11
278.5811
 21
38.1615
  0
LINE
  8
LAYER_4
 10
278.5811
 20
38.1615
 11
278.5811
 21
41.1615
  0
ENDBLK
  0
BLOCK
  8
LAYER_4
  2
AIGNBL0401000A
 70
64
 10
0
 20
0
 30
0
  3
AIGNBL0401000A
  0
LINE
  8
LAYER_4
 10
278.5811
 20
38.1615
 11
280.5811
 21
38.1615
  0
LINE
  8
LAYER_4
 10
280.5811
 20
38.1615
 11
280.5811
 21
26.6615
  0
LINE
  8
LAYER_4
 10
280.5811
 20
26.6615
 11
278.5811
 21
26.6615
  0
LINE
  8
LAYER_4
 10
278.5811
 20
26.6615
 11
278.5811
 21
38.1615
  0
ENDBLK
  0
BLOCK
  8
LAYER_4
  2
AIGNBL0401000B
 70
64
 10
0
 20
0
 30
0
  3
AIGNBL0401000B
  0
LINE
  8
LAYER_4
 10
280.5811
 20
38.1615
 11
288.5811
 21
38.1615
  0
LINE
  8
LAYER_4
 10
288.5811
 20
38.1615
 11
288.5811
 21
26.6615
  0
LINE
  8
LAYER_4
 10
288.5811
 20
26.6615
 11
280.5811
 21
26.6615
  0
LINE
  8
LAYER_4
 10
280.5811
 20
26.6615
 11
280.5811
 21
38.1615
  0
ENDBLK
  0
BLOCK
  8
LAYER_4
  2
AIGNBL0401000C
 70
64
 10
0
 20
0
 30
0
  3
AIGNBL0401000C
  0
LINE
  8
LAYER_4
 10
288.5811
 20
38.1615
 11
290.5811
 21
38.1615
  0
LINE
  8
LAYER_4
 10
290.5811
 20
38.1615
 11
290.5811
 21
26.6615
  0
LINE
  8
LAYER_4
 10
290.5811
 20
26.6615
 11
288.5811
 21
26.6615
  0
LINE
  8
LAYER_4
 10
288.5811
 20
26.6615
 11
288.5811
 21
38.1615
  0
ENDBLK
  0
BLOCK
  8
LAYER_4
  2
AIGNBL0401000D
 70
64
 10
0
 20
0
 30
0
  3
AIGNBL0401000D
  0
LINE
  8
LAYER_4
 10
290.5811
 20
38.1615
 11
298.5811
 21
38.1615
  0
LINE
  8
LAYER_4
 10
298.5811
 20
38.1615
 11
298.5811
 21
26.6615
  0
LINE
  8
LAYER_4
 10
298.5811
 20
26.6615
 11
290.5811
 21
26.6615
  0
LINE
  8
LAYER_4
 10
290.5811
 20
26.6615
 11
290.5811
 21
38.1615
  0
ENDBLK
  0
BLOCK
  8
LAYER_4
  2
AIGNBL0401000E
 70
64
 10
0
 20
0
 30
0
  3
AIGNBL0401000E
  0
LINE
  8
LAYER_4
 10
298.5811
 20
38.1615
 11
300.5811
 21
38.1615
  0
LINE
  8
LAYER_4
 10
300.5811
 20
38.1615
 11
300.5811
 21
26.6615
  0
LINE
  8
LAYER_4
 10
300.5811
 20
26.6615
 11
298.5811
 21
26.6615
  0
LINE
  8
LAYER_4
 10
298.5811
 20
26.6615
 11
298.5811
 21
38.1615
  0
ENDBLK
  0
BLOCK
  8
LAYER_4
  2
AIGNBL0401000F
 70
64
 10
0
 20
0
 30
0
  3
AIGNBL0401000F
  0
LINE
  8
LAYER_4
 10
300.5811
 20
38.1615
 11
308.5811
 21
38.1615
  0
LINE
  8
LAYER_4
 10
308.5811
 20
38.1615
 11
308.5811
 21
26.6615
  0
LINE
  8
LAYER_4
 10
308.5811
 20
26.6615
 11
300.5811
 21
26.6615
  0
LINE
  8
LAYER_4
 10
300.5811
 20
26.6615
 11
300.5811
 21
38.1615
  0
ENDBLK
  0
BLOCK
  8
LAYER_4
  2
AIGNBL04010010
 70
64
 10
0
 20
0
 30
0
  3
AIGNBL04010010
  0
LINE
  8
LAYER_4
 10
308.5811
 20
38.1615
 11
310.5811
 21
38.1615
  0
LINE
  8
LAYER_4
 10
310.5811
 20
38.1615
 11
310.5811
 21
26.6615
  0
LINE
  8
LAYER_4
 10
310.5811
 20
26.6615
 11
308.5811
 21
26.6615
  0
LINE
  8
LAYER_4
 10
308.5811
 20
26.6615
 11
308.5811
 21
38.1615
  0
ENDBLK
  0
BLOCK
  8
LAYER_4
  2
AIGNBL04010011
 70
64
 10
0
 20
0
 30
0
  3
AIGNBL04010011
  0
LINE
  8
LAYER_4
 10
310.5811
 20
38.1615
 11
318.5811
 21
38.1615
  0
LINE
  8
LAYER_4
 10
318.5811
 20
38.1615
 11
318.5811
 21
26.6615
  0
LINE
  8
LAYER_4
 10
318.5811
 20
26.6615
 11
310.5811
 21
26.6615
  0
LINE
  8
LAYER_4
 10
310.5811
 20
26.6615
 11
310.5811
 21
38.1615
  0
ENDBLK
  0
BLOCK
  8
LAYER_4
  2
AIGNBL04010012
 70
64
 10
0
 20
0
 30
0
  3
AIGNBL04010012
  0
LINE
  8
LAYER_4
 10
318.5811
 20
38.1615
 11
320.5811
 21
38.1615
  0
LINE
  8
LAYER_4
 10
320.5811
 20
38.1615
 11
320.5811
 21
26.6615
  0
LINE
  8
LAYER_4
 10
320.5811
 20
26.6615
 11
318.5811
 21
26.6615
  0
LINE
  8
LAYER_4
 10
318.5811
 20
26.6615
 11
318.5811
 21
38.1615
  0
ENDBLK
  0
BLOCK
  8
LAYER_4
  2
AIGNBL04010013
 70
64
 10
0
 20
0
 30
0
  3
AIGNBL04010013
  0
LINE
  8
LAYER_4
 10
283.0811
 20
38.1615
 11
286.0811
 21
38.1615
  0
LINE
  8
LAYER_4
 10
286.0811
 20
38.1615
 11
286.0811
 21
39.3615
  0
LINE
  8
LAYER_4
 10
286.0811
 20
39.3615
 11
283.0811
 21
39.3615
  0
LINE
  8
LAYER_4
 10
283.0811
 20
39.3615
 11
283.0811
 21
38.1615
  0
ENDBLK
  0
BLOCK
  8
LAYER_4
  2
AIGNBL04010014
 70
64
 10
0
 20
0
 30
0
  3
AIGNBL04010014
  0
LINE
  8
LAYER_4
 10
293.0811
 20
38.1615
 11
296.0811
 21
38.1615
  0
LINE
  8
LAYER_4
 10
296.0811
 20
38.1615
 11
296.0811
 21
39.3615
  0
LINE
  8
LAYER_4
 10
296.0811
 20
39.3615
 11
293.0811
 21
39.3615
  0
LINE
  8
LAYER_4
 10
293.0811
 20
39.3615
 11
293.0811
 21
38.1615
  0
ENDBLK
  0
BLOCK
  8
LAYER_4
  2
AIGNBL04010015
 70
64
 10
0
 20
0
 30
0
  3
AIGNBL04010015
  0
LINE
  8
LAYER_4
 10
303.0811
 20
38.1615
 11
306.0811
 21
38.1615
  0
LINE
  8
LAYER_4
 10
306.0811
 20
38.1615
 11
306.0811
 21
39.3615
  0
LINE
  8
LAYER_4
 10
306.0811
 20
39.3615
 11
303.0811
 21
39.3615
  0
LINE
  8
LAYER_4
 10
303.0811
 20
39.3615
 11
303.0811
 21
38.1615
  0
ENDBLK
  0
BLOCK
  8
LAYER_4
  2
AIGNBL04010016
 70
64
 10
0
 20
0
 30
0
  3
AIGNBL04010016
  0
LINE
  8
LAYER_4
 10
313.0811
 20
38.1615
 11
316.0811
 21
38.1615
  0
LINE
  8
LAYER_4
 10
316.0811
 20
38.1615
 11
316.0811
 21
39.3615
  0
LINE
  8
LAYER_4
 10
316.0811
 20
39.3615
 11
313.0811
 21
39.3615
  0
LINE
  8
LAYER_4
 10
313.0811
 20
39.3615
 11
313.0811
 21
38.1615
  0
ENDBLK
  0
BLOCK
  8
LAYER_4
  2
AIGNBL04010017
 70
64
 10
0
 20
0
 30
0
  3
AIGNBL04010017
  0
LINE
  8
LAYER_4
 10
278.5811
 20
26.6615
 11
280.5811
 21
26.6615
  0
LINE
  8
LAYER_4
 10
280.5811
 20
26.6615
 11
280.5811
 21
28.6615
  0
LINE
  8
LAYER_4
 10
280.5811
 20
28.6615
 11
278.5811
 21
28.6615
  0
LINE
  8
LAYER_4
 10
278.5811
 20
28.6615
 11
278.5811
 21
26.6615
  0
ENDBLK
  0
BLOCK
  8
LAYER_4
  2
AIGNBL04010018
 70
64
 10
0
 20
0
 30
0
  3
AIGNBL04010018
  0
LINE
  8
LAYER_4
 10
288.5811
 20
26.6615
 11
290.5811
 21
26.6615
  0
LINE
  8
LAYER_4
 10
290.5811
 20
26.6615
 11
290.5811
 21
28.6615
  0
LINE
  8
LAYER_4
 10
290.5811
 20
28.6615
 11
288.5811
 21
28.6615
  0
LINE
  8
LAYER_4
 10
288.5811
 20
28.6615
 11
288.5811
 21
26.6615
  0
ENDBLK
  0
BLOCK
  8
LAYER_4
  2
AIGNBL04010019
 70
64
 10
0
 20
0
 30
0
  3
AIGNBL04010019
  0
LINE
  8
LAYER_4
 10
298.5811
 20
26.6615
 11
300.5811
 21
26.6615
  0
LINE
  8
LAYER_4
 10
300.5811
 20
26.6615
 11
300.5811
 21
28.6615
  0
LINE
  8
LAYER_4
 10
300.5811
 20
28.6615
 11
298.5811
 21
28.6615
  0
LINE
  8
LAYER_4
 10
298.5811
 20
28.6615
 11
298.5811
 21
26.6615
  0
ENDBLK
  0
BLOCK
  8
LAYER_4
  2
AIGNBL0401001A
 70
64
 10
0
 20
0
 30
0
  3
AIGNBL0401001A
  0
LINE
  8
LAYER_4
 10
308.5811
 20
26.6615
 11
310.5811
 21
26.6615
  0
LINE
  8
LAYER_4
 10
310.5811
 20
26.6615
 11
310.5811
 21
28.6615
  0
LINE
  8
LAYER_4
 10
310.5811
 20
28.6615
 11
308.5811
 21
28.6615
  0
LINE
  8
LAYER_4
 10
308.5811
 20
28.6615
 11
308.5811
 21
26.6615
  0
ENDBLK
  0
BLOCK
  8
LAYER_4
  2
AIGNBL0401001B
 70
64
 10
0
 20
0
 30
0
  3
AIGNBL0401001B
  0
LINE
  8
LAYER_4
 10
318.5811
 20
26.6615
 11
320.5811
 21
26.6615
  0
LINE
  8
LAYER_4
 10
320.5811
 20
26.6615
 11
320.5811
 21
28.6615
  0
LINE
  8
LAYER_4
 10
320.5811
 20
28.6615
 11
318.5811
 21
28.6615
  0
LINE
  8
LAYER_4
 10
318.5811
 20
28.6615
 11
318.5811
 21
26.6615
  0
ENDBLK
  0
BLOCK
  8
LAYER_4
  2
AIGNBL0401001C
 70
64
 10
0
 20
0
 30
0
  3
AIGNBL0401001C
  0
ARC
  8
LAYER_4
 10
284.5811
 20
33.1615
 40
3
 50
90.0001518
 51
179.9998482
  0
ARC
  8
LAYER_4
 10
284.5811
 20
33.1615
 40
3
 50
359.9998736
 51
90.00012635
  0
ARC
  8
LAYER_4
 10
284.5811
 20
33.1615
 40
3
 50
269.9998482
 51
0.0001517852484
  0
ARC
  8
LAYER_4
 10
284.5811
 20
33.1615
 40
3
 50
180.0001264
 51
269.9998736
  0
ENDBLK
  0
BLOCK
  8
LAYER_4
  2
AIGNBL0401001D
 70
64
 10
0
 20
0
 30
0
  3
AIGNBL0401001D
  0
ENDBLK
  0
BLOCK
  8
LAYER_4
  2
AIGNBL0401001E
 70
64
 10
0
 20
0
 30
0
  3
AIGNBL0401001E
  0
LINE
  8
LAYER_4
 10
288.5811
 20
37.1615
 11
280.5811
 21
37.1615
  0
LINE
  8
LAYER_4
 10
280.5811
 20
37.1615
 11
280.5811
 21
29.1615
  0
LINE
  8
LAYER_4
 10
280.5811
 20
29.1615
 11
288.5811
 21
29.1615
  0
LINE
  8
LAYER_4
 10
288.5811
 20
29.1615
 11
288.5811
 21
37.1615
  0
ENDBLK
  0
BLOCK
  8
LAYER_4
  2
AIGNBL0401001F
 70
64
 10
0
 20
0
 30
0
  3
AIGNBL0401001F
  0
LINE
  8
LAYER_4
 10
285.0811
 20
33.6615
 11
285.0811
 21
34.6615
  0
LINE
  8
LAYER_4
 10
285.0811
 20
34.6615
 11
284.0811
 21
34.6615
  0
LINE
  8
LAYER_4
 10
284.0811
 20
34.6615
 11
284.0811
 21
33.6615
  0
ENDBLK
  0
BLOCK
  8
LAYER_4
  2
AIGNBL04010020
 70
64
 10
0
 20
0
 30
0
  3
AIGNBL04010020
  0
LINE
  8
LAYER_4
 10
284.0811
 20
32.6615
 11
284.0811
 21
31.6615
  0
LINE
  8
LAYER_4
 10
284.0811
 20
31.6615
 11
285.0811
 21
31.6615
  0
LINE
  8
LAYER_4
 10
285.0811
 20
31.6615
 11
285.0811
 21
32.6615
  0
ENDBLK
  0
BLOCK
  8
LAYER_4
  2
AIGNBL04010021
 70
64
 10
0
 20
0
 30
0
  3
AIGNBL04010021
  0
LINE
  8
LAYER_4
 10
285.0811
 20
33.6615
 11
286.0811
 21
33.6615
  0
LINE
  8
LAYER_4
 10
286.0811
 20
33.6615
 11
286.0811
 21
32.6615
  0
LINE
  8
LAYER_4
 10
286.0811
 20
32.6615
 11
285.0811
 21
32.6615
  0
ENDBLK
  0
BLOCK
  8
LAYER_4
  2
AIGNBL04010022
 70
64
 10
0
 20
0
 30
0
  3
AIGNBL04010022
  0
LINE
  8
LAYER_4
 10
284.0811
 20
32.6615
 11
283.0811
 21
32.6615
  0
LINE
  8
LAYER_4
 10
283.0811
 20
32.6615
 11
283.0811
 21
33.6615
  0
LINE
  8
LAYER_4
 10
283.0811
 20
33.6615
 11
284.0811
 21
33.6615
  0
ENDBLK
  0
BLOCK
  8
LAYER_4
  2
AIGNBL04010023
 70
64
 10
0
 20
0
 30
0
  3
AIGNBL04010023
  0
ARC
  8
LAYER_4
 10
294.5811
 20
33.1615
 40
3
 50
90.00015182
 51
179.9998481
  0
ARC
  8
LAYER_4
 10
294.5811
 20
33.1615
 40
3
 50
359.9998736
 51
90.00012637
  0
ARC
  8
LAYER_4
 10
294.5811
 20
33.1615
 40
3
 50
269.9998482
 51
0.0001518091192
  0
ARC
  8
LAYER_4
 10
294.5811
 20
33.1615
 40
3
 50
180.0001264
 51
269.9998736
  0
ENDBLK
  0
BLOCK
  8
LAYER_4
  2
AIGNBL04010024
 70
64
 10
0
 20
0
 30
0
  3
AIGNBL04010024
  0
LINE
  8
LAYER_4
 10
298.5811
 20
37.1615
 11
290.5811
 21
37.1615
  0
LINE
  8
LAYER_4
 10
290.5811
 20
37.1615
 11
290.5811
 21
29.1615
  0
LINE
  8
LAYER_4
 10
290.5811
 20
29.1615
 11
298.5811
 21
29.1615
  0
LINE
  8
LAYER_4
 10
298.5811
 20
29.1615
 11
298.5811
 21
37.1615
  0
ENDBLK
  0
BLOCK
  8
LAYER_4
  2
AIGNBL04010025
 70
64
 10
0
 20
0
 30
0
  3
AIGNBL04010025
  0
LINE
  8
LAYER_4
 10
295.0811
 20
33.6615
 11
295.0811
 21
34.6615
  0
LINE
  8
LAYER_4
 10
295.0811
 20
34.6615
 11
294.0811
 21
34.6615
  0
LINE
  8
LAYER_4
 10
294.0811
 20
34.6615
 11
294.0811
 21
33.6615
  0
ENDBLK
  0
BLOCK
  8
LAYER_4
  2
AIGNBL04010026
 70
64
 10
0
 20
0
 30
0
  3
AIGNBL04010026
  0
LINE
  8
LAYER_4
 10
294.0811
 20
32.6615
 11
294.0811
 21
31.6615
  0
LINE
  8
LAYER_4
 10
294.0811
 20
31.6615
 11
295.0811
 21
31.6615
  0
LINE
  8
LAYER_4
 10
295.0811
 20
31.6615
 11
295.0811
 21
32.6615
  0
ENDBLK
  0
BLOCK
  8
LAYER_4
  2
AIGNBL04010027
 70
64
 10
0
 20
0
 30
0
  3
AIGNBL04010027
  0
LINE
  8
LAYER_4
 10
295.0811
 20
33.6615
 11
296.0811
 21
33.6615
  0
LINE
  8
LAYER_4
 10
296.0811
 20
33.6615
 11
296.0811
 21
32.6615
  0
LINE
  8
LAYER_4
 10
296.0811
 20
32.6615
 11
295.0811
 21
32.6615
  0
ENDBLK
  0
BLOCK
  8
LAYER_4
  2
AIGNBL04010028
 70
64
 10
0
 20
0
 30
0
  3
AIGNBL04010028
  0
LINE
  8
LAYER_4
 10
294.0811
 20
32.6615
 11
293.0811
 21
32.6615
  0
LINE
  8
LAYER_4
 10
293.0811
 20
32.6615
 11
293.0811
 21
33.6615
  0
LINE
  8
LAYER_4
 10
293.0811
 20
33.6615
 11
294.0811
 21
33.6615
  0
ENDBLK
  0
BLOCK
  8
LAYER_4
  2
AIGNBL04010029
 70
64
 10
0
 20
0
 30
0
  3
AIGNBL04010029
  0
ARC
  8
LAYER_4
 10
304.5811
 20
33.1615
 40
3
 50
90.00015184
 51
179.9998481
  0
ARC
  8
LAYER_4
 10
304.5811
 20
33.1615
 40
3
 50
359.9998736
 51
90.0001264
  0
ARC
  8
LAYER_4
 10
304.5811
 20
33.1615
 40
3
 50
269.9998482
 51
0.0001518329957
  0
ARC
  8
LAYER_4
 10
304.5811
 20
33.1615
 40
3
 50
180.0001264
 51
269.9998736
  0
ENDBLK
  0
BLOCK
  8
LAYER_4
  2
AIGNBL0401002A
 70
64
 10
0
 20
0
 30
0
  3
AIGNBL0401002A
  0
LINE
  8
LAYER_4
 10
308.5811
 20
37.1615
 11
300.5811
 21
37.1615
  0
LINE
  8
LAYER_4
 10
300.5811
 20
37.1615
 11
300.5811
 21
29.1615
  0
LINE
  8
LAYER_4
 10
300.5811
 20
29.1615
 11
308.5811
 21
29.1615
  0
LINE
  8
LAYER_4
 10
308.5811
 20
29.1615
 11
308.5811
 21
37.1615
  0
ENDBLK
  0
BLOCK
  8
LAYER_4
  2
AIGNBL0401002B
 70
64
 10
0
 20
0
 30
0
  3
AIGNBL0401002B
  0
ARC
  8
LAYER_4
 10
314.5811
 20
33.1615
 40
3
 50
90.00015187
 51
179.9998481
  0
ARC
  8
LAYER_4
 10
314.5811
 20
33.1615
 40
3
 50
359.9998736
 51
90.00012642
  0
ARC
  8
LAYER_4
 10
314.5811
 20
33.1615
 40
3
 50
269.9998482
 51
0.0001518568599
  0
ARC
  8
LAYER_4
 10
314.5811
 20
33.1615
 40
3
 50
180.0001265
 51
269.9998736
  0
ENDBLK
  0
BLOCK
  8
LAYER_4
  2
AIGNBL0401002C
 70
64
 10
0
 20
0
 30
0
  3
AIGNBL0401002C
  0
LINE
  8
LAYER_4
 10
318.5811
 20
37.1615
 11
310.5811
 21
37.1615
  0
LINE
  8
LAYER_4
 10
310.5811
 20
37.1615
 11
310.5811
 21
29.1615
  0
LINE
  8
LAYER_4
 10
310.5811
 20
29.1615
 11
318.5811
 21
29.1615
  0
LINE
  8
LAYER_4
 10
318.5811
 20
29.1615
 11
318.5811
 21
37.1615
  0
ENDBLK
  0
BLOCK
  8
LAYER_4
  2
AIGNBL0401002D
 70
64
 10
0
 20
0
 30
0
  3
AIGNBL0401002D
  0
LINE
  8
LAYER_4
 10
315.0811
 20
33.6615
 11
315.0811
 21
34.6615
  0
LINE
  8
LAYER_4
 10
315.0811
 20
34.6615
 11
314.0811
 21
34.6615
  0
LINE
  8
LAYER_4
 10
314.0811
 20
34.6615
 11
314.0811
 21
33.6615
  0
ENDBLK
  0
BLOCK
  8
LAYER_4
  2
AIGNBL0401002E
 70
64
 10
0
 20
0
 30
0
  3
AIGNBL0401002E
  0
LINE
  8
LAYER_4
 10
314.0811
 20
32.6615
 11
314.0811
 21
31.6615
  0
LINE
  8
LAYER_4
 10
314.0811
 20
31.6615
 11
315.0811
 21
31.6615
  0
LINE
  8
LAYER_4
 10
315.0811
 20
31.6615
 11
315.0811
 21
32.6615
  0
ENDBLK
  0
BLOCK
  8
LAYER_4
  2
AIGNBL0401002F
 70
64
 10
0
 20
0
 30
0
  3
AIGNBL0401002F
  0
LINE
  8
LAYER_4
 10
315.0811
 20
33.6615
 11
316.0811
 21
33.6615
  0
LINE
  8
LAYER_4
 10
316.0811
 20
33.6615
 11
316.0811
 21
32.6615
  0
LINE
  8
LAYER_4
 10
316.0811
 20
32.6615
 11
315.0811
 21
32.6615
  0
ENDBLK
  0
BLOCK
  8
LAYER_4
  2
AIGNBL04010030
 70
64
 10
0
 20
0
 30
0
  3
AIGNBL04010030
  0
LINE
  8
LAYER_4
 10
314.0811
 20
32.6615
 11
313.0811
 21
32.6615
  0
LINE
  8
LAYER_4
 10
313.0811
 20
32.6615
 11
313.0811
 21
33.6615
  0
LINE
  8
LAYER_4
 10
313.0811
 20
33.6615
 11
314.0811
 21
33.6615
  0
ENDBLK
  0
BLOCK
  8
LAYER_4
  2
AIGNBL04010031
 70
64
 10
0
 20
0
 30
0
  3
AIGNBL04010031
  0
LINE
  8
LAYER_4
 10
361.1767
 20
101.6615
 11
391.1767
 21
101.6615
  0
LINE
  8
LAYER_4
 10
391.1767
 20
101.6615
 11
391.1767
 21
26.6615
  0
LINE
  8
LAYER_4
 10
391.1767
 20
26.6615
 11
361.1767
 21
26.6615
  0
LINE
  8
LAYER_4
 10
361.1767
 20
26.6615
 11
361.1767
 21
101.6615
  0
ENDBLK
  0
BLOCK
  8
LAYER_4
  2
AIGNBL04010032
 70
64
 10
0
 20
0
 30
0
  3
AIGNBL04010032
  0
LINE
  8
LAYER_4
 10
400.1767
 20
99.1615
 11
400.1767
 21
84.6615
  0
ENDBLK
  0
BLOCK
  8
LAYER_4
  2
AIGNBL04010033
 70
64
 10
0
 20
0
 30
0
  3
AIGNBL04010033
  0
LINE
  8
LAYER_4
 10
400.1767
 20
29.1615
 11
400.1767
 21
43.6615
  0
ENDBLK
  0
BLOCK
  8
LAYER_4
  2
AIGNBL04010034
 70
64
 10
0
 20
0
 30
0
  3
AIGNBL04010034
  0
LINE
  8
LAYER_4
 10
397.3767
 20
81.7615
 11
399.7767
 21
81.7615
  0
ENDBLK
  0
BLOCK
  8
LAYER_4
  2
AIGNBL04010035
 70
64
 10
0
 20
0
 30
0
  3
AIGNBL04010035
  0
LINE
  8
LAYER_4
 10
399.7767
 20
81.7615
 11
400.1767
 21
84.6615
  0
ENDBLK
  0
BLOCK
  8
LAYER_4
  2
AIGNBL04010036
 70
64
 10
0
 20
0
 30
0
  3
AIGNBL04010036
  0
LINE
  8
LAYER_4
 10
400.1767
 20
29.1615
 11
400.1767
 21
43.6615
  0
ENDBLK
  0
BLOCK
  8
LAYER_4
  2
AIGNBL04010037
 70
64
 10
0
 20
0
 30
0
  3
AIGNBL04010037
  0
LINE
  8
LAYER_4
 10
397.3767
 20
81.7615
 11
397.3767
 21
46.7615
  0
ENDBLK
  0
BLOCK
  8
LAYER_4
  2
AIGNBL04010038
 70
64
 10
0
 20
0
 30
0
  3
AIGNBL04010038
  0
LINE
  8
LAYER_4
 10
397.3767
 20
46.7615
 11
400.1767
 21
43.6615
  0
ENDBLK
  0
BLOCK
  8
LAYER_4
  2
AIGNBL04010039
 70
64
 10
0
 20
0
 30
0
  3
AIGNBL04010039
  0
LINE
  8
LAYER_4
 10
400.1767
 20
99.1615
 11
391.1767
 21
99.1615
  0
ENDBLK
  0
BLOCK
  8
LAYER_4
  2
AIGNBL0401003A
 70
64
 10
0
 20
0
 30
0
  3
AIGNBL0401003A
  0
LINE
  8
LAYER_4
 10
400.1767
 20
29.1615
 11
391.1972
 21
29.1615
  0
ENDBLK
  0
ENDSEC
  0
SECTION
  2
ENTITIES
  0
INSERT
  8
LAYER_1
  2
AIGNBL01010002
 10
0
 20
0
 30
0
  0
TEXT
  8
LAYER_1
 10
348.9088
 20
-30.5741
 11
348.9088
 21
-30.5741
 40
3.1044
 41
0.5
 72
1
  1
品名
  0
TEXT
  8
LAYER_1
 10
348.9088
 20
-35.2308
 11
348.9088
 21
-35.2308
 40
3.1044
 41
0.5
 72
1
  1
PRODUCT
  0
TEXT
  8
LAYER_1
 10
414.219
 20
-30.5741
 11
414.219
 21
-30.5741
 40
3.1044
 41
0.5
 72
1
  1
型式
  0
TEXT
  8
LAYER_1
 10
414.219
 20
-35.2308
 11
414.219
 21
-35.2308
 40
3.1044
 41
0.5
 72
1
  1
TYPE
  0
TEXT
  8
LAYER_1
 10
414.219
 20
-40.4516
 11
414.219
 21
-40.4516
 40
3.1044
 41
0.5
 72
1
  1
単位
  0
TEXT
  8
LAYER_1
 10
414.219
 20
-45.1084
 11
414.219
 21
-45.1084
 40
3.1044
 41
0.5
 72
1
  1
UNIT
  0
TEXT
  8
LAYER_1
 10
414.219
 20
-60.5799
 11
414.219
 21
-60.5799
 40
3.4815
 41
0.5
 72
1
  1
設計
  0
TEXT
  8
LAYER_1
 10
414.2191
 20
-65.802
 11
414.2191
 21
-65.802
 40
3.4815
 41
0.5
 72
1
  1
DESIGNED
  0
TEXT
  8
LAYER_1
 10
349.219
 20
-40.4517
 11
349.219
 21
-40.4517
 40
3.1044
 41
0.5
 72
1
  1
寸法
  0
TEXT
  8
LAYER_1
 10
349.219
 20
-45.1085
 11
349.219
 21
-45.1085
 40
3.1044
 41
0.5
 72
1
  1
SIZE
  0
TEXT
  8
LAYER_1
 10
349.219
 20
-60.5801
 11
349.219
 21
-60.5801
 40
3.1044
 41
0.5
 72
1
  1
材質
  0
TEXT
  8
LAYER_1
 10
349.219
 20
-65.2368
 11
349.219
 21
-65.2368
 40
3.1044
 41
0.5
 72
1
  1
MATERIAL
  0
TEXT
  8
LAYER_1
 10
349.7268
 20
-50.452
 11
349.7268
 21
-50.452
 40
3.1044
 41
0.5
 72
1
  1
ネジ
  0
TEXT
  8
LAYER_1
 10
349.219
 20
-55.1087
 11
349.219
 21
-55.1087
 40
3.1044
 41
0.5
 72
1
  1
SCREW
  0
TEXT
  8
LAYER_1
 10
413.9088
 20
-50.4519
 11
413.9088
 21
-50.4519
 40
3.1044
 41
0.5
 72
1
  1
日付
  0
TEXT
  8
LAYER_1
 10
413.9088
 20
-55.1086
 11
413.9088
 21
-55.1086
 40
3.1044
 41
0.5
 72
1
  1
DATE
  0
TEXT
  8
LAYER_1
 10
380.3575
 20
-43.2231
 11
380.3575
 21
-43.2231
 40
3.6689
 41
0.5
 72
1
  1
W50×H75×D39
  0
TEXT
  8
LAYER_1
 10
446.7193
 20
-43.2231
 11
446.7193
 21
-43.2231
 40
3.6689
 41
0.5
 72
1
  1
mm
  0
TEXT
  8
LAYER_1
 10
446.719
 20
-33.2231
 11
446.719
 21
-33.2231
 40
3.6689
 41
0.5
 72
1
  1
NR-TELM
  0
TEXT
  8
LAYER_1
 10
446.7193
 20
-53.2231
 11
446.7193
 21
-53.2231
 40
3.6689
 41
0.5
 72
1
  1
2017.07.24
  0
TEXT
  8
LAYER_1
 10
446.719
 20
-63.2231
 11
446.719
 21
-63.2231
 40
3.6689
 41
0.5
 72
1
  1
戸森 幹二
  0
TEXT
  8
LAYER_1
 10
381.7193
 20
-63.2231
 11
381.7193
 21
-63.2231
 40
3.6689
 41
0.5
 72
1
  1
ABS 黒
  0
TEXT
  8
LAYER_1
 10
381.7193
 20
-30.8515
 11
381.7193
 21
-30.8515
 40
3.1044
 41
0.5
 72
1
  1
電話回線用
  0
TEXT
  8
LAYER_1
 10
383.5683
 20
-35.5083
 11
383.5683
 21
-35.5083
 40
3.1044
 41
0.5
 72
1
  1
モリブデン避雷器
  0
TEXT
  8
LAYER_1
 10
383.9476
 20
-50.8515
 11
383.9476
 21
-50.8515
 40
3.1044
 41
0.5
 72
1
  1
黄銅 ニッケルメッキ
  0
TEXT
  8
LAYER_1
 10
381.7193
 20
-55.5083
 11
381.7193
 21
-55.5083
 40
3.1044
 41
0.5
 72
1
  1
M3.5
  0
INSERT
  8
LAYER_1
  2
AIGNBL01010003
 10
0
 20
0
 30
0
  0
INSERT
  8
LAYER_1
  2
AIGNBL0101000A
 10
0
 20
0
 30
0
  0
INSERT
  8
LAYER_2
  2
AIGNBL02010002
 10
0
 20
0
 30
0
  0
INSERT
  8
LAYER_2
  2
AIGNBL02010003
 10
0
 20
0
 30
0
  0
INSERT
  8
LAYER_2
  2
AIGNBL02010004
 10
0
 20
0
 30
0
  0
INSERT
  8
LAYER_2
  2
AIGNBL02010005
 10
0
 20
0
 30
0
  0
INSERT
  8
LAYER_2
  2
AIGNBL02010006
 10
0
 20
0
 30
0
  0
INSERT
  8
LAYER_2
  2
AIGNBL02010007
 10
0
 20
0
 30
0
  0
INSERT
  8
LAYER_2
  2
AIGNBL02010008
 10
0
 20
0
 30
0
  0
INSERT
  8
LAYER_2
  2
AIGNBL02010009
 10
0
 20
0
 30
0
  0
INSERT
  8
LAYER_2
  2
AIGNBL0201000A
 10
0
 20
0
 30
0
  0
INSERT
  8
LAYER_2
  2
AIGNBL0201000B
 10
0
 20
0
 30
0
  0
INSERT
  8
LAYER_2
  2
AIGNBL0201000C
 10
0
 20
0
 30
0
  0
INSERT
  8
LAYER_2
  2
AIGNBL0201000D
 10
0
 20
0
 30
0
  0
INSERT
  8
LAYER_2
  2
AIGNBL0201000E
 10
0
 20
0
 30
0
  0
INSERT
  8
LAYER_2
  2
AIGNBL0201000F
 10
0
 20
0
 30
0
  0
INSERT
  8
LAYER_2
  2
AIGNBL02010010
 10
0
 20
0
 30
0
  0
INSERT
  8
LAYER_2
  2
AIGNBL02010011
 10
0
 20
0
 30
0
  0
INSERT
  8
LAYER_2
  2
AIGNBL02010012
 10
0
 20
0
 30
0
  0
INSERT
  8
LAYER_2
  2
AIGNBL02010013
 10
0
 20
0
 30
0
  0
INSERT
  8
LAYER_2
  2
AIGNBL02010014
 10
0
 20
0
 30
0
  0
INSERT
  8
LAYER_2
  2
AIGNBL02010015
 10
0
 20
0
 30
0
  0
INSERT
  8
LAYER_2
  2
AIGNBL02010016
 10
0
 20
0
 30
0
  0
INSERT
  8
LAYER_2
  2
AIGNBL02010017
 10
0
 20
0
 30
0
  0
INSERT
  8
LAYER_2
  2
AIGNBL02010018
 10
0
 20
0
 30
0
  0
INSERT
  8
LAYER_2
  2
AIGNBL02010019
 10
0
 20
0
 30
0
  0
INSERT
  8
LAYER_2
  2
AIGNBL0201001A
 10
0
 20
0
 30
0
  0
INSERT
  8
LAYER_2
  2
AIGNBL0201001B
 10
0
 20
0
 30
0
  0
INSERT
  8
LAYER_2
  2
AIGNBL0201001C
 10
0
 20
0
 30
0
  0
INSERT
  8
LAYER_2
  2
AIGNBL0201001D
 10
0
 20
0
 30
0
  0
INSERT
  8
LAYER_2
  2
AIGNBL0201001E
 10
0
 20
0
 30
0
  0
INSERT
  8
LAYER_2
  2
AIGNBL0201001F
 10
0
 20
0
 30
0
  0
INSERT
  8
LAYER_2
  2
AIGNBL02010020
 10
0
 20
0
 30
0
  0
INSERT
  8
LAYER_2
  2
AIGNBL02010021
 10
0
 20
0
 30
0
  0
INSERT
  8
LAYER_2
  2
AIGNBL02010022
 10
0
 20
0
 30
0
  0
INSERT
  8
LAYER_2
  2
AIGNBL02010023
 10
0
 20
0
 30
0
  0
INSERT
  8
LAYER_2
  2
AIGNBL02010024
 10
0
 20
0
 30
0
  0
INSERT
  8
LAYER_2
  2
AIGNBL02010025
 10
0
 20
0
 30
0
  0
INSERT
  8
LAYER_2
  2
AIGNBL02010026
 10
0
 20
0
 30
0
  0
INSERT
  8
LAYER_2
  2
AIGNBL02010027
 10
0
 20
0
 30
0
  0
INSERT
  8
LAYER_2
  2
AIGNBL02010028
 10
0
 20
0
 30
0
  0
INSERT
  8
LAYER_2
  2
AIGNBL02010029
 10
0
 20
0
 30
0
  0
INSERT
  8
LAYER_2
  2
AIGNBL0201002A
 10
0
 20
0
 30
0
  0
INSERT
  8
LAYER_2
  2
AIGNBL0201002B
 10
0
 20
0
 30
0
  0
INSERT
  8
LAYER_2
  2
AIGNBL0201002C
 10
0
 20
0
 30
0
  0
INSERT
  8
LAYER_2
  2
AIGNBL0201002D
 10
0
 20
0
 30
0
  0
INSERT
  8
LAYER_2
  2
AIGNBL0201002E
 10
0
 20
0
 30
0
  0
INSERT
  8
LAYER_2
  2
AIGNBL0201002F
 10
0
 20
0
 30
0
  0
INSERT
  8
LAYER_2
  2
AIGNBL02010030
 10
0
 20
0
 30
0
  0
INSERT
  8
LAYER_2
  2
AIGNBL02010031
 10
0
 20
0
 30
0
  0
INSERT
  8
LAYER_2
  2
AIGNBL02010032
 10
0
 20
0
 30
0
  0
INSERT
  8
LAYER_2
  2
AIGNBL02010033
 10
0
 20
0
 30
0
  0
INSERT
  8
LAYER_2
  2
AIGNBL02010034
 10
0
 20
0
 30
0
  0
INSERT
  8
LAYER_2
  2
AIGNBL02010035
 10
0
 20
0
 30
0
  0
INSERT
  8
LAYER_2
  2
AIGNBL02010036
 10
0
 20
0
 30
0
  0
INSERT
  8
LAYER_2
  2
AIGNBL02010037
 10
0
 20
0
 30
0
  0
INSERT
  8
LAYER_2
  2
AIGNBL02010038
 10
0
 20
0
 30
0
  0
INSERT
  8
LAYER_2
  2
AIGNBL02010039
 10
0
 20
0
 30
0
  0
INSERT
  8
LAYER_2
  2
AIGNBL0201003A
 10
0
 20
0
 30
0
  0
INSERT
  8
LAYER_2
  2
AIGNBL0201003B
 10
0
 20
0
 30
0
  0
INSERT
  8
LAYER_2
  2
AIGNBL0201003C
 10
0
 20
0
 30
0
  0
INSERT
  8
LAYER_2
  2
AIGNBL0201003D
 10
0
 20
0
 30
0
  0
INSERT
  8
LAYER_2
  2
AIGNBL0201003E
 10
0
 20
0
 30
0
  0
INSERT
  8
LAYER_2
  2
AIGNBL0201003F
 10
0
 20
0
 30
0
  0
INSERT
  8
LAYER_2
  2
AIGNBL02010040
 10
0
 20
0
 30
0
  0
INSERT
  8
LAYER_2
  2
AIGNBL02010041
 10
0
 20
0
 30
0
  0
INSERT
  8
LAYER_2
  2
AIGNBL02010042
 10
0
 20
0
 30
0
  0
INSERT
  8
LAYER_2
  2
AIGNBL02010043
 10
0
 20
0
 30
0
  0
INSERT
  8
LAYER_2
  2
AIGNBL02010044
 10
0
 20
0
 30
0
  0
INSERT
  8
LAYER_2
  2
AIGNBL02010045
 10
0
 20
0
 30
0
  0
INSERT
  8
LAYER_2
  2
AIGNBL02010046
 10
0
 20
0
 30
0
  0
INSERT
  8
LAYER_2
  2
AIGNBL02010047
 10
0
 20
0
 30
0
  0
INSERT
  8
LAYER_2
  2
AIGNBL02010048
 10
0
 20
0
 30
0
  0
INSERT
  8
LAYER_2
  2
AIGNBL02010049
 10
0
 20
0
 30
0
  0
INSERT
  8
LAYER_2
  2
AIGNBL0201004A
 10
0
 20
0
 30
0
  0
INSERT
  8
LAYER_2
  2
AIGNBL0201004B
 10
0
 20
0
 30
0
  0
INSERT
  8
LAYER_2
  2
AIGNBL0201004C
 10
0
 20
0
 30
0
  0
INSERT
  8
LAYER_2
  2
AIGNBL0201004D
 10
0
 20
0
 30
0
  0
INSERT
  8
LAYER_2
  2
AIGNBL0201004E
 10
0
 20
0
 30
0
  0
INSERT
  8
LAYER_2
  2
AIGNBL0201004F
 10
0
 20
0
 30
0
  0
INSERT
  8
LAYER_2
  2
AIGNBL02010050
 10
0
 20
0
 30
0
  0
INSERT
  8
LAYER_2
  2
AIGNBL02010051
 10
0
 20
0
 30
0
  0
INSERT
  8
LAYER_2
  2
AIGNBL02010052
 10
0
 20
0
 30
0
  0
INSERT
  8
LAYER_2
  2
AIGNBL02010053
 10
0
 20
0
 30
0
  0
INSERT
  8
LAYER_2
  2
AIGNBL02010054
 10
0
 20
0
 30
0
  0
INSERT
  8
LAYER_2
  2
AIGNBL02010055
 10
0
 20
0
 30
0
  0
INSERT
  8
LAYER_2
  2
AIGNBL02010056
 10
0
 20
0
 30
0
  0
INSERT
  8
LAYER_2
  2
AIGNBL02010057
 10
0
 20
0
 30
0
  0
INSERT
  8
LAYER_2
  2
AIGNBL02010058
 10
0
 20
0
 30
0
  0
INSERT
  8
LAYER_2
  2
AIGNBL02010059
 10
0
 20
0
 30
0
  0
INSERT
  8
LAYER_2
  2
AIGNBL0201005A
 10
0
 20
0
 30
0
  0
INSERT
  8
LAYER_2
  2
AIGNBL0201005B
 10
0
 20
0
 30
0
  0
INSERT
  8
LAYER_2
  2
AIGNBL0201005C
 10
0
 20
0
 30
0
  0
INSERT
  8
LAYER_2
  2
AIGNBL0201005D
 10
0
 20
0
 30
0
  0
INSERT
  8
LAYER_2
  2
AIGNBL0201005E
 10
0
 20
0
 30
0
  0
INSERT
  8
LAYER_2
  2
AIGNBL0201005F
 10
0
 20
0
 30
0
  0
INSERT
  8
LAYER_2
  2
AIGNBL02010060
 10
0
 20
0
 30
0
  0
INSERT
  8
LAYER_2
  2
AIGNBL02010061
 10
0
 20
0
 30
0
  0
INSERT
  8
LAYER_2
  2
AIGNBL02010062
 10
0
 20
0
 30
0
  0
INSERT
  8
LAYER_2
  2
AIGNBL02010063
 10
0
 20
0
 30
0
  0
INSERT
  8
LAYER_2
  2
AIGNBL02010064
 10
0
 20
0
 30
0
  0
INSERT
  8
LAYER_2
  2
AIGNBL02010065
 10
0
 20
0
 30
0
  0
INSERT
  8
LAYER_2
  2
AIGNBL02010066
 10
0
 20
0
 30
0
  0
INSERT
  8
LAYER_2
  2
AIGNBL02010067
 10
0
 20
0
 30
0
  0
INSERT
  8
LAYER_2
  2
AIGNBL02010068
 10
0
 20
0
 30
0
  0
INSERT
  8
LAYER_2
  2
AIGNBL02010069
 10
0
 20
0
 30
0
  0
INSERT
  8
LAYER_2
  2
AIGNBL0201006A
 10
0
 20
0
 30
0
  0
INSERT
  8
LAYER_2
  2
AIGNBL0201006B
 10
0
 20
0
 30
0
  0
INSERT
  8
LAYER_2
  2
AIGNBL0201006C
 10
0
 20
0
 30
0
  0
INSERT
  8
LAYER_2
  2
AIGNBL0201006D
 10
0
 20
0
 30
0
  0
INSERT
  8
LAYER_2
  2
AIGNBL0201006E
 10
0
 20
0
 30
0
  0
INSERT
  8
LAYER_2
  2
AIGNBL0201006F
 10
0
 20
0
 30
0
  0
INSERT
  8
LAYER_2
  2
AIGNBL02010070
 10
0
 20
0
 30
0
  0
INSERT
  8
LAYER_2
  2
AIGNBL02010071
 10
0
 20
0
 30
0
  0
INSERT
  8
LAYER_2
  2
AIGNBL02010072
 10
0
 20
0
 30
0
  0
INSERT
  8
LAYER_2
  2
AIGNBL02010073
 10
0
 20
0
 30
0
  0
INSERT
  8
LAYER_2
  2
AIGNBL02010074
 10
0
 20
0
 30
0
  0
INSERT
  8
LAYER_2
  2
AIGNBL02010075
 10
0
 20
0
 30
0
  0
INSERT
  8
LAYER_2
  2
AIGNBL02010076
 10
0
 20
0
 30
0
  0
INSERT
  8
LAYER_3
  2
AIGNBL03010002
 10
0
 20
0
 30
0
  0
INSERT
  8
LAYER_3
  2
AIGNBL03010003
 10
0
 20
0
 30
0
  0
INSERT
  8
LAYER_3
  2
AIGNBL03010004
 10
0
 20
0
 30
0
  0
INSERT
  8
LAYER_3
  2
AIGNBL03010005
 10
0
 20
0
 30
0
  0
INSERT
  8
LAYER_3
  2
AIGNBL03010006
 10
0
 20
0
 30
0
  0
INSERT
  8
LAYER_3
  2
AIGNBL03010007
 10
0
 20
0
 30
0
  0
INSERT
  8
LAYER_3
  2
AIGNBL03010008
 10
0
 20
0
 30
0
  0
INSERT
  8
LAYER_3
  2
AIGNBL03010009
 10
0
 20
0
 30
0
  0
INSERT
  8
LAYER_3
  2
AIGNBL0301000A
 10
0
 20
0
 30
0
  0
INSERT
  8
LAYER_3
  2
AIGNBL0301000B
 10
0
 20
0
 30
0
  0
INSERT
  8
LAYER_3
  2
AIGNBL0301000C
 10
0
 20
0
 30
0
  0
INSERT
  8
LAYER_3
  2
AIGNBL0301000D
 10
0
 20
0
 30
0
  0
INSERT
  8
LAYER_3
  2
AIGNBL0301000E
 10
0
 20
0
 30
0
  0
INSERT
  8
LAYER_3
  2
AIGNBL0301000F
 10
0
 20
0
 30
0
  0
INSERT
  8
LAYER_3
  2
AIGNBL03010010
 10
0
 20
0
 30
0
  0
INSERT
  8
LAYER_3
  2
AIGNBL03010011
 10
0
 20
0
 30
0
  0
INSERT
  8
LAYER_3
  2
AIGNBL03010012
 10
0
 20
0
 30
0
  0
INSERT
  8
LAYER_3
  2
AIGNBL03010013
 10
0
 20
0
 30
0
  0
INSERT
  8
LAYER_3
  2
AIGNBL03010014
 10
0
 20
0
 30
0
  0
INSERT
  8
LAYER_3
  2
AIGNBL03010015
 10
0
 20
0
 30
0
  0
INSERT
  8
LAYER_3
  2
AIGNBL03010016
 10
0
 20
0
 30
0
  0
INSERT
  8
LAYER_3
  2
AIGNBL03010017
 10
0
 20
0
 30
0
  0
INSERT
  8
LAYER_3
  2
AIGNBL03010018
 10
0
 20
0
 30
0
  0
INSERT
  8
LAYER_3
  2
AIGNBL03010019
 10
0
 20
0
 30
0
  0
INSERT
  8
LAYER_4
  2
AIGNBL04010002
 10
0
 20
0
 30
0
  0
INSERT
  8
LAYER_4
  2
AIGNBL04010003
 10
0
 20
0
 30
0
  0
INSERT
  8
LAYER_4
  2
AIGNBL04010004
 10
0
 20
0
 30
0
  0
INSERT
  8
LAYER_4
  2
AIGNBL04010005
 10
0
 20
0
 30
0
  0
INSERT
  8
LAYER_4
  2
AIGNBL04010006
 10
0
 20
0
 30
0
  0
INSERT
  8
LAYER_4
  2
AIGNBL04010007
 10
0
 20
0
 30
0
  0
INSERT
  8
LAYER_4
  2
AIGNBL04010008
 10
0
 20
0
 30
0
  0
INSERT
  8
LAYER_4
  2
AIGNBL04010009
 10
0
 20
0
 30
0
  0
INSERT
  8
LAYER_4
  2
AIGNBL0401000A
 10
0
 20
0
 30
0
  0
INSERT
  8
LAYER_4
  2
AIGNBL0401000B
 10
0
 20
0
 30
0
  0
INSERT
  8
LAYER_4
  2
AIGNBL0401000C
 10
0
 20
0
 30
0
  0
INSERT
  8
LAYER_4
  2
AIGNBL0401000D
 10
0
 20
0
 30
0
  0
INSERT
  8
LAYER_4
  2
AIGNBL0401000E
 10
0
 20
0
 30
0
  0
INSERT
  8
LAYER_4
  2
AIGNBL0401000F
 10
0
 20
0
 30
0
  0
INSERT
  8
LAYER_4
  2
AIGNBL04010010
 10
0
 20
0
 30
0
  0
INSERT
  8
LAYER_4
  2
AIGNBL04010011
 10
0
 20
0
 30
0
  0
INSERT
  8
LAYER_4
  2
AIGNBL04010012
 10
0
 20
0
 30
0
  0
INSERT
  8
LAYER_4
  2
AIGNBL04010013
 10
0
 20
0
 30
0
  0
INSERT
  8
LAYER_4
  2
AIGNBL04010014
 10
0
 20
0
 30
0
  0
INSERT
  8
LAYER_4
  2
AIGNBL04010015
 10
0
 20
0
 30
0
  0
INSERT
  8
LAYER_4
  2
AIGNBL04010016
 10
0
 20
0
 30
0
  0
INSERT
  8
LAYER_4
  2
AIGNBL04010017
 10
0
 20
0
 30
0
  0
INSERT
  8
LAYER_4
  2
AIGNBL04010018
 10
0
 20
0
 30
0
  0
INSERT
  8
LAYER_4
  2
AIGNBL04010019
 10
0
 20
0
 30
0
  0
INSERT
  8
LAYER_4
  2
AIGNBL0401001A
 10
0
 20
0
 30
0
  0
INSERT
  8
LAYER_4
  2
AIGNBL0401001B
 10
0
 20
0
 30
0
  0
INSERT
  8
LAYER_4
  2
AIGNBL0401001C
 10
0
 20
0
 30
0
  0
INSERT
  8
LAYER_4
  2
AIGNBL0401001D
 10
0
 20
0
 30
0
  0
INSERT
  8
LAYER_4
  2
AIGNBL0401001E
 10
0
 20
0
 30
0
  0
INSERT
  8
LAYER_4
  2
AIGNBL0401001F
 10
0
 20
0
 30
0
  0
INSERT
  8
LAYER_4
  2
AIGNBL04010020
 10
0
 20
0
 30
0
  0
INSERT
  8
LAYER_4
  2
AIGNBL04010021
 10
0
 20
0
 30
0
  0
INSERT
  8
LAYER_4
  2
AIGNBL04010022
 10
0
 20
0
 30
0
  0
INSERT
  8
LAYER_4
  2
AIGNBL04010023
 10
0
 20
0
 30
0
  0
INSERT
  8
LAYER_4
  2
AIGNBL04010024
 10
0
 20
0
 30
0
  0
INSERT
  8
LAYER_4
  2
AIGNBL04010025
 10
0
 20
0
 30
0
  0
INSERT
  8
LAYER_4
  2
AIGNBL04010026
 10
0
 20
0
 30
0
  0
INSERT
  8
LAYER_4
  2
AIGNBL04010027
 10
0
 20
0
 30
0
  0
INSERT
  8
LAYER_4
  2
AIGNBL04010028
 10
0
 20
0
 30
0
  0
INSERT
  8
LAYER_4
  2
AIGNBL04010029
 10
0
 20
0
 30
0
  0
INSERT
  8
LAYER_4
  2
AIGNBL0401002A
 10
0
 20
0
 30
0
  0
INSERT
  8
LAYER_4
  2
AIGNBL0401002B
 10
0
 20
0
 30
0
  0
INSERT
  8
LAYER_4
  2
AIGNBL0401002C
 10
0
 20
0
 30
0
  0
INSERT
  8
LAYER_4
  2
AIGNBL0401002D
 10
0
 20
0
 30
0
  0
INSERT
  8
LAYER_4
  2
AIGNBL0401002E
 10
0
 20
0
 30
0
  0
INSERT
  8
LAYER_4
  2
AIGNBL0401002F
 10
0
 20
0
 30
0
  0
INSERT
  8
LAYER_4
  2
AIGNBL04010030
 10
0
 20
0
 30
0
  0
INSERT
  8
LAYER_4
  2
AIGNBL04010031
 10
0
 20
0
 30
0
  0
INSERT
  8
LAYER_4
  2
AIGNBL04010032
 10
0
 20
0
 30
0
  0
INSERT
  8
LAYER_4
  2
AIGNBL04010033
 10
0
 20
0
 30
0
  0
INSERT
  8
LAYER_4
  2
AIGNBL04010034
 10
0
 20
0
 30
0
  0
INSERT
  8
LAYER_4
  2
AIGNBL04010035
 10
0
 20
0
 30
0
  0
INSERT
  8
LAYER_4
  2
AIGNBL04010036
 10
0
 20
0
 30
0
  0
INSERT
  8
LAYER_4
  2
AIGNBL04010037
 10
0
 20
0
 30
0
  0
INSERT
  8
LAYER_4
  2
AIGNBL04010038
 10
0
 20
0
 30
0
  0
INSERT
  8
LAYER_4
  2
AIGNBL04010039
 10
0
 20
0
 30
0
  0
INSERT
  8
LAYER_4
  2
AIGNBL0401003A
 10
0
 20
0
 30
0
  0
ENDSEC
  0
EOF
