  0
SECTION
  2
HEADER
  9
$ACADVER
  1
AC1009
  9
$LUNITS
 70
2
  9
$LUPREC
 70
4
  9
$LTSCALE
 40
1.0
  9
$EXTMIN
 10
124.874
 20
-66.6014
 30
0
  9
$EXTMAX
 10
469.2192
 20
169.592
 30
0
  0
ENDSEC
  0
SECTION
  2
TABLES
  0
TABLE
  2
LTYPE
 70
256
  0
ENDTAB
  0
TABLE
  2
LAYER
 70
4
  0
LAYER
  2
LAYER_1
 70
64
 62
7
  6
CONTINUOUS
  0
LAYER
  2
LAYER_2
 70
64
 62
7
  6
CONTINUOUS
  0
LAYER
  2
LAYER_3
 70
64
 62
7
  6
CONTINUOUS
  0
LAYER
  2
LAYER_4
 70
64
 62
7
  6
CONTINUOUS
  0
ENDTAB
  0
TABLE
  2
STYLE
 70
6
  0
STYLE
  2
STANDARD
 70
0
 40
0
 50
0
 71
0
 41
0
 42
0
  3
TXT
  4
BIGFONT
  0
ENDTAB
  0
ENDSEC
  0
SECTION
  2
BLOCKS
  0
BLOCK
  8
LAYER_1
  2
AIGNBL01020004
 70
64
 10
0
 20
0
 30
0
  3
AIGNBL01020004
  0
LINE
  8
LAYER_1
 10
351.6608
 20
-18.6827
 11
351.6608
 21
-24.6402
  0
LINE
  8
LAYER_1
 10
351.6608
 20
-24.6402
 11
352.6854
 21
-24.6402
  0
LINE
  8
LAYER_1
 10
352.6854
 20
-24.6402
 11
352.6854
 21
-24.1943
  0
LINE
  8
LAYER_1
 10
352.6854
 20
-24.1943
 11
355.3631
 21
-24.1943
  0
LINE
  8
LAYER_1
 10
355.3631
 20
-24.1943
 11
355.3631
 21
-24.6402
  0
LINE
  8
LAYER_1
 10
355.3631
 20
-24.6402
 11
356.4356
 21
-24.6402
  0
LINE
  8
LAYER_1
 10
356.4356
 20
-24.6402
 11
356.4356
 21
-18.6827
  0
LINE
  8
LAYER_1
 10
356.4356
 20
-18.6827
 11
351.6608
 21
-18.6827
  0
LINE
  8
LAYER_1
 10
355.3631
 20
-23.2015
 11
352.6854
 21
-23.2015
  0
LINE
  8
LAYER_1
 10
352.6854
 20
-23.2015
 11
352.6854
 21
-21.9114
  0
LINE
  8
LAYER_1
 10
352.6854
 20
-21.9114
 11
355.3631
 21
-21.9114
  0
LINE
  8
LAYER_1
 10
355.3631
 20
-21.9114
 11
355.3631
 21
-23.2015
  0
LINE
  8
LAYER_1
 10
355.3631
 20
-20.9388
 11
352.6854
 21
-20.9388
  0
LINE
  8
LAYER_1
 10
352.6854
 20
-20.9388
 11
352.6854
 21
-19.6756
  0
LINE
  8
LAYER_1
 10
352.6854
 20
-19.6756
 11
355.3631
 21
-19.6756
  0
LINE
  8
LAYER_1
 10
355.3631
 20
-19.6756
 11
355.3631
 21
-20.9388
  0
ENDBLK
  0
BLOCK
  8
LAYER_1
  2
AIGNBL01020005
 70
64
 10
0
 20
0
 30
0
  3
AIGNBL01020005
  0
LINE
  8
LAYER_1
 10
361.1949
 20
-20.6576
 11
363.0347
 21
-20.6576
  0
LINE
  8
LAYER_1
 10
363.0347
 20
-20.6576
 11
363.0347
 21
-19.7345
  0
LINE
  8
LAYER_1
 10
363.0347
 20
-19.7345
 11
360.6544
 21
-19.7345
  0
LINE
  8
LAYER_1
 10
360.6544
 20
-19.7345
 11
360.6544
 21
-18.5234
  0
LINE
  8
LAYER_1
 10
360.6544
 20
-18.5234
 11
359.708
 21
-18.5234
  0
LINE
  8
LAYER_1
 10
359.708
 20
-18.5234
 11
359.708
 21
-19.7345
  0
LINE
  8
LAYER_1
 10
359.708
 20
-19.7345
 11
357.3425
 21
-19.7345
  0
LINE
  8
LAYER_1
 10
357.3425
 20
-19.7345
 11
357.3425
 21
-20.6576
  0
LINE
  8
LAYER_1
 10
357.3425
 20
-20.6576
 11
359.1824
 21
-20.6576
  0
ARC
  8
LAYER_1
 10
352.8546
 20
-17.3096
 40
7.1589
 50
320.090402
 51
332.1165604
  0
ARC
  8
LAYER_1
 10
354.2211
 20
-18.4889
 40
5.3542
 50
306.7900371
 51
320.388939
  0
ARC
  8
LAYER_1
 10
355.363
 20
-19.9296
 40
3.517
 50
299.7830125
 51
305.949067
  0
ARC
  8
LAYER_1
 10
357.3634
 20
-22.9418
 40
0.2566
 50
189.0074096
 51
222.6984605
  0
ARC
  8
LAYER_1
 10
349.1372
 20
-31.2373
 40
11.4263
 50
41.87779049
 51
45.2975775
  0
ARC
  8
LAYER_1
 10
356.4824
 20
-24.3816
 40
1.3954
 50
27.02587099
 51
33.58032053
  0
ARC
  8
LAYER_1
 10
357.2054
 20
-22.7438
 40
1.1304
 50
297.3892127
 51
310.3878745
  0
ARC
  8
LAYER_1
 10
354.0201
 20
-18.4423
 40
6.4808
 50
307.1941606
 51
316.157217
  0
LINE
  8
LAYER_1
 10
358.6943
 20
-22.9314
 11
358.6943
 21
-23.6463
  0
LINE
  8
LAYER_1
 10
358.6943
 20
-23.6463
 11
359.708
 21
-23.6463
  0
LINE
  8
LAYER_1
 10
359.708
 20
-23.6463
 11
359.708
 21
-24.6876
  0
LINE
  8
LAYER_1
 10
359.708
 20
-24.6876
 11
360.6544
 21
-24.6876
  0
LINE
  8
LAYER_1
 10
360.6544
 20
-24.6876
 11
360.6544
 21
-23.6463
  0
LINE
  8
LAYER_1
 10
360.6544
 20
-23.6463
 11
361.6305
 21
-23.6463
  0
LINE
  8
LAYER_1
 10
361.6305
 20
-23.6463
 11
361.6305
 21
-22.8527
  0
ARC
  8
LAYER_1
 10
367.4883
 20
-17.4254
 40
7.9856
 50
222.815146
 51
229.3961219
  0
ARC
  8
LAYER_1
 10
363.3358
 20
-22.334
 40
1.5569
 50
227.8538365
 51
243.321749
  0
ARC
  8
LAYER_1
 10
365.3283
 20
-25.2866
 40
3.1117
 50
130.0133947
 51
149.8793337
  0
ARC
  8
LAYER_1
 10
366.7079
 20
-17.3889
 40
6.4681
 50
224.481624
 51
238.4919087
  0
ARC
  8
LAYER_1
 10
366.2472
 20
-18.041
 40
5.6842
 50
209.4847319
 51
223.0462119
  0
ARC
  8
LAYER_1
 10
368.6885
 20
-16.4658
 40
8.5864
 50
209.2217911
 51
210.6164294
  0
LINE
  8
LAYER_1
 10
359.708
 20
-22.7289
 11
358.8744
 21
-22.7289
  0
ARC
  8
LAYER_1
 10
349.8954
 20
-15.6235
 40
11.4502
 50
321.6442745
 51
327.3776932
  0
ARC
  8
LAYER_1
 10
358.7365
 20
-21.2021
 40
0.9988
 50
323.4874232
 51
346.5604038
  0
LINE
  8
LAYER_1
 10
359.708
 20
-21.4342
 11
359.708
 21
-22.7289
  0
LINE
  8
LAYER_1
 10
360.6544
 20
-22.7289
 11
360.6469
 21
-21.4287
  0
ARC
  8
LAYER_1
 10
362.6699
 20
-20.5916
 40
2.1894
 50
202.4797564
 51
213.37689
  0
ARC
  8
LAYER_1
 10
369.8576
 20
-15.9715
 40
10.7338
 50
212.8634514
 51
219.016696
  0
LINE
  8
LAYER_1
 10
361.5179
 20
-22.7289
 11
360.6544
 21
-22.7289
  0
ENDBLK
  0
BLOCK
  8
LAYER_1
  2
AIGNBL01020006
 70
64
 10
0
 20
0
 30
0
  3
AIGNBL01020006
  0
LINE
  8
LAYER_1
 10
364.3797
 20
-22.0502
 11
364.3797
 21
-24.7051
  0
LINE
  8
LAYER_1
 10
364.3797
 20
-24.7051
 11
365.2777
 21
-24.7051
  0
LINE
  8
LAYER_1
 10
365.2777
 20
-24.7051
 11
365.2777
 21
-24.5221
  0
LINE
  8
LAYER_1
 10
365.2777
 20
-24.5221
 11
368.0042
 21
-24.5221
  0
LINE
  8
LAYER_1
 10
368.0042
 20
-24.5221
 11
368.0042
 21
-24.653
  0
LINE
  8
LAYER_1
 10
368.0042
 20
-24.653
 11
368.9475
 21
-24.653
  0
LINE
  8
LAYER_1
 10
368.9475
 20
-24.653
 11
368.9475
 21
-22.0502
  0
LINE
  8
LAYER_1
 10
368.9475
 20
-22.0502
 11
364.3797
 21
-22.0502
  0
LINE
  8
LAYER_1
 10
365.2777
 20
-22.5871
 11
366.1759
 21
-22.5871
  0
LINE
  8
LAYER_1
 10
366.1759
 20
-22.5871
 11
366.1759
 21
-23.0127
  0
LINE
  8
LAYER_1
 10
366.1759
 20
-23.0127
 11
365.2777
 21
-23.0127
  0
LINE
  8
LAYER_1
 10
365.2777
 20
-23.0127
 11
365.2777
 21
-22.5871
  0
LINE
  8
LAYER_1
 10
366.1822
 20
-23.9775
 11
365.2712
 21
-23.9775
  0
LINE
  8
LAYER_1
 10
365.2712
 20
-23.9775
 11
365.2712
 21
-23.5714
  0
LINE
  8
LAYER_1
 10
365.2712
 20
-23.5714
 11
366.1822
 21
-23.5714
  0
LINE
  8
LAYER_1
 10
366.1822
 20
-23.5714
 11
366.1822
 21
-23.9775
  0
LINE
  8
LAYER_1
 10
368.0042
 20
-23.9775
 11
367.0933
 21
-23.9775
  0
LINE
  8
LAYER_1
 10
367.0933
 20
-23.9775
 11
367.0933
 21
-23.5714
  0
LINE
  8
LAYER_1
 10
367.0933
 20
-23.5714
 11
368.0042
 21
-23.5714
  0
LINE
  8
LAYER_1
 10
368.0042
 20
-23.5714
 11
368.0042
 21
-23.9775
  0
LINE
  8
LAYER_1
 10
368.0042
 20
-22.9955
 11
367.0933
 21
-22.9955
  0
LINE
  8
LAYER_1
 10
367.0933
 20
-22.9955
 11
367.0933
 21
-22.5895
  0
LINE
  8
LAYER_1
 10
367.0933
 20
-22.5895
 11
368.0042
 21
-22.5895
  0
LINE
  8
LAYER_1
 10
368.0042
 20
-22.5895
 11
368.0042
 21
-22.9955
  0
ENDBLK
  0
BLOCK
  8
LAYER_1
  2
AIGNBL01020007
 70
64
 10
0
 20
0
 30
0
  3
AIGNBL01020007
  0
LINE
  8
LAYER_1
 10
372.772
 20
-19.4737
 11
372.772
 21
-18.6171
  0
LINE
  8
LAYER_1
 10
372.772
 20
-18.6171
 11
370.123
 21
-18.6171
  0
LINE
  8
LAYER_1
 10
370.123
 20
-18.6171
 11
370.123
 21
-19.4737
  0
LINE
  8
LAYER_1
 10
370.123
 20
-19.4737
 11
370.8144
 21
-19.4737
  0
ARC
  8
LAYER_1
 10
356.4936
 20
-17.2671
 40
14.4898
 50
345.1345212
 51
351.2405475
  0
ARC
  8
LAYER_1
 10
366.8274
 20
-20.0374
 40
3.7912
 50
328.8660584
 51
345.5344938
  0
ARC
  8
LAYER_1
 10
368.4286
 20
-20.8831
 40
1.9862
 50
321.4032115
 51
325.8630795
  0
ARC
  8
LAYER_1
 10
368.3738
 20
-23.5064
 40
2.1211
 50
13.85472312
 51
40.74075759
  0
LINE
  8
LAYER_1
 10
370.4332
 20
-22.9985
 11
370.5883
 21
-22.7958
  0
LINE
  8
LAYER_1
 10
370.5883
 20
-22.7958
 11
370.5883
 21
-24.2866
  0
LINE
  8
LAYER_1
 10
370.5883
 20
-24.2866
 11
371.3958
 21
-24.2866
  0
LINE
  8
LAYER_1
 10
371.3958
 20
-24.2866
 11
371.3958
 21
-23.8159
  0
LINE
  8
LAYER_1
 10
371.3958
 20
-23.8159
 11
372.6301
 21
-23.8159
  0
LINE
  8
LAYER_1
 10
372.6301
 20
-23.8159
 11
372.6301
 21
-20.6966
  0
LINE
  8
LAYER_1
 10
372.6301
 20
-20.6966
 11
371.4669
 21
-20.6966
  0
ARC
  8
LAYER_1
 10
363.6989
 20
-18.5004
 40
8.0725
 50
344.2131719
 51
353.0750751
  0
LINE
  8
LAYER_1
 10
371.7125
 20
-19.4737
 11
372.772
 21
-19.4737
  0
LINE
  8
LAYER_1
 10
371.803
 20
-22.9919
 11
371.3958
 21
-22.9919
  0
LINE
  8
LAYER_1
 10
371.3958
 20
-22.9919
 11
371.3958
 21
-21.5204
  0
LINE
  8
LAYER_1
 10
371.3958
 20
-21.5204
 11
371.803
 21
-21.5204
  0
LINE
  8
LAYER_1
 10
371.803
 20
-21.5204
 11
371.803
 21
-22.9919
  0
ENDBLK
  0
BLOCK
  8
LAYER_1
  2
AIGNBL01020008
 70
64
 10
0
 20
0
 30
0
  3
AIGNBL01020008
  0
LINE
  8
LAYER_1
 10
375.5843
 20
-21.0627
 11
375.5843
 21
-19.4932
  0
LINE
  8
LAYER_1
 10
375.5843
 20
-19.4932
 11
376.0884
 21
-19.4932
  0
LINE
  8
LAYER_1
 10
376.0884
 20
-19.4932
 11
376.0884
 21
-18.6171
  0
LINE
  8
LAYER_1
 10
376.0884
 20
-18.6171
 11
372.89
 21
-18.6171
  0
LINE
  8
LAYER_1
 10
372.89
 20
-18.6171
 11
372.89
 21
-19.4932
  0
LINE
  8
LAYER_1
 10
372.89
 20
-19.4932
 11
373.323
 21
-19.4932
  0
LINE
  8
LAYER_1
 10
373.323
 20
-19.4932
 11
373.323
 21
-21.0627
  0
LINE
  8
LAYER_1
 10
373.323
 20
-21.0627
 11
372.7285
 21
-21.0627
  0
LINE
  8
LAYER_1
 10
372.7285
 20
-21.0627
 11
372.7285
 21
-21.9587
  0
LINE
  8
LAYER_1
 10
372.7285
 20
-21.9587
 11
373.2971
 21
-21.9587
  0
ARC
  8
LAYER_1
 10
370.5179
 20
-21.9112
 40
2.7796
 50
338.6726626
 51
359.0209934
  0
ARC
  8
LAYER_1
 10
370.2413
 20
-21.8534
 40
3.0587
 50
321.0652746
 51
339.5482703
  0
ARC
  8
LAYER_1
 10
370.471
 20
-22.0198
 40
2.7755
 50
312.3585029
 51
320.7571916
  0
ARC
  8
LAYER_1
 10
369.9128
 20
-28.2294
 40
4.8157
 50
49.01744843
 51
59.72034273
  0
ARC
  8
LAYER_1
 10
371.6288
 20
-22.7923
 40
2.3079
 50
308.6770083
 51
331.7345889
  0
ARC
  8
LAYER_1
 10
370.3348
 20
-22.0397
 40
3.8043
 50
330.9809007
 51
347.5160211
  0
ARC
  8
LAYER_1
 10
369.047
 20
-21.6624
 40
5.144
 50
346.5132457
 51
356.6977471
  0
LINE
  8
LAYER_1
 10
374.1825
 20
-21.9587
 11
374.6928
 21
-21.9587
  0
LINE
  8
LAYER_1
 10
374.6928
 20
-21.9587
 11
374.6928
 21
-24.5744
  0
LINE
  8
LAYER_1
 10
374.6928
 20
-24.5744
 11
375.5843
 21
-24.5744
  0
LINE
  8
LAYER_1
 10
375.5843
 20
-24.5744
 11
375.5843
 21
-21.9587
  0
LINE
  8
LAYER_1
 10
375.5843
 20
-21.9587
 11
376.1659
 21
-21.9587
  0
LINE
  8
LAYER_1
 10
376.1659
 20
-21.9587
 11
376.1659
 21
-21.0627
  0
LINE
  8
LAYER_1
 10
376.1659
 20
-21.0627
 11
375.5843
 21
-21.0627
  0
LINE
  8
LAYER_1
 10
374.6928
 20
-21.0627
 11
374.2017
 21
-21.0627
  0
LINE
  8
LAYER_1
 10
374.2017
 20
-21.0627
 11
374.2017
 21
-19.4932
  0
LINE
  8
LAYER_1
 10
374.2017
 20
-19.4932
 11
374.6928
 21
-19.4932
  0
LINE
  8
LAYER_1
 10
374.6928
 20
-19.4932
 11
374.6928
 21
-21.0627
  0
ENDBLK
  0
BLOCK
  8
LAYER_1
  2
AIGNBL01020009
 70
64
 10
0
 20
0
 30
0
  3
AIGNBL01020009
  0
ARC
  8
LAYER_1
 10
348.7749
 20
-19.7029
 40
1.9538
 50
288.5728851
 51
313.5589395
  0
ARC
  8
LAYER_1
 10
349.2926
 20
-20.3423
 40
1.1356
 50
316.8584967
 51
347.2193472
  0
ARC
  8
LAYER_1
 10
348.4589
 20
-20.1395
 40
1.9937
 50
346.8369842
 51
1.013916361
  0
ARC
  8
LAYER_1
 10
349.1937
 20
-20.1074
 40
1.2585
 50
0.1442876533
 51
45.47147913
  0
ARC
  8
LAYER_1
 10
348.6643
 20
-20.6066
 40
1.9859
 50
44.68437791
 51
67.71710381
  0
ARC
  8
LAYER_1
 10
348.4024
 20
-21.0891
 40
2.5323
 50
66.37394432
 51
86.05236678
  0
ARC
  8
LAYER_1
 10
348.5066
 20
-20.2975
 40
1.7361
 50
87.68383207
 51
89.78881595
  0
LINE
  8
LAYER_1
 10
348.513
 20
-18.5614
 11
345.5421
 21
-18.5614
  0
LINE
  8
LAYER_1
 10
345.5421
 20
-18.5614
 11
345.5421
 21
-21.8229
  0
LINE
  8
LAYER_1
 10
345.5421
 20
-21.8229
 11
347.3051
 21
-21.8229
  0
ARC
  8
LAYER_1
 10
347.331
 20
-23.4609
 40
1.6382
 50
64.35518167
 51
90.905835
  0
ARC
  8
LAYER_1
 10
347.5318
 20
-22.9615
 40
1.1016
 50
16.86565433
 51
62.52763861
  0
ARC
  8
LAYER_1
 10
347.7116
 20
-22.8924
 40
0.9097
 50
0.3657920727
 51
15.98793587
  0
LINE
  8
LAYER_1
 10
348.6212
 20
-22.8866
 11
348.6212
 21
-24.6193
  0
LINE
  8
LAYER_1
 10
348.6212
 20
-24.6193
 11
350.1657
 21
-24.6193
  0
LINE
  8
LAYER_1
 10
350.1657
 20
-24.6193
 11
350.1657
 21
-22.7905
  0
ARC
  8
LAYER_1
 10
348.1169
 20
-22.7474
 40
2.0493
 50
358.7953186
 51
12.5237444
  0
ARC
  8
LAYER_1
 10
349.1685
 20
-22.5087
 40
0.971
 50
12.22629885
 51
45.01434
  0
ARC
  8
LAYER_1
 10
348.9903
 20
-22.7785
 40
1.2894
 50
47.89284515
 51
71.60372221
  0
LINE
  8
LAYER_1
 10
348.3227
 20
-20.7712
 11
347.0847
 21
-20.7712
  0
LINE
  8
LAYER_1
 10
347.0847
 20
-20.7712
 11
347.0847
 21
-19.6173
  0
LINE
  8
LAYER_1
 10
347.0847
 20
-19.6173
 11
347.1208
 21
-19.6173
  0
LINE
  8
LAYER_1
 10
347.1208
 20
-19.6173
 11
348.3548
 21
-19.6173
  0
ARC
  8
LAYER_1
 10
348.314
 20
-20.2805
 40
0.6645
 50
46.60498432
 51
86.47787041
  0
ARC
  8
LAYER_1
 10
348.38
 20
-20.1655
 40
0.5365
 50
356.9384635
 51
43.29207093
  0
ARC
  8
LAYER_1
 10
348.3704
 20
-20.1929
 40
0.5453
 50
290.0148134
 51
359.8586292
  0
ARC
  8
LAYER_1
 10
348.194
 20
-19.8655
 40
0.9148
 50
278.085377
 51
293.3808036
  0
ENDBLK
  0
BLOCK
  8
LAYER_1
  2
AIGNBL01010002
 70
64
 10
0
 20
0
 30
0
  3
AIGNBL01010002
  0
LINE
  8
LAYER_1
 10
339.2705
 20
-26.6172
 11
469.2192
 21
-26.6172
  0
LINE
  8
LAYER_1
 10
339.2705
 20
-66.6014
 11
339.2705
 21
-16.6211
  0
LINE
  8
LAYER_1
 10
339.2705
 20
-16.6211
 11
469.2192
 21
-16.6211
  0
LINE
  8
LAYER_1
 10
359.2626
 20
-66.6014
 11
359.2626
 21
-26.6172
  0
LINE
  8
LAYER_1
 10
424.2369
 20
-66.6014
 11
424.2369
 21
-26.6172
  0
LINE
  8
LAYER_1
 10
404.2448
 20
-66.6014
 11
404.2448
 21
-26.6172
  0
LINE
  8
LAYER_1
 10
339.2705
 20
-36.6132
 11
469.2192
 21
-36.6132
  0
LINE
  8
LAYER_1
 10
339.2705
 20
-46.6093
 11
469.2192
 21
-46.6093
  0
LINE
  8
LAYER_1
 10
339.2705
 20
-56.6053
 11
469.2192
 21
-56.6053
  0
LINE
  8
LAYER_1
 10
469.2192
 20
-66.6014
 11
124.874
 21
-66.6014
  0
LINE
  8
LAYER_1
 10
124.874
 20
-66.6014
 11
124.874
 21
169.592
  0
LINE
  8
LAYER_1
 10
124.874
 20
169.592
 11
469.2192
 21
169.592
  0
LINE
  8
LAYER_1
 10
469.2192
 20
169.592
 11
469.2192
 21
-66.6014
  0
ENDBLK
  0
BLOCK
  8
LAYER_1
  2
AIGNBL01010003
 70
64
 10
0
 20
0
 30
0
  3
AIGNBL01010003
  0
INSERT
  8
LAYER_1
  2
AIGNBL01020004
 10
0
 20
0
 30
0
  0
INSERT
  8
LAYER_1
  2
AIGNBL01020005
 10
0
 20
0
 30
0
  0
LINE
  8
LAYER_1
 10
364.2316
 20
-18.593
 11
364.2316
 21
-19.3256
  0
LINE
  8
LAYER_1
 10
364.2316
 20
-19.3256
 11
366.1829
 21
-19.3256
  0
LINE
  8
LAYER_1
 10
366.1829
 20
-19.3256
 11
366.1829
 21
-19.6099
  0
LINE
  8
LAYER_1
 10
366.1829
 20
-19.6099
 11
363.7498
 21
-19.6099
  0
LINE
  8
LAYER_1
 10
363.7498
 20
-19.6099
 11
363.7498
 21
-21.1532
  0
LINE
  8
LAYER_1
 10
363.7498
 20
-21.1532
 11
364.5768
 21
-21.1532
  0
LINE
  8
LAYER_1
 10
364.5768
 20
-21.1532
 11
364.5768
 21
-20.3293
  0
LINE
  8
LAYER_1
 10
364.5768
 20
-20.3293
 11
366.1791
 21
-20.3293
  0
LINE
  8
LAYER_1
 10
366.1791
 20
-20.3293
 11
366.1791
 21
-21.951
  0
LINE
  8
LAYER_1
 10
366.1791
 20
-21.951
 11
367.0965
 21
-21.951
  0
LINE
  8
LAYER_1
 10
367.0965
 20
-21.951
 11
367.0965
 21
-20.3293
  0
LINE
  8
LAYER_1
 10
367.0965
 20
-20.3293
 11
368.7118
 21
-20.3293
  0
LINE
  8
LAYER_1
 10
368.7118
 20
-20.3293
 11
368.7118
 21
-21.1532
  0
LINE
  8
LAYER_1
 10
368.7118
 20
-21.1532
 11
369.5774
 21
-21.1532
  0
LINE
  8
LAYER_1
 10
369.5774
 20
-21.1532
 11
369.5774
 21
-19.6099
  0
LINE
  8
LAYER_1
 10
369.5774
 20
-19.6099
 11
367.1003
 21
-19.6099
  0
LINE
  8
LAYER_1
 10
367.1003
 20
-19.6099
 11
367.1003
 21
-19.3256
  0
LINE
  8
LAYER_1
 10
367.1003
 20
-19.3256
 11
369.0579
 21
-19.3256
  0
LINE
  8
LAYER_1
 10
369.0579
 20
-19.3256
 11
369.0579
 21
-18.593
  0
LINE
  8
LAYER_1
 10
369.0579
 20
-18.593
 11
364.2316
 21
-18.593
  0
LINE
  8
LAYER_1
 10
364.7286
 20
-21.0494
 11
365.9083
 21
-21.0494
  0
LINE
  8
LAYER_1
 10
365.9083
 20
-21.0494
 11
365.9083
 21
-20.5839
  0
LINE
  8
LAYER_1
 10
365.9083
 20
-20.5839
 11
364.7286
 21
-20.5839
  0
LINE
  8
LAYER_1
 10
364.7286
 20
-20.5839
 11
364.7286
 21
-21.0494
  0
LINE
  8
LAYER_1
 10
364.5863
 20
-21.7545
 11
365.9082
 21
-21.7545
  0
LINE
  8
LAYER_1
 10
365.9082
 20
-21.7545
 11
365.9082
 21
-21.2892
  0
LINE
  8
LAYER_1
 10
365.9082
 20
-21.2892
 11
364.5863
 21
-21.2892
  0
LINE
  8
LAYER_1
 10
364.5863
 20
-21.2892
 11
364.5863
 21
-21.7545
  0
LINE
  8
LAYER_1
 10
367.3672
 20
-21.0494
 11
368.5469
 21
-21.0494
  0
LINE
  8
LAYER_1
 10
368.5469
 20
-21.0494
 11
368.5469
 21
-20.5839
  0
LINE
  8
LAYER_1
 10
368.5469
 20
-20.5839
 11
367.3672
 21
-20.5839
  0
LINE
  8
LAYER_1
 10
367.3672
 20
-20.5839
 11
367.3672
 21
-21.0494
  0
LINE
  8
LAYER_1
 10
367.3672
 20
-21.7545
 11
368.6955
 21
-21.7545
  0
LINE
  8
LAYER_1
 10
368.6955
 20
-21.7545
 11
368.6955
 21
-21.2892
  0
LINE
  8
LAYER_1
 10
368.6955
 20
-21.2892
 11
367.3672
 21
-21.2892
  0
LINE
  8
LAYER_1
 10
367.3672
 20
-21.2892
 11
367.3672
 21
-21.7545
  0
INSERT
  8
LAYER_1
  2
AIGNBL01020006
 10
0
 20
0
 30
0
  0
INSERT
  8
LAYER_1
  2
AIGNBL01020007
 10
0
 20
0
 30
0
  0
INSERT
  8
LAYER_1
  2
AIGNBL01020008
 10
0
 20
0
 30
0
  0
LINE
  8
LAYER_1
 10
341.8942
 20
-18.5614
 11
343.4346
 21
-18.5614
  0
LINE
  8
LAYER_1
 10
343.4346
 20
-18.5614
 11
345.5421
 21
-23.0789
  0
LINE
  8
LAYER_1
 10
345.5421
 20
-23.0789
 11
345.5421
 21
-22.3097
  0
LINE
  8
LAYER_1
 10
345.5421
 20
-22.3097
 11
347.0847
 21
-22.3097
  0
LINE
  8
LAYER_1
 10
347.0847
 20
-22.3097
 11
347.0847
 21
-24.6193
  0
LINE
  8
LAYER_1
 10
347.0847
 20
-24.6193
 11
344.7769
 21
-24.6193
  0
LINE
  8
LAYER_1
 10
344.7769
 20
-24.6193
 11
343.4307
 21
-21.7969
  0
LINE
  8
LAYER_1
 10
343.4307
 20
-21.7969
 11
343.4307
 21
-24.6193
  0
LINE
  8
LAYER_1
 10
343.4307
 20
-24.6193
 11
341.8942
 21
-24.6193
  0
LINE
  8
LAYER_1
 10
341.8942
 20
-24.6193
 11
341.8942
 21
-18.5614
  0
INSERT
  8
LAYER_1
  2
AIGNBL01020009
 10
0
 20
0
 30
0
  0
ARC
  8
LAYER_1
 10
395.6228
 20
-22.2421
 40
1.991
 50
311.8536983
 51
336.66565
  0
ARC
  8
LAYER_1
 10
395.2143
 20
-22.0387
 40
2.4468
 50
336.0820229
 51
355.050887
  0
LINE
  8
LAYER_1
 10
397.652
 20
-22.2498
 11
397.652
 21
-19.0493
  0
LINE
  8
LAYER_1
 10
397.652
 20
-19.0493
 11
396.4658
 21
-19.0493
  0
LINE
  8
LAYER_1
 10
396.4658
 20
-19.0493
 11
396.4658
 21
-21.9151
  0
ARC
  8
LAYER_1
 10
394.9478
 20
-21.874
 40
1.5185
 50
331.8956217
 51
358.4504934
  0
ARC
  8
LAYER_1
 10
395.7367
 20
-22.2196
 40
0.6633
 50
317.1782762
 51
326.1116703
  0
ARC
  8
LAYER_1
 10
394.7907
 20
-21.265
 40
2.0068
 50
296.3435913
 51
315.5475613
  0
LINE
  8
LAYER_1
 10
395.6812
 20
-23.0634
 11
395.6812
 21
-24.2581
  0
ARC
  8
LAYER_1
 10
395.7315
 20
-23.1228
 40
1.1364
 50
267.460987
 51
280.8278078
  0
ARC
  8
LAYER_1
 10
395.6077
 20
-22.387
 40
1.8825
 50
280.3227292
 51
303.5087591
  0
ARC
  8
LAYER_1
 10
395.3215
 20
-21.8982
 40
2.4483
 50
302.7778523
 51
311.7357705
  0
ARC
  8
LAYER_1
 10
383.8582
 20
-21.2369
 40
1.9121
 50
200.4586691
 51
212.6743406
  0
ARC
  8
LAYER_1
 10
360.8299
 20
-29.6321
 40
22.5988
 50
19.99339328
 51
22.95988574
  0
ARC
  8
LAYER_1
 10
378.6335
 20
-22.195
 40
3.306
 50
24.64219126
 51
41.47959493
  0
ARC
  8
LAYER_1
 10
379.7074
 20
-21.3145
 40
1.9189
 50
43.02136381
 51
66.4525374
  0
ARC
  8
LAYER_1
 10
379.7452
 20
-21.2722
 40
1.8651
 50
66.99773131
 51
74.27463074
  0
ARC
  8
LAYER_1
 10
379.3948
 20
-22.5663
 40
3.2057
 50
74.51389392
 51
94.05361784
  0
ARC
  8
LAYER_1
 10
379.436
 20
-23.458
 40
4.0982
 50
93.74752603
 51
109.4964459
  0
ARC
  8
LAYER_1
 10
379.3155
 20
-23.2494
 40
3.8616
 50
108.8443826
 51
117.7785401
  0
ARC
  8
LAYER_1
 10
368.4808
 20
-19.7127
 40
9.0358
 50
353.3545297
 51
359.2384651
  0
ARC
  8
LAYER_1
 10
374.5967
 20
-20.478
 40
2.873
 50
340.8545036
 51
354.3986112
  0
ARC
  8
LAYER_1
 10
375.9845
 20
-20.8638
 40
1.4382
 50
308.1960555
 51
337.240372
  0
ARC
  8
LAYER_1
 10
376.186
 20
-21.1609
 40
1.0804
 50
298.9411123
 51
309.5405453
  0
LINE
  8
LAYER_1
 10
376.7088
 20
-22.1064
 11
376.7088
 21
-23.3788
  0
ARC
  8
LAYER_1
 10
376.133
 20
-20.8091
 40
2.6334
 50
282.629217
 51
311.7889792
  0
ARC
  8
LAYER_1
 10
376.7481
 20
-21.591
 40
1.6417
 50
313.9680024
 51
325.0993696
  0
ARC
  8
LAYER_1
 10
376.075
 20
-21.1667
 40
2.4368
 50
325.9722368
 51
337.2435268
  0
ARC
  8
LAYER_1
 10
374.4452
 20
-20.4759
 40
4.207
 50
337.1535495
 51
344.91421
  0
ARC
  8
LAYER_1
 10
372.5495
 20
-19.9463
 40
6.1753
 50
344.7481064
 51
353.2474184
  0
ARC
  8
LAYER_1
 10
379.476
 20
-22.45
 40
1.947
 50
90.61781687
 51
114.0708883
  0
ARC
  8
LAYER_1
 10
379.4502
 20
-21.5938
 40
1.0907
 50
61.474306
 51
89.74539799
  0
ARC
  8
LAYER_1
 10
379.5976
 20
-21.2581
 40
0.7259
 50
38.2714468
 51
59.04055946
  0
ARC
  8
LAYER_1
 10
378.9476
 20
-21.7619
 40
1.5482
 50
25.3011504
 51
38.01183044
  0
ARC
  8
LAYER_1
 10
374.0025
 20
-24.0904
 40
7.0141
 50
19.69622915
 51
25.23323144
  0
ARC
  8
LAYER_1
 10
386.9461
 20
-19.5396
 40
6.7064
 50
199.0304142
 51
214.1619839
  0
ARC
  8
LAYER_1
 10
385.1883
 20
-20.5955
 40
4.6604
 50
215.5556146
 51
216.3864829
  0
ARC
  8
LAYER_1
 10
383.6855
 20
-21.6697
 40
2.8135
 50
216.9324038
 51
237.9526107
  0
ARC
  8
LAYER_1
 10
383.2601
 20
-22.3143
 40
2.0414
 50
238.4737585
 51
260.7134162
  0
ARC
  8
LAYER_1
 10
383.0587
 20
-23.1943
 40
1.1418
 50
263.5627283
 51
265.8887812
  0
LINE
  8
LAYER_1
 10
382.9768
 20
-24.3332
 11
382.9768
 21
-22.9742
  0
ARC
  8
LAYER_1
 10
383.3434
 20
-22.147
 40
0.9048
 50
229.9708589
 51
246.0997112
  0
ARC
  8
LAYER_1
 10
384.4169
 20
-20.8366
 40
2.5987
 50
213.4542661
 51
230.4296508
  0
LINE
  8
LAYER_1
 10
382.0901
 20
-19.8796
 11
381.4745
 21
-19.8796
  0
LINE
  8
LAYER_1
 10
381.4745
 20
-19.8796
 11
381.3155
 21
-18.8814
  0
LINE
  8
LAYER_1
 10
381.3155
 20
-18.8814
 11
381.9318
 21
-18.8814
  0
LINE
  8
LAYER_1
 10
381.9318
 20
-18.8814
 11
382.0901
 21
-19.8796
  0
LINE
  8
LAYER_1
 10
383.0188
 20
-19.8796
 11
382.4029
 21
-19.8796
  0
LINE
  8
LAYER_1
 10
382.4029
 20
-19.8796
 11
382.2442
 21
-18.8814
  0
LINE
  8
LAYER_1
 10
382.2442
 20
-18.8814
 11
382.8606
 21
-18.8814
  0
LINE
  8
LAYER_1
 10
382.8606
 20
-18.8814
 11
383.0188
 21
-19.8796
  0
ARC
  8
LAYER_1
 10
383.3452
 20
-19.5626
 40
1.2598
 50
294.8462392
 51
325.7593989
  0
ARC
  8
LAYER_1
 10
383.5868
 20
-20.0818
 40
0.6873
 50
280.6862667
 51
294.7597554
  0
LINE
  8
LAYER_1
 10
383.7142
 20
-20.7571
 11
383.7142
 21
-22.0072
  0
ARC
  8
LAYER_1
 10
383.3879
 20
-19.5706
 40
2.4583
 50
277.6270469
 51
307.9992312
  0
ARC
  8
LAYER_1
 10
383.7857
 20
-20.2045
 40
1.7156
 50
310.5659115
 51
312.159519
  0
ARC
  8
LAYER_1
 10
383.3126
 20
-19.7505
 40
2.3702
 50
313.2688841
 51
336.1288754
  0
ARC
  8
LAYER_1
 10
382.549
 20
-19.2963
 40
3.254
 50
334.2571503
 51
342.7179381
  0
LINE
  8
LAYER_1
 10
385.6561
 20
-20.263
 11
388.0832
 21
-20.263
  0
ARC
  8
LAYER_1
 10
384.0183
 20
-20.476
 40
4.0705
 50
346.9025011
 51
2.999941785
  0
ARC
  8
LAYER_1
 10
385.3231
 20
-20.7848
 40
2.7296
 50
327.7013818
 51
347.0097259
  0
ARC
  8
LAYER_1
 10
386.118
 20
-21.2401
 40
1.8149
 50
312.9843281
 51
326.4412197
  0
ARC
  8
LAYER_1
 10
386.162
 20
-21.2473
 40
1.7799
 50
298.6772297
 51
312.1042011
  0
ARC
  8
LAYER_1
 10
385.719
 20
-20.4337
 40
2.7063
 50
288.7192833
 51
298.64049
  0
ARC
  8
LAYER_1
 10
385.0665
 20
-18.4569
 40
4.7879
 50
273.6020975
 51
288.52267
  0
ARC
  8
LAYER_1
 10
384.7612
 20
-16.1994
 40
7.062
 50
268.3271717
 51
274.9240462
  0
LINE
  8
LAYER_1
 10
384.555
 20
-23.2584
 11
384.555
 21
-24.3879
  0
ARC
  8
LAYER_1
 10
384.9661
 20
-16.1363
 40
8.2618
 50
267.1475499
 51
278.4142478
  0
ARC
  8
LAYER_1
 10
385.3877
 20
-18.8538
 40
5.5119
 50
278.2131806
 51
291.6024907
  0
ARC
  8
LAYER_1
 10
386.3117
 20
-21.293
 40
2.9041
 50
292.3703177
 51
310.8518436
  0
ARC
  8
LAYER_1
 10
386.898
 20
-22.0381
 40
1.9575
 50
312.1363704
 51
321.4360617
  0
ARC
  8
LAYER_1
 10
386.3493
 20
-21.2741
 40
2.8742
 50
316.3403134
 51
335.9447601
  0
ARC
  8
LAYER_1
 10
384.9732
 20
-20.6215
 40
4.3969
 50
335.488256
 51
350.554217
  0
ARC
  8
LAYER_1
 10
382.3156
 20
-20.0996
 40
7.1046
 50
349.9195385
 51
2.135290941
  0
ARC
  8
LAYER_1
 10
382.3137
 20
-20.0083
 40
7.1036
 50
1.398744845
 51
7.163066818
  0
LINE
  8
LAYER_1
 10
389.3619
 20
-19.1225
 11
384.6757
 21
-19.1225
  0
ARC
  8
LAYER_1
 10
379.5567
 20
-18.5724
 40
5.1485
 50
346.1208209
 51
353.8665991
  0
ARC
  8
LAYER_1
 10
382.5401
 20
-19.3399
 40
2.0683
 50
333.2294573
 51
346.9363389
  0
ARC
  8
LAYER_1
 10
377.3708
 20
-106.144
 40
86.7721
 50
78.78700631
 51
80.56640675
  0
LINE
  8
LAYER_1
 10
391.5931
 20
-20.5454
 11
391.5931
 21
-18.9096
  0
LINE
  8
LAYER_1
 10
391.5931
 20
-18.9096
 11
390.2958
 21
-18.9096
  0
LINE
  8
LAYER_1
 10
390.2958
 20
-18.9096
 11
390.2958
 21
-24.3878
  0
LINE
  8
LAYER_1
 10
390.2958
 20
-24.3878
 11
391.5931
 21
-24.3878
  0
LINE
  8
LAYER_1
 10
391.5931
 20
-24.3878
 11
391.5931
 21
-21.7936
  0
ARC
  8
LAYER_1
 10
391.8122
 20
-24.3619
 40
2.5777
 50
85.26912846
 51
94.87697352
  0
ARC
  8
LAYER_1
 10
391.5474
 20
-28.0073
 40
6.2326
 50
76.32160786
 51
85.60637667
  0
ARC
  8
LAYER_1
 10
382.6865
 20
-65.0935
 40
44.3625
 50
73.58294073
 51
76.52865465
  0
LINE
  8
LAYER_1
 10
395.2246
 20
-22.5396
 11
395.2246
 21
-21.2884
  0
ARC
  8
LAYER_1
 10
392.0121
 20
-31.4196
 40
10.6283
 50
72.40665783
 51
77.87678181
  0
ARC
  8
LAYER_1
 10
398.8888
 20
-20.9171
 40
3.2368
 50
288.2682375
 51
307.5749128
  0
ARC
  8
LAYER_1
 10
398.4053
 20
-19.5973
 40
4.6418
 50
274.0145895
 51
288.8290898
  0
ARC
  8
LAYER_1
 10
398.4053
 20
-20.3924
 40
3.8491
 50
268.360011
 51
274.8439918
  0
LINE
  8
LAYER_1
 10
398.2951
 20
-24.2399
 11
398.2951
 21
-18.8434
  0
LINE
  8
LAYER_1
 10
398.2951
 20
-18.8434
 11
399.5838
 21
-18.8434
  0
LINE
  8
LAYER_1
 10
399.5838
 20
-18.8434
 11
399.5838
 21
-22.8383
  0
ARC
  8
LAYER_1
 10
399.4956
 20
-22.1335
 40
0.7103
 50
277.1314049
 51
295.958207
  0
ARC
  8
LAYER_1
 10
399.2786
 20
-21.686
 40
1.2076
 50
295.9193969
 51
325.4807177
  0
ARC
  8
LAYER_1
 10
398.9134
 20
-21.3577
 40
1.6958
 50
323.3344126
 51
327.8455613
  0
ARC
  8
LAYER_1
 10
399.1503
 20
-21.5329
 40
1.4022
 50
328.753104
 51
343.5635435
  0
ARC
  8
LAYER_1
 10
397.9377
 20
-21.1696
 40
2.6681
 50
343.4495362
 51
352.9514753
  0
ARC
  8
LAYER_1
 10
395.8698
 20
-20.9074
 40
4.7525
 50
352.8742823
 51
4.069265984
  0
LINE
  8
LAYER_1
 10
400.6103
 20
-20.5702
 11
401.7958
 21
-20.5702
  0
ARC
  8
LAYER_1
 10
396.0506
 20
-20.8034
 40
5.75
 50
348.7691617
 51
2.324459127
  0
ARC
  8
LAYER_1
 10
398.1468
 20
-21.2257
 40
3.6116
 50
332.2799632
 51
348.8629354
  0
ARC
  8
LAYER_1
 10
399.6246
 20
-21.96
 40
1.9623
 50
309.1184749
 51
331.1898301
  0
ENDBLK
  0
BLOCK
  8
LAYER_2
  2
AIGNBL02010002
 70
64
 10
0
 20
0
 30
0
  3
AIGNBL02010002
  0
LINE
  8
LAYER_2
 10
233.2202
 20
161.886
 11
301.2202
 21
161.886
  0
LINE
  8
LAYER_2
 10
301.2202
 20
161.886
 11
301.2202
 21
41.886
  0
LINE
  8
LAYER_2
 10
301.2202
 20
41.886
 11
233.2202
 21
41.886
  0
LINE
  8
LAYER_2
 10
233.2202
 20
41.886
 11
233.2202
 21
161.886
  0
ENDBLK
  0
BLOCK
  8
LAYER_2
  2
AIGNBL02010003
 70
64
 10
0
 20
0
 30
0
  3
AIGNBL02010003
  0
LINE
  8
LAYER_2
 10
233.2202
 20
161.886
 11
235.4202
 21
161.886
  0
ENDBLK
  0
BLOCK
  8
LAYER_2
  2
AIGNBL02010004
 70
64
 10
0
 20
0
 30
0
  3
AIGNBL02010004
  0
LINE
  8
LAYER_2
 10
235.4202
 20
161.886
 11
235.4202
 21
41.886
  0
ENDBLK
  0
BLOCK
  8
LAYER_2
  2
AIGNBL02010005
 70
64
 10
0
 20
0
 30
0
  3
AIGNBL02010005
  0
LINE
  8
LAYER_2
 10
301.2202
 20
161.886
 11
299.0202
 21
161.886
  0
ENDBLK
  0
BLOCK
  8
LAYER_2
  2
AIGNBL02010006
 70
64
 10
0
 20
0
 30
0
  3
AIGNBL02010006
  0
LINE
  8
LAYER_2
 10
299.0202
 20
161.886
 11
299.0202
 21
41.886
  0
ENDBLK
  0
BLOCK
  8
LAYER_2
  2
AIGNBL02010007
 70
64
 10
0
 20
0
 30
0
  3
AIGNBL02010007
  0
LINE
  8
LAYER_2
 10
235.4202
 20
161.886
 11
235.4202
 21
135.886
  0
ENDBLK
  0
BLOCK
  8
LAYER_2
  2
AIGNBL02010008
 70
64
 10
0
 20
0
 30
0
  3
AIGNBL02010008
  0
LINE
  8
LAYER_2
 10
235.4202
 20
135.886
 11
299.0202
 21
135.886
  0
LINE
  8
LAYER_2
 10
299.0202
 20
135.886
 11
299.0202
 21
67.886
  0
LINE
  8
LAYER_2
 10
299.0202
 20
67.886
 11
235.4202
 21
67.886
  0
LINE
  8
LAYER_2
 10
235.4202
 20
67.886
 11
235.4202
 21
135.886
  0
ENDBLK
  0
BLOCK
  8
LAYER_2
  2
AIGNBL02010009
 70
64
 10
0
 20
0
 30
0
  3
AIGNBL02010009
  0
LINE
  8
LAYER_2
 10
245.4202
 20
50.886
 11
235.4202
 21
50.886
  0
LINE
  8
LAYER_2
 10
235.4202
 20
50.886
 11
235.4202
 21
41.886
  0
LINE
  8
LAYER_2
 10
235.4202
 20
41.886
 11
248.4202
 21
41.886
  0
LINE
  8
LAYER_2
 10
248.4202
 20
41.886
 11
248.4202
 21
50.886
  0
ENDBLK
  0
BLOCK
  8
LAYER_2
  2
AIGNBL0201000A
 70
64
 10
0
 20
0
 30
0
  3
AIGNBL0201000A
  0
LINE
  8
LAYER_2
 10
286.0202
 20
50.886
 11
286.0202
 21
41.886
  0
LINE
  8
LAYER_2
 10
286.0202
 20
41.886
 11
299.0202
 21
41.886
  0
LINE
  8
LAYER_2
 10
299.0202
 20
41.886
 11
299.0202
 21
50.886
  0
LINE
  8
LAYER_2
 10
299.0202
 20
50.886
 11
289.0202
 21
50.886
  0
ENDBLK
  0
BLOCK
  8
LAYER_2
  2
AIGNBL0201000B
 70
64
 10
0
 20
0
 30
0
  3
AIGNBL0201000B
  0
LINE
  8
LAYER_2
 10
245.4202
 20
50.886
 11
245.4202
 21
67.886
  0
LINE
  8
LAYER_2
 10
245.4202
 20
67.886
 11
248.4202
 21
67.886
  0
ENDBLK
  0
BLOCK
  8
LAYER_2
  2
AIGNBL0201000C
 70
64
 10
0
 20
0
 30
0
  3
AIGNBL0201000C
  0
LINE
  8
LAYER_2
 10
248.4202
 20
66.2183
 11
248.4202
 21
50.886
  0
ENDBLK
  0
BLOCK
  8
LAYER_2
  2
AIGNBL0201000D
 70
64
 10
0
 20
0
 30
0
  3
AIGNBL0201000D
  0
LINE
  8
LAYER_2
 10
286.0202
 20
50.886
 11
286.0202
 21
66.2183
  0
ENDBLK
  0
BLOCK
  8
LAYER_2
  2
AIGNBL0201000E
 70
64
 10
0
 20
0
 30
0
  3
AIGNBL0201000E
  0
LINE
  8
LAYER_2
 10
289.0202
 20
67.886
 11
289.0202
 21
50.886
  0
ENDBLK
  0
BLOCK
  8
LAYER_2
  2
AIGNBL0201000F
 70
64
 10
0
 20
0
 30
0
  3
AIGNBL0201000F
  0
LINE
  8
LAYER_2
 10
248.4202
 20
66.2183
 11
248.4202
 21
41.886
  0
LINE
  8
LAYER_2
 10
248.4202
 20
41.886
 11
258.8202
 21
41.886
  0
LINE
  8
LAYER_2
 10
258.8202
 20
41.886
 11
258.8202
 21
67.886
  0
LINE
  8
LAYER_2
 10
258.8202
 20
67.886
 11
252.7202
 21
67.886
  0
ENDBLK
  0
BLOCK
  8
LAYER_2
  2
AIGNBL02010010
 70
64
 10
0
 20
0
 30
0
  3
AIGNBL02010010
  0
LINE
  8
LAYER_2
 10
258.8202
 20
41.886
 11
262.0202
 21
41.886
  0
LINE
  8
LAYER_2
 10
262.0202
 20
41.886
 11
262.0202
 21
67.886
  0
LINE
  8
LAYER_2
 10
262.0202
 20
67.886
 11
258.8202
 21
67.886
  0
LINE
  8
LAYER_2
 10
258.8202
 20
67.886
 11
258.8202
 21
41.886
  0
ENDBLK
  0
BLOCK
  8
LAYER_2
  2
AIGNBL02010011
 70
64
 10
0
 20
0
 30
0
  3
AIGNBL02010011
  0
LINE
  8
LAYER_2
 10
262.0202
 20
41.886
 11
272.4202
 21
41.886
  0
LINE
  8
LAYER_2
 10
272.4202
 20
41.886
 11
272.4202
 21
67.886
  0
LINE
  8
LAYER_2
 10
272.4202
 20
67.886
 11
262.0202
 21
67.886
  0
LINE
  8
LAYER_2
 10
262.0202
 20
67.886
 11
262.0202
 21
41.886
  0
ENDBLK
  0
BLOCK
  8
LAYER_2
  2
AIGNBL02010012
 70
64
 10
0
 20
0
 30
0
  3
AIGNBL02010012
  0
LINE
  8
LAYER_2
 10
272.4202
 20
41.886
 11
275.6202
 21
41.886
  0
LINE
  8
LAYER_2
 10
275.6202
 20
41.886
 11
275.6202
 21
67.886
  0
LINE
  8
LAYER_2
 10
275.6202
 20
67.886
 11
272.4202
 21
67.886
  0
LINE
  8
LAYER_2
 10
272.4202
 20
67.886
 11
272.4202
 21
41.886
  0
ENDBLK
  0
BLOCK
  8
LAYER_2
  2
AIGNBL02010013
 70
64
 10
0
 20
0
 30
0
  3
AIGNBL02010013
  0
ARC
  8
LAYER_2
 10
240.4202
 20
46.386
 40
1.3
 50
89.99921192
 51
180.0007881
  0
ARC
  8
LAYER_2
 10
240.4202
 20
46.386
 40
1.3
 50
0.001057281292
 51
89.99894271
  0
ARC
  8
LAYER_2
 10
240.4202
 20
46.386
 40
1.3
 50
270.0007881
 51
359.9992119
  0
ARC
  8
LAYER_2
 10
240.4202
 20
46.386
 40
1.3
 50
179.9989427
 51
270.0010573
  0
ENDBLK
  0
BLOCK
  8
LAYER_2
  2
AIGNBL02010014
 70
64
 10
0
 20
0
 30
0
  3
AIGNBL02010014
  0
ARC
  8
LAYER_2
 10
294.0202
 20
46.386
 40
1.3
 50
89.99921221
 51
180.0007878
  0
ARC
  8
LAYER_2
 10
294.0202
 20
46.386
 40
1.3
 50
0.001056986016
 51
89.998943
  0
ARC
  8
LAYER_2
 10
294.0202
 20
46.386
 40
1.3
 50
270.0007878
 51
359.9992122
  0
ARC
  8
LAYER_2
 10
294.0202
 20
46.386
 40
1.3
 50
179.998943
 51
270.001057
  0
ENDBLK
  0
BLOCK
  8
LAYER_2
  2
AIGNBL02010015
 70
64
 10
0
 20
0
 30
0
  3
AIGNBL02010015
  0
LINE
  8
LAYER_2
 10
235.4202
 20
67.886
 11
245.4202
 21
67.886
  0
LINE
  8
LAYER_2
 10
245.4202
 20
67.886
 11
245.4202
 21
59.286
  0
LINE
  8
LAYER_2
 10
245.4202
 20
59.286
 11
235.4202
 21
59.286
  0
LINE
  8
LAYER_2
 10
235.4202
 20
59.286
 11
235.4202
 21
67.886
  0
ENDBLK
  0
BLOCK
  8
LAYER_2
  2
AIGNBL02010016
 70
64
 10
0
 20
0
 30
0
  3
AIGNBL02010016
  0
ARC
  8
LAYER_2
 10
240.4202
 20
55.086
 40
2.3
 50
89.99955453
 51
180.0004455
  0
ARC
  8
LAYER_2
 10
240.4202
 20
55.086
 40
2.3
 50
0.0005975738917
 51
89.99940241
  0
ARC
  8
LAYER_2
 10
240.4202
 20
55.086
 40
2.3
 50
270.0004455
 51
359.9995545
  0
ARC
  8
LAYER_2
 10
240.4202
 20
55.086
 40
2.3
 50
179.9994024
 51
270.0005976
  0
ENDBLK
  0
BLOCK
  8
LAYER_2
  2
AIGNBL02010017
 70
64
 10
0
 20
0
 30
0
  3
AIGNBL02010017
  0
LINE
  8
LAYER_2
 10
240.9202
 20
55.086
 11
239.9202
 21
55.086
  0
ENDBLK
  0
BLOCK
  8
LAYER_2
  2
AIGNBL02010018
 70
64
 10
0
 20
0
 30
0
  3
AIGNBL02010018
  0
LINE
  8
LAYER_2
 10
240.4202
 20
55.586
 11
240.4202
 21
54.586
  0
ENDBLK
  0
BLOCK
  8
LAYER_2
  2
AIGNBL02010019
 70
64
 10
0
 20
0
 30
0
  3
AIGNBL02010019
  0
ARC
  8
LAYER_2
 10
240.4202
 20
63.586
 40
2.6
 50
89.99960591
 51
180.0003941
  0
ARC
  8
LAYER_2
 10
240.4202
 20
63.586
 40
2.6
 50
0.0005286012904
 51
89.99947139
  0
ARC
  8
LAYER_2
 10
240.4202
 20
63.586
 40
2.6
 50
270.0003941
 51
359.9996059
  0
ARC
  8
LAYER_2
 10
240.4202
 20
63.586
 40
2.6
 50
179.9994714
 51
270.0005286
  0
ENDBLK
  0
BLOCK
  8
LAYER_2
  2
AIGNBL0201001A
 70
64
 10
0
 20
0
 30
0
  3
AIGNBL0201001A
  0
LINE
  8
LAYER_2
 10
239.9202
 20
64.086
 11
239.9202
 21
65.086
  0
LINE
  8
LAYER_2
 10
239.9202
 20
65.086
 11
240.9202
 21
65.086
  0
LINE
  8
LAYER_2
 10
240.9202
 20
65.086
 11
240.9202
 21
64.086
  0
ENDBLK
  0
BLOCK
  8
LAYER_2
  2
AIGNBL0201001B
 70
64
 10
0
 20
0
 30
0
  3
AIGNBL0201001B
  0
LINE
  8
LAYER_2
 10
240.9202
 20
63.086
 11
240.9202
 21
62.086
  0
LINE
  8
LAYER_2
 10
240.9202
 20
62.086
 11
239.9202
 21
62.086
  0
LINE
  8
LAYER_2
 10
239.9202
 20
62.086
 11
239.9202
 21
63.086
  0
ENDBLK
  0
BLOCK
  8
LAYER_2
  2
AIGNBL0201001C
 70
64
 10
0
 20
0
 30
0
  3
AIGNBL0201001C
  0
LINE
  8
LAYER_2
 10
239.9202
 20
64.086
 11
238.9202
 21
64.086
  0
LINE
  8
LAYER_2
 10
238.9202
 20
64.086
 11
238.9202
 21
63.086
  0
LINE
  8
LAYER_2
 10
238.9202
 20
63.086
 11
239.9202
 21
63.086
  0
ENDBLK
  0
BLOCK
  8
LAYER_2
  2
AIGNBL0201001D
 70
64
 10
0
 20
0
 30
0
  3
AIGNBL0201001D
  0
LINE
  8
LAYER_2
 10
240.9202
 20
63.086
 11
241.9202
 21
63.086
  0
LINE
  8
LAYER_2
 10
241.9202
 20
63.086
 11
241.9202
 21
64.086
  0
LINE
  8
LAYER_2
 10
241.9202
 20
64.086
 11
240.9202
 21
64.086
  0
ENDBLK
  0
BLOCK
  8
LAYER_2
  2
AIGNBL0201001E
 70
64
 10
0
 20
0
 30
0
  3
AIGNBL0201001E
  0
LINE
  8
LAYER_2
 10
248.4202
 20
61.086
 11
258.8202
 21
61.086
  0
ENDBLK
  0
BLOCK
  8
LAYER_2
  2
AIGNBL0201001F
 70
64
 10
0
 20
0
 30
0
  3
AIGNBL0201001F
  0
LINE
  8
LAYER_2
 10
258.8202
 20
49.086
 11
248.4202
 21
49.086
  0
ENDBLK
  0
BLOCK
  8
LAYER_2
  2
AIGNBL02010020
 70
64
 10
0
 20
0
 30
0
  3
AIGNBL02010020
  0
LINE
  8
LAYER_2
 10
262.0202
 20
61.086
 11
272.4202
 21
61.086
  0
ENDBLK
  0
BLOCK
  8
LAYER_2
  2
AIGNBL02010021
 70
64
 10
0
 20
0
 30
0
  3
AIGNBL02010021
  0
LINE
  8
LAYER_2
 10
272.4202
 20
49.086
 11
262.0202
 21
49.086
  0
ENDBLK
  0
BLOCK
  8
LAYER_2
  2
AIGNBL02010022
 70
64
 10
0
 20
0
 30
0
  3
AIGNBL02010022
  0
LINE
  8
LAYER_2
 10
275.6202
 20
61.086
 11
286.0202
 21
61.086
  0
ENDBLK
  0
BLOCK
  8
LAYER_2
  2
AIGNBL02010023
 70
64
 10
0
 20
0
 30
0
  3
AIGNBL02010023
  0
LINE
  8
LAYER_2
 10
286.0202
 20
49.086
 11
275.6202
 21
49.086
  0
ENDBLK
  0
BLOCK
  8
LAYER_2
  2
AIGNBL02010024
 70
64
 10
0
 20
0
 30
0
  3
AIGNBL02010024
  0
LINE
  8
LAYER_2
 10
289.0202
 20
67.886
 11
299.0202
 21
67.886
  0
LINE
  8
LAYER_2
 10
299.0202
 20
67.886
 11
299.0202
 21
59.286
  0
LINE
  8
LAYER_2
 10
299.0202
 20
59.286
 11
289.0202
 21
59.286
  0
LINE
  8
LAYER_2
 10
289.0202
 20
59.286
 11
289.0202
 21
67.886
  0
ENDBLK
  0
BLOCK
  8
LAYER_2
  2
AIGNBL02010025
 70
64
 10
0
 20
0
 30
0
  3
AIGNBL02010025
  0
ARC
  8
LAYER_2
 10
294.0202
 20
55.086
 40
2.3
 50
89.9995547
 51
180.0004453
  0
ARC
  8
LAYER_2
 10
294.0202
 20
55.086
 40
2.3
 50
0.0005974069961
 51
89.99940258
  0
ARC
  8
LAYER_2
 10
294.0202
 20
55.086
 40
2.3
 50
270.0004453
 51
359.9995547
  0
ARC
  8
LAYER_2
 10
294.0202
 20
55.086
 40
2.3
 50
179.9994026
 51
270.0005974
  0
ENDBLK
  0
BLOCK
  8
LAYER_2
  2
AIGNBL02010026
 70
64
 10
0
 20
0
 30
0
  3
AIGNBL02010026
  0
LINE
  8
LAYER_2
 10
294.5202
 20
55.086
 11
293.5202
 21
55.086
  0
ENDBLK
  0
BLOCK
  8
LAYER_2
  2
AIGNBL02010027
 70
64
 10
0
 20
0
 30
0
  3
AIGNBL02010027
  0
LINE
  8
LAYER_2
 10
294.0202
 20
55.586
 11
294.0202
 21
54.586
  0
ENDBLK
  0
BLOCK
  8
LAYER_2
  2
AIGNBL02010028
 70
64
 10
0
 20
0
 30
0
  3
AIGNBL02010028
  0
ARC
  8
LAYER_2
 10
294.0202
 20
63.586
 40
2.6
 50
89.99960606
 51
180.000394
  0
ARC
  8
LAYER_2
 10
294.0202
 20
63.586
 40
2.6
 50
0.0005284536523
 51
89.99947153
  0
ARC
  8
LAYER_2
 10
294.0202
 20
63.586
 40
2.6
 50
270.000394
 51
359.999606
  0
ARC
  8
LAYER_2
 10
294.0202
 20
63.586
 40
2.6
 50
179.9994715
 51
270.0005285
  0
ENDBLK
  0
BLOCK
  8
LAYER_2
  2
AIGNBL02010029
 70
64
 10
0
 20
0
 30
0
  3
AIGNBL02010029
  0
LINE
  8
LAYER_2
 10
293.5202
 20
64.086
 11
293.5202
 21
65.086
  0
LINE
  8
LAYER_2
 10
293.5202
 20
65.086
 11
294.5202
 21
65.086
  0
LINE
  8
LAYER_2
 10
294.5202
 20
65.086
 11
294.5202
 21
64.086
  0
ENDBLK
  0
BLOCK
  8
LAYER_2
  2
AIGNBL0201002A
 70
64
 10
0
 20
0
 30
0
  3
AIGNBL0201002A
  0
LINE
  8
LAYER_2
 10
294.5202
 20
63.086
 11
294.5202
 21
62.086
  0
LINE
  8
LAYER_2
 10
294.5202
 20
62.086
 11
293.5202
 21
62.086
  0
LINE
  8
LAYER_2
 10
293.5202
 20
62.086
 11
293.5202
 21
63.086
  0
ENDBLK
  0
BLOCK
  8
LAYER_2
  2
AIGNBL0201002B
 70
64
 10
0
 20
0
 30
0
  3
AIGNBL0201002B
  0
LINE
  8
LAYER_2
 10
293.5202
 20
64.086
 11
292.5202
 21
64.086
  0
LINE
  8
LAYER_2
 10
292.5202
 20
64.086
 11
292.5202
 21
63.086
  0
LINE
  8
LAYER_2
 10
292.5202
 20
63.086
 11
293.5202
 21
63.086
  0
ENDBLK
  0
BLOCK
  8
LAYER_2
  2
AIGNBL0201002C
 70
64
 10
0
 20
0
 30
0
  3
AIGNBL0201002C
  0
LINE
  8
LAYER_2
 10
294.5202
 20
63.086
 11
295.5202
 21
63.086
  0
LINE
  8
LAYER_2
 10
295.5202
 20
63.086
 11
295.5202
 21
64.086
  0
LINE
  8
LAYER_2
 10
295.5202
 20
64.086
 11
294.5202
 21
64.086
  0
ENDBLK
  0
BLOCK
  8
LAYER_2
  2
AIGNBL0201002D
 70
64
 10
0
 20
0
 30
0
  3
AIGNBL0201002D
  0
ARC
  8
LAYER_2
 10
253.6202
 20
55.086
 40
4
 50
89.99974388
 51
180.0002561
  0
ARC
  8
LAYER_2
 10
253.6202
 20
55.086
 40
4
 50
0.0003435870302
 51
89.9996564
  0
ARC
  8
LAYER_2
 10
253.6202
 20
55.086
 40
4
 50
270.0002561
 51
359.9997439
  0
ARC
  8
LAYER_2
 10
253.6202
 20
55.086
 40
4
 50
179.9996564
 51
270.0003436
  0
ENDBLK
  0
BLOCK
  8
LAYER_2
  2
AIGNBL0201002E
 70
64
 10
0
 20
0
 30
0
  3
AIGNBL0201002E
  0
ARC
  8
LAYER_2
 10
267.2202
 20
55.086
 40
4
 50
89.9997439
 51
180.0002561
  0
ARC
  8
LAYER_2
 10
267.2202
 20
55.086
 40
4
 50
0.0003435626762
 51
89.99965643
  0
ARC
  8
LAYER_2
 10
267.2202
 20
55.086
 40
4
 50
270.0002561
 51
359.9997439
  0
ARC
  8
LAYER_2
 10
267.2202
 20
55.086
 40
4
 50
179.9996564
 51
270.0003436
  0
ENDBLK
  0
BLOCK
  8
LAYER_2
  2
AIGNBL0201002F
 70
64
 10
0
 20
0
 30
0
  3
AIGNBL0201002F
  0
ARC
  8
LAYER_2
 10
280.8202
 20
55.086
 40
4
 50
89.99974393
 51
180.0002561
  0
ARC
  8
LAYER_2
 10
280.8202
 20
55.086
 40
4
 50
0.000343538322
 51
89.99965645
  0
ARC
  8
LAYER_2
 10
280.8202
 20
55.086
 40
4
 50
270.0002561
 51
359.9997439
  0
ARC
  8
LAYER_2
 10
280.8202
 20
55.086
 40
4
 50
179.9996564
 51
270.0003436
  0
ENDBLK
  0
BLOCK
  8
LAYER_2
  2
AIGNBL02010030
 70
64
 10
0
 20
0
 30
0
  3
AIGNBL02010030
  0
ARC
  8
LAYER_2
 10
267.2202
 20
55.086
 40
3
 50
89.99965854
 51
180.0003415
  0
ARC
  8
LAYER_2
 10
267.2202
 20
55.086
 40
3
 50
0.0004580792441
 51
89.99954191
  0
ARC
  8
LAYER_2
 10
267.2202
 20
55.086
 40
3
 50
270.0003415
 51
359.9996585
  0
ARC
  8
LAYER_2
 10
267.2202
 20
55.086
 40
3
 50
179.9995419
 51
270.0004581
  0
ENDBLK
  0
BLOCK
  8
LAYER_2
  2
AIGNBL02010031
 70
64
 10
0
 20
0
 30
0
  3
AIGNBL02010031
  0
ARC
  8
LAYER_2
 10
253.6202
 20
55.086
 40
3
 50
89.99965851
 51
180.0003415
  0
ARC
  8
LAYER_2
 10
253.6202
 20
55.086
 40
3
 50
0.0004581117166
 51
89.99954188
  0
ARC
  8
LAYER_2
 10
253.6202
 20
55.086
 40
3
 50
270.0003415
 51
359.9996585
  0
ARC
  8
LAYER_2
 10
253.6202
 20
55.086
 40
3
 50
179.9995419
 51
270.0004581
  0
ENDBLK
  0
BLOCK
  8
LAYER_2
  2
AIGNBL02010032
 70
64
 10
0
 20
0
 30
0
  3
AIGNBL02010032
  0
LINE
  8
LAYER_2
 10
280.2202
 20
55.686
 11
278.4202
 21
55.686
  0
LINE
  8
LAYER_2
 10
278.4202
 20
55.686
 11
278.4202
 21
54.486
  0
LINE
  8
LAYER_2
 10
278.4202
 20
54.486
 11
280.2202
 21
54.486
  0
ENDBLK
  0
BLOCK
  8
LAYER_2
  2
AIGNBL02010033
 70
64
 10
0
 20
0
 30
0
  3
AIGNBL02010033
  0
LINE
  8
LAYER_2
 10
281.4202
 20
54.486
 11
283.2202
 21
54.486
  0
LINE
  8
LAYER_2
 10
283.2202
 20
54.486
 11
283.2202
 21
55.686
  0
LINE
  8
LAYER_2
 10
283.2202
 20
55.686
 11
281.4202
 21
55.686
  0
ENDBLK
  0
BLOCK
  8
LAYER_2
  2
AIGNBL02010034
 70
64
 10
0
 20
0
 30
0
  3
AIGNBL02010034
  0
LINE
  8
LAYER_2
 10
281.4202
 20
54.486
 11
281.4202
 21
52.686
  0
LINE
  8
LAYER_2
 10
281.4202
 20
52.686
 11
280.2202
 21
52.686
  0
LINE
  8
LAYER_2
 10
280.2202
 20
52.686
 11
280.2202
 21
54.486
  0
ENDBLK
  0
BLOCK
  8
LAYER_2
  2
AIGNBL02010035
 70
64
 10
0
 20
0
 30
0
  3
AIGNBL02010035
  0
LINE
  8
LAYER_2
 10
280.2202
 20
55.686
 11
280.2202
 21
57.486
  0
LINE
  8
LAYER_2
 10
280.2202
 20
57.486
 11
281.4202
 21
57.486
  0
LINE
  8
LAYER_2
 10
281.4202
 20
57.486
 11
281.4202
 21
55.686
  0
ENDBLK
  0
BLOCK
  8
LAYER_2
  2
AIGNBL02010036
 70
64
 10
0
 20
0
 30
0
  3
AIGNBL02010036
  0
LINE
  8
LAYER_2
 10
235.4202
 20
67.886
 11
246.1202
 21
67.886
  0
ENDBLK
  0
BLOCK
  8
LAYER_2
  2
AIGNBL02010037
 70
64
 10
0
 20
0
 30
0
  3
AIGNBL02010037
  0
LINE
  8
LAYER_2
 10
299.0202
 20
67.886
 11
289.0202
 21
67.886
  0
ENDBLK
  0
BLOCK
  8
LAYER_2
  2
AIGNBL02010038
 70
64
 10
0
 20
0
 30
0
  3
AIGNBL02010038
  0
ARC
  8
LAYER_2
 10
247.1526
 20
67.8965
 40
1.0325
 50
180.5847858
 51
214.9915542
  0
ARC
  8
LAYER_2
 10
247.782
 20
68.3132
 40
1.7871
 50
214.364013
 51
238.5175981
  0
ARC
  8
LAYER_2
 10
248.7349
 20
69.7079
 40
3.4752
 50
237.1287181
 51
254.6041257
  0
ARC
  8
LAYER_2
 10
249.3303
 20
71.5398
 40
5.4001
 50
253.6736527
 51
266.9319908
  0
ARC
  8
LAYER_2
 10
249.42
 20
72.4267
 40
6.2907
 50
266.5483296
 51
270.0018018
  0
ARC
  8
LAYER_2
 10
249.4347
 20
72.0325
 40
5.8965
 50
269.859098
 51
283.896592
  0
ARC
  8
LAYER_2
 10
249.8584
 20
70.287
 40
4.1003
 50
284.0070637
 51
299.6904355
  0
ARC
  8
LAYER_2
 10
250.7951
 20
68.6017
 40
2.1725
 50
300.2449527
 51
321.3313159
  0
ARC
  8
LAYER_2
 10
251.5757
 20
67.94
 40
1.1499
 50
322.7717944
 51
351.6809127
  0
ARC
  8
LAYER_2
 10
251.7644
 20
67.8866
 40
0.9558
 50
353.2139177
 51
359.9669148
  0
ENDBLK
  0
BLOCK
  8
LAYER_2
  2
AIGNBL02010039
 70
64
 10
0
 20
0
 30
0
  3
AIGNBL02010039
  0
ARC
  8
LAYER_2
 10
282.7526
 20
67.8965
 40
1.0325
 50
180.5847858
 51
214.9915542
  0
ARC
  8
LAYER_2
 10
283.382
 20
68.3132
 40
1.7871
 50
214.364013
 51
238.5175981
  0
ARC
  8
LAYER_2
 10
284.3349
 20
69.7079
 40
3.4752
 50
237.1287181
 51
254.6041257
  0
ARC
  8
LAYER_2
 10
284.9303
 20
71.5398
 40
5.4001
 50
253.6736527
 51
266.9319908
  0
ARC
  8
LAYER_2
 10
285.02
 20
72.4267
 40
6.2907
 50
266.5483296
 51
270.0018018
  0
ARC
  8
LAYER_2
 10
285.0347
 20
72.0325
 40
5.8965
 50
269.859098
 51
283.896592
  0
ARC
  8
LAYER_2
 10
285.4584
 20
70.287
 40
4.1003
 50
284.0070637
 51
299.6904355
  0
ARC
  8
LAYER_2
 10
286.3951
 20
68.6017
 40
2.1725
 50
300.2449527
 51
321.3313159
  0
ARC
  8
LAYER_2
 10
287.1757
 20
67.94
 40
1.1499
 50
322.7717944
 51
351.6809127
  0
ARC
  8
LAYER_2
 10
287.3644
 20
67.8866
 40
0.9558
 50
353.2139177
 51
359.9669148
  0
ENDBLK
  0
BLOCK
  8
LAYER_2
  2
AIGNBL0201003A
 70
64
 10
0
 20
0
 30
0
  3
AIGNBL0201003A
  0
LINE
  8
LAYER_2
 10
245.4202
 20
152.886
 11
235.4202
 21
152.886
  0
LINE
  8
LAYER_2
 10
235.4202
 20
152.886
 11
235.4202
 21
161.886
  0
LINE
  8
LAYER_2
 10
235.4202
 20
161.886
 11
248.4202
 21
161.886
  0
LINE
  8
LAYER_2
 10
248.4202
 20
161.886
 11
248.4202
 21
152.886
  0
ENDBLK
  0
BLOCK
  8
LAYER_2
  2
AIGNBL0201003B
 70
64
 10
0
 20
0
 30
0
  3
AIGNBL0201003B
  0
LINE
  8
LAYER_2
 10
286.0202
 20
152.886
 11
286.0202
 21
161.886
  0
LINE
  8
LAYER_2
 10
286.0202
 20
161.886
 11
299.0202
 21
161.886
  0
LINE
  8
LAYER_2
 10
299.0202
 20
161.886
 11
299.0202
 21
152.886
  0
LINE
  8
LAYER_2
 10
299.0202
 20
152.886
 11
289.0202
 21
152.886
  0
ENDBLK
  0
BLOCK
  8
LAYER_2
  2
AIGNBL0201003C
 70
64
 10
0
 20
0
 30
0
  3
AIGNBL0201003C
  0
LINE
  8
LAYER_2
 10
245.4202
 20
152.886
 11
245.4202
 21
135.886
  0
LINE
  8
LAYER_2
 10
245.4202
 20
135.886
 11
248.4202
 21
135.886
  0
LINE
  8
LAYER_2
 10
248.4202
 20
135.886
 11
248.4202
 21
152.886
  0
ENDBLK
  0
BLOCK
  8
LAYER_2
  2
AIGNBL0201003D
 70
64
 10
0
 20
0
 30
0
  3
AIGNBL0201003D
  0
LINE
  8
LAYER_2
 10
286.0202
 20
152.886
 11
286.0202
 21
135.886
  0
LINE
  8
LAYER_2
 10
286.0202
 20
135.886
 11
289.0202
 21
135.886
  0
LINE
  8
LAYER_2
 10
289.0202
 20
135.886
 11
289.0202
 21
152.886
  0
ENDBLK
  0
BLOCK
  8
LAYER_2
  2
AIGNBL0201003E
 70
64
 10
0
 20
0
 30
0
  3
AIGNBL0201003E
  0
LINE
  8
LAYER_2
 10
248.4202
 20
161.886
 11
258.8202
 21
161.886
  0
LINE
  8
LAYER_2
 10
258.8202
 20
161.886
 11
258.8202
 21
135.886
  0
LINE
  8
LAYER_2
 10
258.8202
 20
135.886
 11
248.4202
 21
135.886
  0
LINE
  8
LAYER_2
 10
248.4202
 20
135.886
 11
248.4202
 21
161.886
  0
ENDBLK
  0
BLOCK
  8
LAYER_2
  2
AIGNBL0201003F
 70
64
 10
0
 20
0
 30
0
  3
AIGNBL0201003F
  0
LINE
  8
LAYER_2
 10
258.8202
 20
161.886
 11
262.0202
 21
161.886
  0
LINE
  8
LAYER_2
 10
262.0202
 20
161.886
 11
262.0202
 21
135.886
  0
LINE
  8
LAYER_2
 10
262.0202
 20
135.886
 11
258.8202
 21
135.886
  0
LINE
  8
LAYER_2
 10
258.8202
 20
135.886
 11
258.8202
 21
161.886
  0
ENDBLK
  0
BLOCK
  8
LAYER_2
  2
AIGNBL02010040
 70
64
 10
0
 20
0
 30
0
  3
AIGNBL02010040
  0
LINE
  8
LAYER_2
 10
262.0202
 20
161.886
 11
272.4202
 21
161.886
  0
LINE
  8
LAYER_2
 10
272.4202
 20
161.886
 11
272.4202
 21
135.886
  0
LINE
  8
LAYER_2
 10
272.4202
 20
135.886
 11
262.0202
 21
135.886
  0
LINE
  8
LAYER_2
 10
262.0202
 20
135.886
 11
262.0202
 21
161.886
  0
ENDBLK
  0
BLOCK
  8
LAYER_2
  2
AIGNBL02010041
 70
64
 10
0
 20
0
 30
0
  3
AIGNBL02010041
  0
LINE
  8
LAYER_2
 10
272.4202
 20
161.886
 11
275.6202
 21
161.886
  0
LINE
  8
LAYER_2
 10
275.6202
 20
161.886
 11
275.6202
 21
135.886
  0
LINE
  8
LAYER_2
 10
275.6202
 20
135.886
 11
272.4202
 21
135.886
  0
LINE
  8
LAYER_2
 10
272.4202
 20
135.886
 11
272.4202
 21
161.886
  0
ENDBLK
  0
BLOCK
  8
LAYER_2
  2
AIGNBL02010042
 70
64
 10
0
 20
0
 30
0
  3
AIGNBL02010042
  0
ARC
  8
LAYER_2
 10
240.4202
 20
157.386
 40
1.3
 50
89.9992113
 51
180.0007887
  0
ARC
  8
LAYER_2
 10
240.4202
 20
157.386
 40
1.3
 50
0.001056669793
 51
89.99894332
  0
ARC
  8
LAYER_2
 10
240.4202
 20
157.386
 40
1.3
 50
270.0007887
 51
359.9992113
  0
ARC
  8
LAYER_2
 10
240.4202
 20
157.386
 40
1.3
 50
179.9989433
 51
270.0010567
  0
ENDBLK
  0
BLOCK
  8
LAYER_2
  2
AIGNBL02010043
 70
64
 10
0
 20
0
 30
0
  3
AIGNBL02010043
  0
ARC
  8
LAYER_2
 10
294.0202
 20
157.386
 40
1.3
 50
89.9992116
 51
180.0007884
  0
ARC
  8
LAYER_2
 10
294.0202
 20
157.386
 40
1.3
 50
0.001056374518
 51
89.99894361
  0
ARC
  8
LAYER_2
 10
294.0202
 20
157.386
 40
1.3
 50
270.0007884
 51
359.9992116
  0
ARC
  8
LAYER_2
 10
294.0202
 20
157.386
 40
1.3
 50
179.9989436
 51
270.0010564
  0
ENDBLK
  0
BLOCK
  8
LAYER_2
  2
AIGNBL02010044
 70
64
 10
0
 20
0
 30
0
  3
AIGNBL02010044
  0
LINE
  8
LAYER_2
 10
235.4202
 20
135.886
 11
245.4202
 21
135.886
  0
LINE
  8
LAYER_2
 10
245.4202
 20
135.886
 11
245.4202
 21
144.486
  0
LINE
  8
LAYER_2
 10
245.4202
 20
144.486
 11
235.4202
 21
144.486
  0
LINE
  8
LAYER_2
 10
235.4202
 20
144.486
 11
235.4202
 21
135.886
  0
ENDBLK
  0
BLOCK
  8
LAYER_2
  2
AIGNBL02010045
 70
64
 10
0
 20
0
 30
0
  3
AIGNBL02010045
  0
ARC
  8
LAYER_2
 10
240.4202
 20
148.686
 40
2.3
 50
89.99955424
 51
180.0004458
  0
ARC
  8
LAYER_2
 10
240.4202
 20
148.686
 40
2.3
 50
0.0005972824327
 51
89.99940271
  0
ARC
  8
LAYER_2
 10
240.4202
 20
148.686
 40
2.3
 50
270.0004458
 51
359.9995542
  0
ARC
  8
LAYER_2
 10
240.4202
 20
148.686
 40
2.3
 50
179.9994027
 51
270.0005973
  0
ENDBLK
  0
BLOCK
  8
LAYER_2
  2
AIGNBL02010046
 70
64
 10
0
 20
0
 30
0
  3
AIGNBL02010046
  0
LINE
  8
LAYER_2
 10
240.9202
 20
148.686
 11
239.9202
 21
148.686
  0
ENDBLK
  0
BLOCK
  8
LAYER_2
  2
AIGNBL02010047
 70
64
 10
0
 20
0
 30
0
  3
AIGNBL02010047
  0
LINE
  8
LAYER_2
 10
240.4202
 20
148.186
 11
240.4202
 21
149.186
  0
ENDBLK
  0
BLOCK
  8
LAYER_2
  2
AIGNBL02010048
 70
64
 10
0
 20
0
 30
0
  3
AIGNBL02010048
  0
ARC
  8
LAYER_2
 10
240.4202
 20
140.186
 40
2.6
 50
89.9996057
 51
180.0003943
  0
ARC
  8
LAYER_2
 10
240.4202
 20
140.186
 40
2.6
 50
0.0005283903001
 51
89.9994716
  0
ARC
  8
LAYER_2
 10
240.4202
 20
140.186
 40
2.6
 50
270.0003943
 51
359.9996057
  0
ARC
  8
LAYER_2
 10
240.4202
 20
140.186
 40
2.6
 50
179.9994716
 51
270.0005284
  0
ENDBLK
  0
BLOCK
  8
LAYER_2
  2
AIGNBL02010049
 70
64
 10
0
 20
0
 30
0
  3
AIGNBL02010049
  0
LINE
  8
LAYER_2
 10
239.9202
 20
139.686
 11
239.9202
 21
138.686
  0
LINE
  8
LAYER_2
 10
239.9202
 20
138.686
 11
240.9202
 21
138.686
  0
LINE
  8
LAYER_2
 10
240.9202
 20
138.686
 11
240.9202
 21
139.686
  0
ENDBLK
  0
BLOCK
  8
LAYER_2
  2
AIGNBL0201004A
 70
64
 10
0
 20
0
 30
0
  3
AIGNBL0201004A
  0
LINE
  8
LAYER_2
 10
240.9202
 20
140.686
 11
240.9202
 21
141.686
  0
LINE
  8
LAYER_2
 10
240.9202
 20
141.686
 11
239.9202
 21
141.686
  0
LINE
  8
LAYER_2
 10
239.9202
 20
141.686
 11
239.9202
 21
140.686
  0
ENDBLK
  0
BLOCK
  8
LAYER_2
  2
AIGNBL0201004B
 70
64
 10
0
 20
0
 30
0
  3
AIGNBL0201004B
  0
LINE
  8
LAYER_2
 10
239.9202
 20
139.686
 11
238.9202
 21
139.686
  0
LINE
  8
LAYER_2
 10
238.9202
 20
139.686
 11
238.9202
 21
140.686
  0
LINE
  8
LAYER_2
 10
238.9202
 20
140.686
 11
239.9202
 21
140.686
  0
ENDBLK
  0
BLOCK
  8
LAYER_2
  2
AIGNBL0201004C
 70
64
 10
0
 20
0
 30
0
  3
AIGNBL0201004C
  0
LINE
  8
LAYER_2
 10
240.9202
 20
140.686
 11
241.9202
 21
140.686
  0
LINE
  8
LAYER_2
 10
241.9202
 20
140.686
 11
241.9202
 21
139.686
  0
LINE
  8
LAYER_2
 10
241.9202
 20
139.686
 11
240.9202
 21
139.686
  0
ENDBLK
  0
BLOCK
  8
LAYER_2
  2
AIGNBL0201004D
 70
64
 10
0
 20
0
 30
0
  3
AIGNBL0201004D
  0
LINE
  8
LAYER_2
 10
248.4202
 20
142.686
 11
258.8202
 21
142.686
  0
ENDBLK
  0
BLOCK
  8
LAYER_2
  2
AIGNBL0201004E
 70
64
 10
0
 20
0
 30
0
  3
AIGNBL0201004E
  0
LINE
  8
LAYER_2
 10
258.8202
 20
154.686
 11
248.4202
 21
154.686
  0
ENDBLK
  0
BLOCK
  8
LAYER_2
  2
AIGNBL0201004F
 70
64
 10
0
 20
0
 30
0
  3
AIGNBL0201004F
  0
LINE
  8
LAYER_2
 10
262.0202
 20
142.686
 11
272.4202
 21
142.686
  0
ENDBLK
  0
BLOCK
  8
LAYER_2
  2
AIGNBL02010050
 70
64
 10
0
 20
0
 30
0
  3
AIGNBL02010050
  0
LINE
  8
LAYER_2
 10
272.4202
 20
154.686
 11
262.0202
 21
154.686
  0
ENDBLK
  0
BLOCK
  8
LAYER_2
  2
AIGNBL02010051
 70
64
 10
0
 20
0
 30
0
  3
AIGNBL02010051
  0
LINE
  8
LAYER_2
 10
275.6202
 20
142.686
 11
286.0202
 21
142.686
  0
ENDBLK
  0
BLOCK
  8
LAYER_2
  2
AIGNBL02010052
 70
64
 10
0
 20
0
 30
0
  3
AIGNBL02010052
  0
LINE
  8
LAYER_2
 10
286.0202
 20
154.686
 11
275.6202
 21
154.686
  0
ENDBLK
  0
BLOCK
  8
LAYER_2
  2
AIGNBL02010053
 70
64
 10
0
 20
0
 30
0
  3
AIGNBL02010053
  0
LINE
  8
LAYER_2
 10
289.0202
 20
135.886
 11
299.0202
 21
135.886
  0
LINE
  8
LAYER_2
 10
299.0202
 20
135.886
 11
299.0202
 21
144.486
  0
LINE
  8
LAYER_2
 10
299.0202
 20
144.486
 11
289.0202
 21
144.486
  0
LINE
  8
LAYER_2
 10
289.0202
 20
144.486
 11
289.0202
 21
135.886
  0
ENDBLK
  0
BLOCK
  8
LAYER_2
  2
AIGNBL02010054
 70
64
 10
0
 20
0
 30
0
  3
AIGNBL02010054
  0
ARC
  8
LAYER_2
 10
294.0202
 20
148.686
 40
2.3
 50
89.99955441
 51
180.0004456
  0
ARC
  8
LAYER_2
 10
294.0202
 20
148.686
 40
2.3
 50
0.0005971155371
 51
89.99940287
  0
ARC
  8
LAYER_2
 10
294.0202
 20
148.686
 40
2.3
 50
270.0004456
 51
359.9995544
  0
ARC
  8
LAYER_2
 10
294.0202
 20
148.686
 40
2.3
 50
179.9994029
 51
270.0005971
  0
ENDBLK
  0
BLOCK
  8
LAYER_2
  2
AIGNBL02010055
 70
64
 10
0
 20
0
 30
0
  3
AIGNBL02010055
  0
LINE
  8
LAYER_2
 10
294.5202
 20
148.686
 11
293.5202
 21
148.686
  0
ENDBLK
  0
BLOCK
  8
LAYER_2
  2
AIGNBL02010056
 70
64
 10
0
 20
0
 30
0
  3
AIGNBL02010056
  0
LINE
  8
LAYER_2
 10
294.0202
 20
148.186
 11
294.0202
 21
149.186
  0
ENDBLK
  0
BLOCK
  8
LAYER_2
  2
AIGNBL02010057
 70
64
 10
0
 20
0
 30
0
  3
AIGNBL02010057
  0
ARC
  8
LAYER_2
 10
294.0202
 20
140.186
 40
2.6
 50
89.99960584
 51
180.0003942
  0
ARC
  8
LAYER_2
 10
294.0202
 20
140.186
 40
2.6
 50
0.0005282426618
 51
89.99947175
  0
ARC
  8
LAYER_2
 10
294.0202
 20
140.186
 40
2.6
 50
270.0003942
 51
359.9996058
  0
ARC
  8
LAYER_2
 10
294.0202
 20
140.186
 40
2.6
 50
179.9994717
 51
270.0005283
  0
ENDBLK
  0
BLOCK
  8
LAYER_2
  2
AIGNBL02010058
 70
64
 10
0
 20
0
 30
0
  3
AIGNBL02010058
  0
LINE
  8
LAYER_2
 10
293.5202
 20
139.686
 11
293.5202
 21
138.686
  0
LINE
  8
LAYER_2
 10
293.5202
 20
138.686
 11
294.5202
 21
138.686
  0
LINE
  8
LAYER_2
 10
294.5202
 20
138.686
 11
294.5202
 21
139.686
  0
ENDBLK
  0
BLOCK
  8
LAYER_2
  2
AIGNBL02010059
 70
64
 10
0
 20
0
 30
0
  3
AIGNBL02010059
  0
LINE
  8
LAYER_2
 10
294.5202
 20
140.686
 11
294.5202
 21
141.686
  0
LINE
  8
LAYER_2
 10
294.5202
 20
141.686
 11
293.5202
 21
141.686
  0
LINE
  8
LAYER_2
 10
293.5202
 20
141.686
 11
293.5202
 21
140.686
  0
ENDBLK
  0
BLOCK
  8
LAYER_2
  2
AIGNBL0201005A
 70
64
 10
0
 20
0
 30
0
  3
AIGNBL0201005A
  0
LINE
  8
LAYER_2
 10
293.5202
 20
139.686
 11
292.5202
 21
139.686
  0
LINE
  8
LAYER_2
 10
292.5202
 20
139.686
 11
292.5202
 21
140.686
  0
LINE
  8
LAYER_2
 10
292.5202
 20
140.686
 11
293.5202
 21
140.686
  0
ENDBLK
  0
BLOCK
  8
LAYER_2
  2
AIGNBL0201005B
 70
64
 10
0
 20
0
 30
0
  3
AIGNBL0201005B
  0
LINE
  8
LAYER_2
 10
294.5202
 20
140.686
 11
295.5202
 21
140.686
  0
LINE
  8
LAYER_2
 10
295.5202
 20
140.686
 11
295.5202
 21
139.686
  0
LINE
  8
LAYER_2
 10
295.5202
 20
139.686
 11
294.5202
 21
139.686
  0
ENDBLK
  0
BLOCK
  8
LAYER_2
  2
AIGNBL0201005C
 70
64
 10
0
 20
0
 30
0
  3
AIGNBL0201005C
  0
ARC
  8
LAYER_2
 10
253.6202
 20
148.686
 40
4
 50
89.99974371
 51
180.0002563
  0
ARC
  8
LAYER_2
 10
253.6202
 20
148.686
 40
4
 50
0.0003434194386
 51
89.99965657
  0
ARC
  8
LAYER_2
 10
253.6202
 20
148.686
 40
4
 50
270.0002563
 51
359.9997437
  0
ARC
  8
LAYER_2
 10
253.6202
 20
148.686
 40
4
 50
179.9996566
 51
270.0003434
  0
ENDBLK
  0
BLOCK
  8
LAYER_2
  2
AIGNBL0201005D
 70
64
 10
0
 20
0
 30
0
  3
AIGNBL0201005D
  0
ARC
  8
LAYER_2
 10
267.2202
 20
148.686
 40
4
 50
89.99974374
 51
180.0002563
  0
ARC
  8
LAYER_2
 10
267.2202
 20
148.686
 40
4
 50
0.0003433950845
 51
89.99965659
  0
ARC
  8
LAYER_2
 10
267.2202
 20
148.686
 40
4
 50
270.0002563
 51
359.9997437
  0
ARC
  8
LAYER_2
 10
267.2202
 20
148.686
 40
4
 50
179.9996566
 51
270.0003434
  0
ENDBLK
  0
BLOCK
  8
LAYER_2
  2
AIGNBL0201005E
 70
64
 10
0
 20
0
 30
0
  3
AIGNBL0201005E
  0
ARC
  8
LAYER_2
 10
280.8202
 20
148.686
 40
4
 50
89.99974376
 51
180.0002563
  0
ARC
  8
LAYER_2
 10
280.8202
 20
148.686
 40
4
 50
0.0003433707303
 51
89.99965662
  0
ARC
  8
LAYER_2
 10
280.8202
 20
148.686
 40
4
 50
270.0002563
 51
359.9997437
  0
ARC
  8
LAYER_2
 10
280.8202
 20
148.686
 40
4
 50
179.9996566
 51
270.0003434
  0
ENDBLK
  0
BLOCK
  8
LAYER_2
  2
AIGNBL0201005F
 70
64
 10
0
 20
0
 30
0
  3
AIGNBL0201005F
  0
LINE
  8
LAYER_2
 10
235.4202
 20
135.886
 11
249.4202
 21
135.886
  0
ENDBLK
  0
BLOCK
  8
LAYER_2
  2
AIGNBL02010060
 70
64
 10
0
 20
0
 30
0
  3
AIGNBL02010060
  0
ARC
  8
LAYER_2
 10
264.9526
 20
135.8755
 40
1.0325
 50
145.0084458
 51
179.4152142
  0
ARC
  8
LAYER_2
 10
265.582
 20
135.4588
 40
1.7871
 50
121.4824019
 51
145.635987
  0
ARC
  8
LAYER_2
 10
266.5349
 20
134.0641
 40
3.4752
 50
105.3958743
 51
122.8712819
  0
ARC
  8
LAYER_2
 10
267.1303
 20
132.2322
 40
5.4001
 50
93.06800925
 51
106.3263473
  0
ARC
  8
LAYER_2
 10
267.22
 20
131.3453
 40
6.2907
 50
89.99819816
 51
93.45167041
  0
ARC
  8
LAYER_2
 10
267.2347
 20
131.7395
 40
5.8965
 50
76.10340803
 51
90.14090195
  0
ARC
  8
LAYER_2
 10
267.6584
 20
133.485
 40
4.1003
 50
60.30956453
 51
75.99293626
  0
ARC
  8
LAYER_2
 10
268.5951
 20
135.1703
 40
2.1725
 50
38.6686841
 51
59.75504728
  0
ARC
  8
LAYER_2
 10
269.3757
 20
135.832
 40
1.1499
 50
8.3190873
 51
37.2282056
  0
ARC
  8
LAYER_2
 10
269.5644
 20
135.8854
 40
0.9558
 50
0.03308516267
 51
6.786082326
  0
ENDBLK
  0
BLOCK
  8
LAYER_2
  2
AIGNBL02010061
 70
64
 10
0
 20
0
 30
0
  3
AIGNBL02010061
  0
LINE
  8
LAYER_2
 10
286.0202
 20
135.886
 11
275.6202
 21
135.886
  0
ENDBLK
  0
BLOCK
  8
LAYER_2
  2
AIGNBL02010062
 70
64
 10
0
 20
0
 30
0
  3
AIGNBL02010062
  0
LINE
  8
LAYER_2
 10
286.0202
 20
161.886
 11
275.6202
 21
161.886
  0
ENDBLK
  0
BLOCK
  8
LAYER_2
  2
AIGNBL02010063
 70
64
 10
0
 20
0
 30
0
  3
AIGNBL02010063
  0
LINE
  8
LAYER_2
 10
266.6202
 20
148.086
 11
264.8202
 21
148.086
  0
LINE
  8
LAYER_2
 10
264.8202
 20
148.086
 11
264.8202
 21
149.286
  0
LINE
  8
LAYER_2
 10
264.8202
 20
149.286
 11
266.6202
 21
149.286
  0
ENDBLK
  0
BLOCK
  8
LAYER_2
  2
AIGNBL02010064
 70
64
 10
0
 20
0
 30
0
  3
AIGNBL02010064
  0
LINE
  8
LAYER_2
 10
267.8202
 20
149.286
 11
269.6202
 21
149.286
  0
LINE
  8
LAYER_2
 10
269.6202
 20
149.286
 11
269.6202
 21
148.086
  0
LINE
  8
LAYER_2
 10
269.6202
 20
148.086
 11
267.8202
 21
148.086
  0
ENDBLK
  0
BLOCK
  8
LAYER_2
  2
AIGNBL02010065
 70
64
 10
0
 20
0
 30
0
  3
AIGNBL02010065
  0
LINE
  8
LAYER_2
 10
267.8202
 20
149.286
 11
267.8202
 21
151.086
  0
LINE
  8
LAYER_2
 10
267.8202
 20
151.086
 11
266.6202
 21
151.086
  0
LINE
  8
LAYER_2
 10
266.6202
 20
151.086
 11
266.6202
 21
149.286
  0
ENDBLK
  0
BLOCK
  8
LAYER_2
  2
AIGNBL02010066
 70
64
 10
0
 20
0
 30
0
  3
AIGNBL02010066
  0
LINE
  8
LAYER_2
 10
266.6202
 20
148.086
 11
266.6202
 21
146.286
  0
LINE
  8
LAYER_2
 10
266.6202
 20
146.286
 11
267.8202
 21
146.286
  0
LINE
  8
LAYER_2
 10
267.8202
 20
146.286
 11
267.8202
 21
148.086
  0
ENDBLK
  0
BLOCK
  8
LAYER_2
  2
AIGNBL02010067
 70
64
 10
0
 20
0
 30
0
  3
AIGNBL02010067
  0
LINE
  8
LAYER_2
 10
253.0202
 20
148.086
 11
251.2202
 21
148.086
  0
LINE
  8
LAYER_2
 10
251.2202
 20
148.086
 11
251.2202
 21
149.286
  0
LINE
  8
LAYER_2
 10
251.2202
 20
149.286
 11
253.0202
 21
149.286
  0
ENDBLK
  0
BLOCK
  8
LAYER_2
  2
AIGNBL02010068
 70
64
 10
0
 20
0
 30
0
  3
AIGNBL02010068
  0
LINE
  8
LAYER_2
 10
254.2202
 20
149.286
 11
256.0202
 21
149.286
  0
LINE
  8
LAYER_2
 10
256.0202
 20
149.286
 11
256.0202
 21
148.086
  0
LINE
  8
LAYER_2
 10
256.0202
 20
148.086
 11
254.2202
 21
148.086
  0
ENDBLK
  0
BLOCK
  8
LAYER_2
  2
AIGNBL02010069
 70
64
 10
0
 20
0
 30
0
  3
AIGNBL02010069
  0
LINE
  8
LAYER_2
 10
254.2202
 20
149.286
 11
254.2202
 21
151.086
  0
LINE
  8
LAYER_2
 10
254.2202
 20
151.086
 11
253.0202
 21
151.086
  0
LINE
  8
LAYER_2
 10
253.0202
 20
151.086
 11
253.0202
 21
149.286
  0
ENDBLK
  0
BLOCK
  8
LAYER_2
  2
AIGNBL0201006A
 70
64
 10
0
 20
0
 30
0
  3
AIGNBL0201006A
  0
LINE
  8
LAYER_2
 10
253.0202
 20
148.086
 11
253.0202
 21
146.286
  0
LINE
  8
LAYER_2
 10
253.0202
 20
146.286
 11
254.2202
 21
146.286
  0
LINE
  8
LAYER_2
 10
254.2202
 20
146.286
 11
254.2202
 21
148.086
  0
ENDBLK
  0
BLOCK
  8
LAYER_2
  2
AIGNBL0201006B
 70
64
 10
0
 20
0
 30
0
  3
AIGNBL0201006B
  0
LINE
  8
LAYER_2
 10
340.4708
 20
161.886
 11
408.9708
 21
161.886
  0
LINE
  8
LAYER_2
 10
408.9708
 20
161.886
 11
408.9708
 21
41.886
  0
LINE
  8
LAYER_2
 10
408.9708
 20
41.886
 11
340.4708
 21
41.886
  0
ARC
  8
LAYER_2
 10
340.4708
 20
43.386
 40
1.5
 50
179.9999698
 51
270.0000301
  0
LINE
  8
LAYER_2
 10
338.9708
 20
43.386
 11
338.9708
 21
160.386
  0
ARC
  8
LAYER_2
 10
340.4708
 20
160.386
 40
1.5
 50
90.00020264
 51
179.9997973
  0
ENDBLK
  0
BLOCK
  8
LAYER_2
  2
AIGNBL0201006C
 70
64
 10
0
 20
0
 30
0
  3
AIGNBL0201006C
  0
ARC
  8
LAYER_2
 10
408.9708
 20
159.886
 40
2
 50
2.193835095e-005
 51
89.99997805
  0
LINE
  8
LAYER_2
 10
410.9708
 20
159.886
 11
410.9708
 21
135.886
  0
LINE
  8
LAYER_2
 10
410.9708
 20
135.886
 11
408.9708
 21
135.886
  0
LINE
  8
LAYER_2
 10
408.9708
 20
135.886
 11
408.9708
 21
161.886
  0
ENDBLK
  0
BLOCK
  8
LAYER_2
  2
AIGNBL0201006D
 70
64
 10
0
 20
0
 30
0
  3
AIGNBL0201006D
  0
ARC
  8
LAYER_2
 10
408.9708
 20
43.886
 40
2
 50
269.9998474
 51
0.000152634954
  0
LINE
  8
LAYER_2
 10
410.9708
 20
43.886
 11
410.9708
 21
67.886
  0
LINE
  8
LAYER_2
 10
410.9708
 20
67.886
 11
408.9708
 21
67.886
  0
LINE
  8
LAYER_2
 10
408.9708
 20
67.886
 11
408.9708
 21
41.886
  0
ENDBLK
  0
BLOCK
  8
LAYER_2
  2
AIGNBL0201006E
 70
64
 10
0
 20
0
 30
0
  3
AIGNBL0201006E
  0
LINE
  8
LAYER_2
 10
299.0202
 20
8.9707
 11
301.2202
 21
8.9707
  0
LINE
  8
LAYER_2
 10
301.2202
 20
8.9707
 11
301.2202
 21
-61.0293
  0
LINE
  8
LAYER_2
 10
301.2202
 20
-61.0293
 11
299.0202
 21
-61.0293
  0
ENDBLK
  0
BLOCK
  8
LAYER_2
  2
AIGNBL0201006F
 70
64
 10
0
 20
0
 30
0
  3
AIGNBL0201006F
  0
LINE
  8
LAYER_2
 10
289.0202
 20
-61.0293
 11
245.4202
 21
-61.0293
  0
ENDBLK
  0
BLOCK
  8
LAYER_2
  2
AIGNBL02010070
 70
64
 10
0
 20
0
 30
0
  3
AIGNBL02010070
  0
LINE
  8
LAYER_2
 10
235.4202
 20
-61.0293
 11
233.2202
 21
-61.0293
  0
LINE
  8
LAYER_2
 10
233.2202
 20
-61.0293
 11
233.2202
 21
8.9707
  0
LINE
  8
LAYER_2
 10
233.2202
 20
8.9707
 11
235.4202
 21
8.9707
  0
ENDBLK
  0
BLOCK
  8
LAYER_2
  2
AIGNBL02010071
 70
64
 10
0
 20
0
 30
0
  3
AIGNBL02010071
  0
LINE
  8
LAYER_2
 10
233.2202
 20
8.9707
 11
235.4202
 21
8.9707
  0
LINE
  8
LAYER_2
 10
235.4202
 20
8.9707
 11
235.4202
 21
-61.0293
  0
LINE
  8
LAYER_2
 10
235.4202
 20
-61.0293
 11
233.2202
 21
-61.0293
  0
LINE
  8
LAYER_2
 10
233.2202
 20
-61.0293
 11
233.2202
 21
8.9707
  0
ENDBLK
  0
BLOCK
  8
LAYER_2
  2
AIGNBL02010072
 70
64
 10
0
 20
0
 30
0
  3
AIGNBL02010072
  0
LINE
  8
LAYER_2
 10
299.0202
 20
8.9707
 11
301.2202
 21
8.9707
  0
LINE
  8
LAYER_2
 10
301.2202
 20
8.9707
 11
301.2202
 21
-61.0293
  0
LINE
  8
LAYER_2
 10
301.2202
 20
-61.0293
 11
299.0202
 21
-61.0293
  0
LINE
  8
LAYER_2
 10
299.0202
 20
-61.0293
 11
299.0202
 21
8.9707
  0
ENDBLK
  0
BLOCK
  8
LAYER_2
  2
AIGNBL02010073
 70
64
 10
0
 20
0
 30
0
  3
AIGNBL02010073
  0
LINE
  8
LAYER_2
 10
245.4202
 20
-61.0293
 11
245.4202
 21
-63.0293
  0
LINE
  8
LAYER_2
 10
245.4202
 20
-63.0293
 11
235.4202
 21
-63.0293
  0
LINE
  8
LAYER_2
 10
235.4202
 20
-63.0293
 11
235.4202
 21
-61.0293
  0
ENDBLK
  0
BLOCK
  8
LAYER_2
  2
AIGNBL02010074
 70
64
 10
0
 20
0
 30
0
  3
AIGNBL02010074
  0
LINE
  8
LAYER_2
 10
299.0202
 20
-61.0293
 11
299.0202
 21
-63.0293
  0
LINE
  8
LAYER_2
 10
299.0202
 20
-63.0293
 11
289.0202
 21
-63.0293
  0
LINE
  8
LAYER_2
 10
289.0202
 20
-63.0293
 11
289.0202
 21
-61.0293
  0
ENDBLK
  0
BLOCK
  8
LAYER_2
  2
AIGNBL02010075
 70
64
 10
0
 20
0
 30
0
  3
AIGNBL02010075
  0
LINE
  8
LAYER_2
 10
245.4202
 20
-61.0293
 11
289.0202
 21
-61.0293
  0
ENDBLK
  0
BLOCK
  8
LAYER_2
  2
AIGNBL02010076
 70
64
 10
0
 20
0
 30
0
  3
AIGNBL02010076
  0
LINE
  8
LAYER_2
 10
299.0202
 20
-61.0293
 11
299.0202
 21
-38.7293
  0
LINE
  8
LAYER_2
 10
299.0202
 20
-38.7293
 11
235.4202
 21
-38.7293
  0
LINE
  8
LAYER_2
 10
235.4202
 20
-38.7293
 11
235.4202
 21
-61.0293
  0
ENDBLK
  0
BLOCK
  8
LAYER_2
  2
AIGNBL02010077
 70
64
 10
0
 20
0
 30
0
  3
AIGNBL02010077
  0
LINE
  8
LAYER_2
 10
275.6202
 20
-20.7293
 11
272.4202
 21
-20.7293
  0
ENDBLK
  0
BLOCK
  8
LAYER_2
  2
AIGNBL02010078
 70
64
 10
0
 20
0
 30
0
  3
AIGNBL02010078
  0
LINE
  8
LAYER_2
 10
262.0202
 20
-20.7293
 11
258.8202
 21
-20.7293
  0
ENDBLK
  0
BLOCK
  8
LAYER_2
  2
AIGNBL02010079
 70
64
 10
0
 20
0
 30
0
  3
AIGNBL02010079
  0
LINE
  8
LAYER_2
 10
248.4202
 20
-20.7293
 11
235.4202
 21
-20.7293
  0
LINE
  8
LAYER_2
 10
235.4202
 20
-20.7293
 11
235.4202
 21
-38.7293
  0
LINE
  8
LAYER_2
 10
235.4202
 20
-38.7293
 11
299.0202
 21
-38.7293
  0
LINE
  8
LAYER_2
 10
299.0202
 20
-38.7293
 11
299.0202
 21
-20.7293
  0
LINE
  8
LAYER_2
 10
299.0202
 20
-20.7293
 11
286.0202
 21
-20.7293
  0
ENDBLK
  0
BLOCK
  8
LAYER_2
  2
AIGNBL0201007A
 70
64
 10
0
 20
0
 30
0
  3
AIGNBL0201007A
  0
LINE
  8
LAYER_2
 10
258.8202
 20
-20.7293
 11
258.8202
 21
-31.7293
  0
LINE
  8
LAYER_2
 10
258.8202
 20
-31.7293
 11
248.4202
 21
-31.7293
  0
LINE
  8
LAYER_2
 10
248.4202
 20
-31.7293
 11
248.4202
 21
-20.7293
  0
ENDBLK
  0
BLOCK
  8
LAYER_2
  2
AIGNBL0201007B
 70
64
 10
0
 20
0
 30
0
  3
AIGNBL0201007B
  0
LINE
  8
LAYER_2
 10
272.4202
 20
-20.7293
 11
272.4202
 21
-31.7293
  0
LINE
  8
LAYER_2
 10
272.4202
 20
-31.7293
 11
262.0202
 21
-31.7293
  0
LINE
  8
LAYER_2
 10
262.0202
 20
-31.7293
 11
262.0202
 21
-20.7293
  0
ENDBLK
  0
BLOCK
  8
LAYER_2
  2
AIGNBL0201007C
 70
64
 10
0
 20
0
 30
0
  3
AIGNBL0201007C
  0
LINE
  8
LAYER_2
 10
286.0202
 20
-20.7293
 11
286.0202
 21
-31.7293
  0
LINE
  8
LAYER_2
 10
286.0202
 20
-31.7293
 11
275.6202
 21
-31.7293
  0
LINE
  8
LAYER_2
 10
275.6202
 20
-31.7293
 11
275.6202
 21
-20.7293
  0
ENDBLK
  0
BLOCK
  8
LAYER_2
  2
AIGNBL0201007D
 70
64
 10
0
 20
0
 30
0
  3
AIGNBL0201007D
  0
LINE
  8
LAYER_2
 10
248.4202
 20
-28.3293
 11
258.8202
 21
-28.3293
  0
ENDBLK
  0
BLOCK
  8
LAYER_2
  2
AIGNBL0201007E
 70
64
 10
0
 20
0
 30
0
  3
AIGNBL0201007E
  0
LINE
  8
LAYER_2
 10
262.0202
 20
-28.3293
 11
272.4202
 21
-28.3293
  0
ENDBLK
  0
BLOCK
  8
LAYER_2
  2
AIGNBL0201007F
 70
64
 10
0
 20
0
 30
0
  3
AIGNBL0201007F
  0
LINE
  8
LAYER_2
 10
275.6202
 20
-28.3293
 11
286.0202
 21
-28.3293
  0
ENDBLK
  0
BLOCK
  8
LAYER_2
  2
AIGNBL02010080
 70
64
 10
0
 20
0
 30
0
  3
AIGNBL02010080
  0
ARC
  8
LAYER_2
 10
249.4202
 20
-11.8293
 40
3.3
 50
89.99939061
 51
180.0006094
  0
ARC
  8
LAYER_2
 10
249.4202
 20
-11.8293
 40
3.3
 50
0.0001175784778
 51
89.99988241
  0
ARC
  8
LAYER_2
 10
249.4202
 20
-11.8293
 40
3.3
 50
270.0006094
 51
359.9993906
  0
ARC
  8
LAYER_2
 10
249.4202
 20
-11.8293
 40
3.3
 50
179.9998824
 51
270.0001176
  0
ENDBLK
  0
BLOCK
  8
LAYER_2
  2
AIGNBL02010081
 70
64
 10
0
 20
0
 30
0
  3
AIGNBL02010081
  0
ARC
  8
LAYER_2
 10
285.0202
 20
-11.8293
 40
3.3
 50
89.99939068
 51
180.0006093
  0
ARC
  8
LAYER_2
 10
285.0202
 20
-11.8293
 40
3.3
 50
0.0001175011916
 51
89.99988249
  0
ARC
  8
LAYER_2
 10
285.0202
 20
-11.8293
 40
3.3
 50
270.0006093
 51
359.9993907
  0
ARC
  8
LAYER_2
 10
285.0202
 20
-11.8293
 40
3.3
 50
179.9998825
 51
270.0001175
  0
ENDBLK
  0
BLOCK
  8
LAYER_2
  2
AIGNBL02010082
 70
64
 10
0
 20
0
 30
0
  3
AIGNBL02010082
  0
LINE
  8
LAYER_2
 10
248.9202
 20
-11.3293
 11
248.9202
 21
-10.3293
  0
LINE
  8
LAYER_2
 10
248.9202
 20
-10.3293
 11
249.9202
 21
-10.3293
  0
LINE
  8
LAYER_2
 10
249.9202
 20
-10.3293
 11
249.9202
 21
-11.3293
  0
ENDBLK
  0
BLOCK
  8
LAYER_2
  2
AIGNBL02010083
 70
64
 10
0
 20
0
 30
0
  3
AIGNBL02010083
  0
LINE
  8
LAYER_2
 10
249.9202
 20
-12.3293
 11
249.9202
 21
-13.3293
  0
LINE
  8
LAYER_2
 10
249.9202
 20
-13.3293
 11
248.9202
 21
-13.3293
  0
LINE
  8
LAYER_2
 10
248.9202
 20
-13.3293
 11
248.9202
 21
-12.3293
  0
ENDBLK
  0
BLOCK
  8
LAYER_2
  2
AIGNBL02010084
 70
64
 10
0
 20
0
 30
0
  3
AIGNBL02010084
  0
LINE
  8
LAYER_2
 10
248.9202
 20
-11.3293
 11
247.9202
 21
-11.3293
  0
LINE
  8
LAYER_2
 10
247.9202
 20
-11.3293
 11
247.9202
 21
-12.3293
  0
LINE
  8
LAYER_2
 10
247.9202
 20
-12.3293
 11
248.9202
 21
-12.3293
  0
ENDBLK
  0
BLOCK
  8
LAYER_2
  2
AIGNBL02010085
 70
64
 10
0
 20
0
 30
0
  3
AIGNBL02010085
  0
LINE
  8
LAYER_2
 10
249.9202
 20
-12.3293
 11
250.9202
 21
-12.3293
  0
LINE
  8
LAYER_2
 10
250.9202
 20
-12.3293
 11
250.9202
 21
-11.3293
  0
LINE
  8
LAYER_2
 10
250.9202
 20
-11.3293
 11
249.9202
 21
-11.3293
  0
ENDBLK
  0
BLOCK
  8
LAYER_2
  2
AIGNBL02010086
 70
64
 10
0
 20
0
 30
0
  3
AIGNBL02010086
  0
LINE
  8
LAYER_2
 10
284.5202
 20
-11.3293
 11
284.5202
 21
-10.3293
  0
LINE
  8
LAYER_2
 10
284.5202
 20
-10.3293
 11
285.5202
 21
-10.3293
  0
LINE
  8
LAYER_2
 10
285.5202
 20
-10.3293
 11
285.5202
 21
-11.3293
  0
ENDBLK
  0
BLOCK
  8
LAYER_2
  2
AIGNBL02010087
 70
64
 10
0
 20
0
 30
0
  3
AIGNBL02010087
  0
LINE
  8
LAYER_2
 10
285.5202
 20
-12.3293
 11
285.5202
 21
-13.3293
  0
LINE
  8
LAYER_2
 10
285.5202
 20
-13.3293
 11
284.5202
 21
-13.3293
  0
LINE
  8
LAYER_2
 10
284.5202
 20
-13.3293
 11
284.5202
 21
-12.3293
  0
ENDBLK
  0
BLOCK
  8
LAYER_2
  2
AIGNBL02010088
 70
64
 10
0
 20
0
 30
0
  3
AIGNBL02010088
  0
LINE
  8
LAYER_2
 10
284.5202
 20
-11.3293
 11
283.5202
 21
-11.3293
  0
LINE
  8
LAYER_2
 10
283.5202
 20
-11.3293
 11
283.5202
 21
-12.3293
  0
LINE
  8
LAYER_2
 10
283.5202
 20
-12.3293
 11
284.5202
 21
-12.3293
  0
ENDBLK
  0
BLOCK
  8
LAYER_2
  2
AIGNBL02010089
 70
64
 10
0
 20
0
 30
0
  3
AIGNBL02010089
  0
LINE
  8
LAYER_2
 10
285.5202
 20
-12.3293
 11
286.5202
 21
-12.3293
  0
LINE
  8
LAYER_2
 10
286.5202
 20
-12.3293
 11
286.5202
 21
-11.3293
  0
LINE
  8
LAYER_2
 10
286.5202
 20
-11.3293
 11
285.5202
 21
-11.3293
  0
ENDBLK
  0
BLOCK
  8
LAYER_2
  2
AIGNBL0201008A
 70
64
 10
0
 20
0
 30
0
  3
AIGNBL0201008A
  0
LINE
  8
LAYER_2
 10
299.0202
 20
5.6707
 11
235.4202
 21
5.6707
  0
ENDBLK
  0
BLOCK
  8
LAYER_2
  2
AIGNBL0201008B
 70
64
 10
0
 20
0
 30
0
  3
AIGNBL0201008B
  0
LINE
  8
LAYER_2
 10
299.0202
 20
-20.7293
 11
289.0202
 21
-20.7293
  0
LINE
  8
LAYER_2
 10
289.0202
 20
-20.7293
 11
289.0202
 21
-19.7293
  0
LINE
  8
LAYER_2
 10
289.0202
 20
-19.7293
 11
299.0202
 21
-19.7293
  0
LINE
  8
LAYER_2
 10
299.0202
 20
-19.7293
 11
299.0202
 21
-20.7293
  0
ENDBLK
  0
BLOCK
  8
LAYER_2
  2
AIGNBL0201008C
 70
64
 10
0
 20
0
 30
0
  3
AIGNBL0201008C
  0
LINE
  8
LAYER_2
 10
290.0202
 20
-19.7293
 11
298.0202
 21
-19.7293
  0
LINE
  8
LAYER_2
 10
298.0202
 20
-19.7293
 11
298.0202
 21
-18.7293
  0
LINE
  8
LAYER_2
 10
298.0202
 20
-18.7293
 11
290.0202
 21
-18.7293
  0
LINE
  8
LAYER_2
 10
290.0202
 20
-18.7293
 11
290.0202
 21
-19.7293
  0
ENDBLK
  0
BLOCK
  8
LAYER_2
  2
AIGNBL0201008D
 70
64
 10
0
 20
0
 30
0
  3
AIGNBL0201008D
  0
LINE
  8
LAYER_2
 10
291.4202
 20
-18.7293
 11
296.6202
 21
-18.7293
  0
LINE
  8
LAYER_2
 10
296.6202
 20
-18.7293
 11
296.6202
 21
-17.7293
  0
LINE
  8
LAYER_2
 10
296.6202
 20
-17.7293
 11
291.4202
 21
-17.7293
  0
LINE
  8
LAYER_2
 10
291.4202
 20
-17.7293
 11
291.4202
 21
-18.7293
  0
ENDBLK
  0
BLOCK
  8
LAYER_2
  2
AIGNBL0201008E
 70
64
 10
0
 20
0
 30
0
  3
AIGNBL0201008E
  0
LINE
  8
LAYER_2
 10
291.9202
 20
-17.7293
 11
296.1202
 21
-17.7293
  0
ARC
  8
LAYER_2
 10
296.1202
 20
-17.2293
 40
0.5
 50
270.0040208
 51
359.9959792
  0
LINE
  8
LAYER_2
 10
296.6202
 20
-17.2293
 11
296.6202
 21
-16.7293
  0
ARC
  8
LAYER_2
 10
295.6202
 20
-16.7293
 40
1
 50
0.0003877335695
 51
89.99961225
  0
LINE
  8
LAYER_2
 10
295.6202
 20
-15.7293
 11
292.4202
 21
-15.7293
  0
ARC
  8
LAYER_2
 10
292.4202
 20
-16.7293
 40
1
 50
89.99798935
 51
180.0020107
  0
LINE
  8
LAYER_2
 10
291.4202
 20
-16.7293
 11
291.4202
 21
-17.2293
  0
ARC
  8
LAYER_2
 10
291.9202
 20
-17.2293
 40
0.5
 50
179.9992249
 51
270.0007751
  0
ENDBLK
  0
BLOCK
  8
LAYER_2
  2
AIGNBL0201008F
 70
64
 10
0
 20
0
 30
0
  3
AIGNBL0201008F
  0
ARC
  8
LAYER_2
 10
294.0202
 20
63.586
 40
4
 50
89.99974394
 51
180.0002561
  0
ARC
  8
LAYER_2
 10
294.0202
 20
63.586
 40
4
 50
0.0003434994794
 51
89.99965649
  0
ARC
  8
LAYER_2
 10
294.0202
 20
63.586
 40
4
 50
270.0002561
 51
359.9997439
  0
ARC
  8
LAYER_2
 10
294.0202
 20
63.586
 40
4
 50
179.9996565
 51
270.0003435
  0
ENDBLK
  0
BLOCK
  8
LAYER_2
  2
AIGNBL02010090
 70
64
 10
0
 20
0
 30
0
  3
AIGNBL02010090
  0
ARC
  8
LAYER_2
 10
240.4202
 20
63.586
 40
4
 50
89.99974384
 51
180.0002562
  0
ARC
  8
LAYER_2
 10
240.4202
 20
63.586
 40
4
 50
0.0003435954446
 51
89.99965639
  0
ARC
  8
LAYER_2
 10
240.4202
 20
63.586
 40
4
 50
270.0002562
 51
359.9997438
  0
ARC
  8
LAYER_2
 10
240.4202
 20
63.586
 40
4
 50
179.9996564
 51
270.0003436
  0
ENDBLK
  0
BLOCK
  8
LAYER_2
  2
AIGNBL02010091
 70
64
 10
0
 20
0
 30
0
  3
AIGNBL02010091
  0
ARC
  8
LAYER_2
 10
240.4202
 20
140.186
 40
4
 50
89.9997437
 51
180.0002563
  0
ARC
  8
LAYER_2
 10
240.4202
 20
140.186
 40
4
 50
0.0003434582993
 51
89.99965653
  0
ARC
  8
LAYER_2
 10
240.4202
 20
140.186
 40
4
 50
270.0002563
 51
359.9997437
  0
ARC
  8
LAYER_2
 10
240.4202
 20
140.186
 40
4
 50
179.9996565
 51
270.0003435
  0
ENDBLK
  0
BLOCK
  8
LAYER_2
  2
AIGNBL02010092
 70
64
 10
0
 20
0
 30
0
  3
AIGNBL02010092
  0
ARC
  8
LAYER_2
 10
294.0202
 20
140.186
 40
4
 50
89.9997438
 51
180.0002562
  0
ARC
  8
LAYER_2
 10
294.0202
 20
140.186
 40
4
 50
0.0003433623341
 51
89.99965663
  0
ARC
  8
LAYER_2
 10
294.0202
 20
140.186
 40
4
 50
270.0002562
 51
359.9997438
  0
ARC
  8
LAYER_2
 10
294.0202
 20
140.186
 40
4
 50
179.9996566
 51
270.0003434
  0
ENDBLK
  0
BLOCK
  8
LAYER_2
  2
AIGNBL02010093
 70
64
 10
0
 20
0
 30
0
  3
AIGNBL02010093
  0
LINE
  8
LAYER_2
 10
245.4202
 20
-20.7293
 11
235.4202
 21
-20.7293
  0
LINE
  8
LAYER_2
 10
235.4202
 20
-20.7293
 11
235.4202
 21
-19.7293
  0
LINE
  8
LAYER_2
 10
235.4202
 20
-19.7293
 11
245.4202
 21
-19.7293
  0
LINE
  8
LAYER_2
 10
245.4202
 20
-19.7293
 11
245.4202
 21
-20.7293
  0
ENDBLK
  0
BLOCK
  8
LAYER_2
  2
AIGNBL02010094
 70
64
 10
0
 20
0
 30
0
  3
AIGNBL02010094
  0
LINE
  8
LAYER_2
 10
236.4202
 20
-19.7293
 11
244.4202
 21
-19.7293
  0
LINE
  8
LAYER_2
 10
244.4202
 20
-19.7293
 11
244.4202
 21
-18.7293
  0
LINE
  8
LAYER_2
 10
244.4202
 20
-18.7293
 11
236.4202
 21
-18.7293
  0
LINE
  8
LAYER_2
 10
236.4202
 20
-18.7293
 11
236.4202
 21
-19.7293
  0
ENDBLK
  0
BLOCK
  8
LAYER_2
  2
AIGNBL02010095
 70
64
 10
0
 20
0
 30
0
  3
AIGNBL02010095
  0
LINE
  8
LAYER_2
 10
237.8202
 20
-18.7293
 11
243.0202
 21
-18.7293
  0
LINE
  8
LAYER_2
 10
243.0202
 20
-18.7293
 11
243.0202
 21
-17.7293
  0
LINE
  8
LAYER_2
 10
243.0202
 20
-17.7293
 11
237.8202
 21
-17.7293
  0
LINE
  8
LAYER_2
 10
237.8202
 20
-17.7293
 11
237.8202
 21
-18.7293
  0
ENDBLK
  0
BLOCK
  8
LAYER_2
  2
AIGNBL02010096
 70
64
 10
0
 20
0
 30
0
  3
AIGNBL02010096
  0
LINE
  8
LAYER_2
 10
238.3202
 20
-17.7293
 11
242.5202
 21
-17.7293
  0
ARC
  8
LAYER_2
 10
242.5202
 20
-17.2293
 40
0.5
 50
270.0040216
 51
359.9959784
  0
LINE
  8
LAYER_2
 10
243.0202
 20
-17.2293
 11
243.0202
 21
-16.7293
  0
ARC
  8
LAYER_2
 10
242.0202
 20
-16.7293
 40
1
 50
0.0003881174523
 51
89.99961187
  0
LINE
  8
LAYER_2
 10
242.0202
 20
-15.7293
 11
238.8202
 21
-15.7293
  0
ARC
  8
LAYER_2
 10
238.8202
 20
-16.7293
 40
1
 50
89.99798896
 51
180.002011
  0
LINE
  8
LAYER_2
 10
237.8202
 20
-16.7293
 11
237.8202
 21
-17.2293
  0
ARC
  8
LAYER_2
 10
238.3202
 20
-17.2293
 40
0.5
 50
179.9992241
 51
270.0007759
  0
ENDBLK
  0
BLOCK
  8
LAYER_2
  2
AIGNBL02010097
 70
64
 10
0
 20
0
 30
0
  3
AIGNBL02010097
  0
LINE
  8
LAYER_2
 10
276.8202
 20
-28.3293
 11
284.8202
 21
-28.3293
  0
LINE
  8
LAYER_2
 10
284.8202
 20
-28.3293
 11
284.8202
 21
-27.3293
  0
LINE
  8
LAYER_2
 10
284.8202
 20
-27.3293
 11
276.8202
 21
-27.3293
  0
LINE
  8
LAYER_2
 10
276.8202
 20
-27.3293
 11
276.8202
 21
-28.3293
  0
ENDBLK
  0
BLOCK
  8
LAYER_2
  2
AIGNBL02010098
 70
64
 10
0
 20
0
 30
0
  3
AIGNBL02010098
  0
LINE
  8
LAYER_2
 10
277.8202
 20
-27.3293
 11
283.8202
 21
-27.3293
  0
LINE
  8
LAYER_2
 10
283.8202
 20
-27.3293
 11
283.8202
 21
-26.3293
  0
LINE
  8
LAYER_2
 10
283.8202
 20
-26.3293
 11
277.8202
 21
-26.3293
  0
LINE
  8
LAYER_2
 10
277.8202
 20
-26.3293
 11
277.8202
 21
-27.3293
  0
ENDBLK
  0
BLOCK
  8
LAYER_2
  2
AIGNBL02010099
 70
64
 10
0
 20
0
 30
0
  3
AIGNBL02010099
  0
LINE
  8
LAYER_2
 10
277.3202
 20
-26.3293
 11
284.3202
 21
-26.3293
  0
ARC
  8
LAYER_2
 10
284.3202
 20
-25.8293
 40
0.5
 50
270.0040209
 51
359.9959792
  0
LINE
  8
LAYER_2
 10
284.8202
 20
-25.8293
 11
284.8202
 21
-25.3293
  0
ARC
  8
LAYER_2
 10
282.8202
 20
-25.3293
 40
2
 50
0.0001939322262
 51
89.99980606
  0
LINE
  8
LAYER_2
 10
282.8202
 20
-23.3293
 11
278.8202
 21
-23.3293
  0
ARC
  8
LAYER_2
 10
278.8202
 20
-25.3293
 40
2
 50
89.99899466
 51
180.0010054
  0
LINE
  8
LAYER_2
 10
276.8202
 20
-25.3293
 11
276.8202
 21
-25.8293
  0
ARC
  8
LAYER_2
 10
277.3202
 20
-25.8293
 40
0.5
 50
179.9992246
 51
270.0007754
  0
ENDBLK
  0
BLOCK
  8
LAYER_2
  2
AIGNBL0201009A
 70
64
 10
0
 20
0
 30
0
  3
AIGNBL0201009A
  0
LINE
  8
LAYER_2
 10
263.2202
 20
-28.3293
 11
271.2202
 21
-28.3293
  0
LINE
  8
LAYER_2
 10
271.2202
 20
-28.3293
 11
271.2202
 21
-27.3293
  0
LINE
  8
LAYER_2
 10
271.2202
 20
-27.3293
 11
263.2202
 21
-27.3293
  0
LINE
  8
LAYER_2
 10
263.2202
 20
-27.3293
 11
263.2202
 21
-28.3293
  0
ENDBLK
  0
BLOCK
  8
LAYER_2
  2
AIGNBL0201009B
 70
64
 10
0
 20
0
 30
0
  3
AIGNBL0201009B
  0
LINE
  8
LAYER_2
 10
249.6202
 20
-28.3293
 11
257.6202
 21
-28.3293
  0
LINE
  8
LAYER_2
 10
257.6202
 20
-28.3293
 11
257.6202
 21
-27.3293
  0
LINE
  8
LAYER_2
 10
257.6202
 20
-27.3293
 11
249.6202
 21
-27.3293
  0
LINE
  8
LAYER_2
 10
249.6202
 20
-27.3293
 11
249.6202
 21
-28.3293
  0
ENDBLK
  0
BLOCK
  8
LAYER_2
  2
AIGNBL0201009C
 70
64
 10
0
 20
0
 30
0
  3
AIGNBL0201009C
  0
ARC
  8
LAYER_2
 10
255.2076
 20
-27.3353
 40
1.4126
 50
0.2436932703
 51
29.4112186
  0
ARC
  8
LAYER_2
 10
254.7488
 20
-27.5868
 40
1.9358
 50
29.22520327
 51
52.2041604
  0
ARC
  8
LAYER_2
 10
254.0855
 20
-28.3772
 40
2.9672
 50
51.43718943
 51
70.37738115
  0
ARC
  8
LAYER_2
 10
253.6841
 20
-29.3686
 40
4.036
 50
69.73723723
 51
86.01426555
  0
ARC
  8
LAYER_2
 10
253.6204
 20
-29.8809
 40
4.5516
 50
85.66163951
 51
90.00202367
  0
ARC
  8
LAYER_2
 10
253.6115
 20
-29.6705
 40
4.3413
 50
89.88457403
 51
106.4022918
  0
ARC
  8
LAYER_2
 10
253.3546
 20
-28.7652
 40
3.4002
 50
106.5580888
 51
124.0942811
  0
ARC
  8
LAYER_2
 10
252.7353
 20
-27.8125
 40
2.2643
 50
124.6308757
 51
145.4511325
  0
ARC
  8
LAYER_2
 10
252.1391
 20
-27.3704
 40
1.5227
 50
146.4298984
 51
172.6424014
  0
ARC
  8
LAYER_2
 10
251.9824
 20
-27.3295
 40
1.3622
 50
173.5034362
 51
179.9897189
  0
ENDBLK
  0
BLOCK
  8
LAYER_2
  2
AIGNBL0201009D
 70
64
 10
0
 20
0
 30
0
  3
AIGNBL0201009D
  0
ARC
  8
LAYER_2
 10
268.8076
 20
-27.3353
 40
1.4126
 50
0.2436932703
 51
29.4112186
  0
ARC
  8
LAYER_2
 10
268.3488
 20
-27.5868
 40
1.9358
 50
29.22520327
 51
52.2041604
  0
ARC
  8
LAYER_2
 10
267.6855
 20
-28.3772
 40
2.9672
 50
51.43718943
 51
70.37738115
  0
ARC
  8
LAYER_2
 10
267.2841
 20
-29.3686
 40
4.036
 50
69.73723723
 51
86.01426555
  0
ARC
  8
LAYER_2
 10
267.2204
 20
-29.8809
 40
4.5516
 50
85.66163951
 51
90.00202367
  0
ARC
  8
LAYER_2
 10
267.2115
 20
-29.6705
 40
4.3413
 50
89.88457403
 51
106.4022918
  0
ARC
  8
LAYER_2
 10
266.9546
 20
-28.7652
 40
3.4002
 50
106.5580888
 51
124.0942811
  0
ARC
  8
LAYER_2
 10
266.3353
 20
-27.8125
 40
2.2643
 50
124.6308757
 51
145.4511325
  0
ARC
  8
LAYER_2
 10
265.7391
 20
-27.3704
 40
1.5227
 50
146.4298984
 51
172.6424014
  0
ARC
  8
LAYER_2
 10
265.5824
 20
-27.3295
 40
1.3622
 50
173.5034362
 51
179.9897189
  0
ENDBLK
  0
BLOCK
  8
LAYER_2
  2
AIGNBL0201009E
 70
64
 10
0
 20
0
 30
0
  3
AIGNBL0201009E
  0
ARC
  8
LAYER_2
 10
261.4202
 20
101.886
 40
2
 50
89.99948762
 51
180.0005124
  0
ARC
  8
LAYER_2
 10
261.4202
 20
101.886
 40
2
 50
0.0006869650009
 51
89.99931302
  0
ARC
  8
LAYER_2
 10
261.4202
 20
101.886
 40
2
 50
270.0005124
 51
359.9994876
  0
ARC
  8
LAYER_2
 10
261.4202
 20
101.886
 40
2
 50
179.999313
 51
270.000687
  0
ENDBLK
  0
BLOCK
  8
LAYER_2
  2
AIGNBL0201009F
 70
64
 10
0
 20
0
 30
0
  3
AIGNBL0201009F
  0
ARC
  8
LAYER_2
 10
261.4202
 20
5.6707
 40
2
 50
0.0001938979307
 51
89.99980609
  0
ARC
  8
LAYER_2
 10
261.4202
 20
5.6707
 40
2
 50
89.99899449
 51
180.0010055
  0
ENDBLK
  0
BLOCK
  8
LAYER_2
  2
AIGNBL020100A0
 70
64
 10
0
 20
0
 30
0
  3
AIGNBL020100A0
  0
ARC
  8
LAYER_2
 10
280.8202
 20
148.686
 40
3
 50
89.99965835
 51
180.0003417
  0
ARC
  8
LAYER_2
 10
280.8202
 20
148.686
 40
3
 50
0.0004578233184
 51
89.99954216
  0
ARC
  8
LAYER_2
 10
280.8202
 20
148.686
 40
3
 50
270.0003417
 51
359.9996583
  0
ARC
  8
LAYER_2
 10
280.8202
 20
148.686
 40
3
 50
179.9995421
 51
270.0004578
  0
ENDBLK
  0
BLOCK
  8
LAYER_2
  2
AIGNBL020100A1
 70
64
 10
0
 20
0
 30
0
  3
AIGNBL020100A1
  0
LINE
  8
LAYER_2
 62
3
 10
232.5952
 20
161.886
 11
207.2091
 21
161.886
  0
ENDBLK
  0
BLOCK
  8
LAYER_2
  2
AIGNBL020100A2
 70
64
 10
0
 20
0
 30
0
  3
AIGNBL020100A2
  0
LINE
  8
LAYER_2
 62
3
 10
232.5952
 20
41.886
 11
207.2091
 21
41.886
  0
ENDBLK
  0
BLOCK
  8
LAYER_2
  2
AIGNBL020100A3
 70
64
 10
0
 20
0
 30
0
  3
AIGNBL020100A3
  0
LINE
  8
LAYER_2
 62
3
 10
208.4591
 20
159.386
 11
208.4591
 21
44.386
  0
ENDBLK
  0
BLOCK
  8
LAYER_2
  2
AIGNBL020100A4
 70
64
 10
0
 20
0
 30
0
  3
AIGNBL020100A4
  0
LINE
  8
LAYER_2
 62
3
 10
208.0425
 20
159.386
 11
208.4591
 21
161.886
  0
LINE
  8
LAYER_2
 62
3
 10
208.4591
 20
161.886
 11
208.8758
 21
159.386
  0
LINE
  8
LAYER_2
 62
3
 10
208.8758
 20
159.386
 11
208.0425
 21
159.386
  0
ENDBLK
  0
BLOCK
  8
LAYER_2
  2
AIGNBL020100A5
 70
64
 10
0
 20
0
 30
0
  3
AIGNBL020100A5
  0
LINE
  8
LAYER_2
 62
3
 10
208.0425
 20
44.386
 11
208.4591
 21
41.886
  0
LINE
  8
LAYER_2
 62
3
 10
208.4591
 20
41.886
 11
208.8758
 21
44.386
  0
LINE
  8
LAYER_2
 62
3
 10
208.8758
 20
44.386
 11
208.0425
 21
44.386
  0
ENDBLK
  0
BLOCK
  8
LAYER_2
  2
AIGNBL020100A6
 70
64
 10
0
 20
0
 30
0
  3
AIGNBL020100A6
  0
TEXT
  8
LAYER_2
 10
207.7915
 20
98.8698
 11
207.7915
 21
98.8698
 40
3.7421
 41
0.5
 50
89.99999999
 62
3
  1
120
  0
ENDBLK
  0
BLOCK
  8
LAYER_2
  2
AIGNBL020100A7
 70
64
 10
0
 20
0
 30
0
  3
AIGNBL020100A7
  0
LINE
  8
LAYER_2
 62
3
 10
233.2202
 20
41.261
 11
233.2202
 21
23.4912
  0
ENDBLK
  0
BLOCK
  8
LAYER_2
  2
AIGNBL020100A8
 70
64
 10
0
 20
0
 30
0
  3
AIGNBL020100A8
  0
LINE
  8
LAYER_2
 62
3
 10
301.2202
 20
41.261
 11
301.2202
 21
23.4912
  0
ENDBLK
  0
BLOCK
  8
LAYER_2
  2
AIGNBL020100A9
 70
64
 10
0
 20
0
 30
0
  3
AIGNBL020100A9
  0
LINE
  8
LAYER_2
 62
3
 10
235.7202
 20
24.7412
 11
298.7202
 21
24.7412
  0
ENDBLK
  0
BLOCK
  8
LAYER_2
  2
AIGNBL020100AA
 70
64
 10
0
 20
0
 30
0
  3
AIGNBL020100AA
  0
LINE
  8
LAYER_2
 62
3
 10
235.7202
 20
25.1578
 11
233.2202
 21
24.7412
  0
LINE
  8
LAYER_2
 62
3
 10
233.2202
 20
24.7412
 11
235.7202
 21
24.3245
  0
LINE
  8
LAYER_2
 62
3
 10
235.7202
 20
24.3245
 11
235.7202
 21
25.1578
  0
ENDBLK
  0
BLOCK
  8
LAYER_2
  2
AIGNBL020100AB
 70
64
 10
0
 20
0
 30
0
  3
AIGNBL020100AB
  0
LINE
  8
LAYER_2
 62
3
 10
298.7202
 20
25.1578
 11
301.2202
 21
24.7412
  0
LINE
  8
LAYER_2
 62
3
 10
301.2202
 20
24.7412
 11
298.7202
 21
24.3245
  0
LINE
  8
LAYER_2
 62
3
 10
298.7202
 20
24.3245
 11
298.7202
 21
25.1578
  0
ENDBLK
  0
BLOCK
  8
LAYER_2
  2
AIGNBL020100AC
 70
64
 10
0
 20
0
 30
0
  3
AIGNBL020100AC
  0
TEXT
  8
LAYER_2
 10
265.2914
 20
25.4089
 11
265.2914
 21
25.4089
 40
3.7421
 41
0.5
 62
3
  1
68
  0
ENDBLK
  0
BLOCK
  8
LAYER_2
  2
AIGNBL020100AD
 70
64
 10
0
 20
0
 30
0
  3
AIGNBL020100AD
  0
LINE
  8
LAYER_2
 62
3
 10
232.5952
 20
8.9707
 11
207.2091
 21
8.9707
  0
ENDBLK
  0
BLOCK
  8
LAYER_2
  2
AIGNBL020100AE
 70
64
 10
0
 20
0
 30
0
  3
AIGNBL020100AE
  0
LINE
  8
LAYER_2
 62
3
 10
232.5952
 20
-63.0293
 11
207.2091
 21
-63.0293
  0
ENDBLK
  0
BLOCK
  8
LAYER_2
  2
AIGNBL020100AF
 70
64
 10
0
 20
0
 30
0
  3
AIGNBL020100AF
  0
LINE
  8
LAYER_2
 62
3
 10
208.4591
 20
6.4707
 11
208.4591
 21
-60.5293
  0
ENDBLK
  0
BLOCK
  8
LAYER_2
  2
AIGNBL020100B0
 70
64
 10
0
 20
0
 30
0
  3
AIGNBL020100B0
  0
LINE
  8
LAYER_2
 62
3
 10
208.0425
 20
6.4707
 11
208.4591
 21
8.9707
  0
LINE
  8
LAYER_2
 62
3
 10
208.4591
 20
8.9707
 11
208.8758
 21
6.4707
  0
LINE
  8
LAYER_2
 62
3
 10
208.8758
 20
6.4707
 11
208.0425
 21
6.4707
  0
ENDBLK
  0
BLOCK
  8
LAYER_2
  2
AIGNBL020100B1
 70
64
 10
0
 20
0
 30
0
  3
AIGNBL020100B1
  0
LINE
  8
LAYER_2
 62
3
 10
208.0425
 20
-60.5293
 11
208.4591
 21
-63.0293
  0
LINE
  8
LAYER_2
 62
3
 10
208.4591
 20
-63.0293
 11
208.8758
 21
-60.5293
  0
LINE
  8
LAYER_2
 62
3
 10
208.8758
 20
-60.5293
 11
208.0425
 21
-60.5293
  0
ENDBLK
  0
BLOCK
  8
LAYER_2
  2
AIGNBL020100B2
 70
64
 10
0
 20
0
 30
0
  3
AIGNBL020100B2
  0
TEXT
  8
LAYER_2
 10
207.834
 20
-28.9591
 11
207.834
 21
-28.9591
 40
3.7421
 41
0.5
 50
89.99999999
 62
3
  1
72
  0
ENDBLK
  0
BLOCK
  8
LAYER_2
  2
AIGNBL020100B3
 70
64
 10
0
 20
0
 30
0
  3
AIGNBL020100B3
  0
ENDBLK
  0
BLOCK
  8
LAYER_2
  2
AIGNBL020100B4
 70
64
 10
0
 20
0
 30
0
  3
AIGNBL020100B4
  0
ENDBLK
  0
BLOCK
  8
LAYER_2
  2
AIGNBL020100B5
 70
64
 10
0
 20
0
 30
0
  3
AIGNBL020100B5
  0
ENDBLK
  0
BLOCK
  8
LAYER_2
  2
AIGNBL020100B6
 70
64
 10
0
 20
0
 30
0
  3
AIGNBL020100B6
  0
ENDBLK
  0
BLOCK
  8
LAYER_2
  2
AIGNBL020100B7
 70
64
 10
0
 20
0
 30
0
  3
AIGNBL020100B7
  0
ENDBLK
  0
BLOCK
  8
LAYER_2
  2
AIGNBL020100B8
 70
64
 10
0
 20
0
 30
0
  3
AIGNBL020100B8
  0
ENDBLK
  0
BLOCK
  8
LAYER_2
  2
AIGNBL020100B9
 70
64
 10
0
 20
0
 30
0
  3
AIGNBL020100B9
  0
ENDBLK
  0
BLOCK
  8
LAYER_2
  2
AIGNBL020100BA
 70
64
 10
0
 20
0
 30
0
  3
AIGNBL020100BA
  0
ENDBLK
  0
BLOCK
  8
LAYER_2
  2
AIGNBL020100BB
 70
64
 10
0
 20
0
 30
0
  3
AIGNBL020100BB
  0
ENDBLK
  0
ENDSEC
  0
SECTION
  2
ENTITIES
  0
INSERT
  8
LAYER_1
  2
AIGNBL01010002
 10
0
 20
0
 30
0
  0
TEXT
  8
LAYER_1
 10
408.7519
 20
-24.0512
 11
408.7519
 21
-24.0512
 40
3.6546
 41
0.5
  1
NihonRaikenVector Corp.
  0
TEXT
  8
LAYER_1
 10
348.9088
 20
-30.5741
 11
348.9088
 21
-30.5741
 40
3.1044
 41
0.5
 72
1
  1
品名
  0
TEXT
  8
LAYER_1
 10
348.9088
 20
-35.2308
 11
348.9088
 21
-35.2308
 40
3.1044
 41
0.5
 72
1
  1
PRODUCT
  0
TEXT
  8
LAYER_1
 10
414.219
 20
-30.5741
 11
414.219
 21
-30.5741
 40
3.1044
 41
0.5
 72
1
  1
型式
  0
TEXT
  8
LAYER_1
 10
414.219
 20
-35.2308
 11
414.219
 21
-35.2308
 40
3.1044
 41
0.5
 72
1
  1
TYPE
  0
TEXT
  8
LAYER_1
 10
414.219
 20
-40.4516
 11
414.219
 21
-40.4516
 40
3.1044
 41
0.5
 72
1
  1
単位
  0
TEXT
  8
LAYER_1
 10
414.219
 20
-45.1084
 11
414.219
 21
-45.1084
 40
3.1044
 41
0.5
 72
1
  1
UNIT
  0
TEXT
  8
LAYER_1
 10
414.219
 20
-60.5799
 11
414.219
 21
-60.5799
 40
3.4815
 41
0.5
 72
1
  1
設計
  0
TEXT
  8
LAYER_1
 10
414.2191
 20
-65.802
 11
414.2191
 21
-65.802
 40
3.4815
 41
0.5
 72
1
  1
DESIGNED
  0
TEXT
  8
LAYER_1
 10
349.219
 20
-40.4517
 11
349.219
 21
-40.4517
 40
3.1044
 41
0.5
 72
1
  1
寸法
  0
TEXT
  8
LAYER_1
 10
349.219
 20
-45.1085
 11
349.219
 21
-45.1085
 40
3.1044
 41
0.5
 72
1
  1
SIZE
  0
TEXT
  8
LAYER_1
 10
349.219
 20
-60.5801
 11
349.219
 21
-60.5801
 40
3.1044
 41
0.5
 72
1
  1
材質
  0
TEXT
  8
LAYER_1
 10
349.219
 20
-65.2368
 11
349.219
 21
-65.2368
 40
3.1044
 41
0.5
 72
1
  1
MATERIAL
  0
TEXT
  8
LAYER_1
 10
349.7268
 20
-50.452
 11
349.7268
 21
-50.452
 40
3.1044
 41
0.5
 72
1
  1
ネジ
  0
TEXT
  8
LAYER_1
 10
349.219
 20
-55.1087
 11
349.219
 21
-55.1087
 40
3.1044
 41
0.5
 72
1
  1
SCREW
  0
TEXT
  8
LAYER_1
 10
413.9088
 20
-50.4519
 11
413.9088
 21
-50.4519
 40
3.1044
 41
0.5
 72
1
  1
日付
  0
TEXT
  8
LAYER_1
 10
413.9088
 20
-55.1086
 11
413.9088
 21
-55.1086
 40
3.1044
 41
0.5
 72
1
  1
DATE
  0
TEXT
  8
LAYER_1
 10
380.3578
 20
-43.2231
 11
380.3578
 21
-43.2231
 40
3.6689
 41
0.5
 72
1
  1
W68×H120×D72
  0
TEXT
  8
LAYER_1
 10
446.7193
 20
-43.2231
 11
446.7193
 21
-43.2231
 40
3.6689
 41
0.5
 72
1
  1
mm
  0
TEXT
  8
LAYER_1
 10
447.4893
 20
-33.2231
 11
447.4893
 21
-33.2231
 40
3.6689
 41
0.5
 72
1
  1
NR-2P　NR-2PL
  0
TEXT
  8
LAYER_1
 10
446.7193
 20
-53.2231
 11
446.7193
 21
-53.2231
 40
3.6689
 41
0.5
 72
1
  1
2017.07.24
  0
TEXT
  8
LAYER_1
 10
446.719
 20
-63.2231
 11
446.719
 21
-63.2231
 40
3.6689
 41
0.5
 72
1
  1
戸森 幹二
  0
TEXT
  8
LAYER_1
 10
383.9855
 20
-63.2231
 11
383.9855
 21
-63.2231
 40
3.6689
 41
0.5
 72
1
  1
鉄 アイボリー/黒
  0
TEXT
  8
LAYER_1
 10
381.719
 20
-30.8515
 11
381.719
 21
-30.8515
 40
3.1044
 41
0.5
 72
1
  1
2線式交流電源用
  0
TEXT
  8
LAYER_1
 10
383.5683
 20
-35.5083
 11
383.5683
 21
-35.5083
 40
3.1044
 41
0.5
 72
1
  1
モリブデン避雷器
  0
TEXT
  8
LAYER_1
 10
383.9476
 20
-50.8515
 11
383.9476
 21
-50.8515
 40
3.1044
 41
0.5
 72
1
  1
黄銅 ニッケルメッキ
  0
TEXT
  8
LAYER_1
 10
381.7193
 20
-55.5083
 11
381.7193
 21
-55.5083
 40
3.1044
 41
0.5
 72
1
  1
M4
  0
INSERT
  8
LAYER_1
  2
AIGNBL01010003
 10
0
 20
0
 30
0
  0
INSERT
  8
LAYER_2
  2
AIGNBL02010002
 10
0
 20
0
 30
0
  0
INSERT
  8
LAYER_2
  2
AIGNBL02010003
 10
0
 20
0
 30
0
  0
INSERT
  8
LAYER_2
  2
AIGNBL02010004
 10
0
 20
0
 30
0
  0
INSERT
  8
LAYER_2
  2
AIGNBL02010005
 10
0
 20
0
 30
0
  0
INSERT
  8
LAYER_2
  2
AIGNBL02010006
 10
0
 20
0
 30
0
  0
INSERT
  8
LAYER_2
  2
AIGNBL02010007
 10
0
 20
0
 30
0
  0
INSERT
  8
LAYER_2
  2
AIGNBL02010008
 10
0
 20
0
 30
0
  0
INSERT
  8
LAYER_2
  2
AIGNBL02010009
 10
0
 20
0
 30
0
  0
INSERT
  8
LAYER_2
  2
AIGNBL0201000A
 10
0
 20
0
 30
0
  0
INSERT
  8
LAYER_2
  2
AIGNBL0201000B
 10
0
 20
0
 30
0
  0
INSERT
  8
LAYER_2
  2
AIGNBL0201000C
 10
0
 20
0
 30
0
  0
INSERT
  8
LAYER_2
  2
AIGNBL0201000D
 10
0
 20
0
 30
0
  0
INSERT
  8
LAYER_2
  2
AIGNBL0201000E
 10
0
 20
0
 30
0
  0
INSERT
  8
LAYER_2
  2
AIGNBL0201000F
 10
0
 20
0
 30
0
  0
INSERT
  8
LAYER_2
  2
AIGNBL02010010
 10
0
 20
0
 30
0
  0
INSERT
  8
LAYER_2
  2
AIGNBL02010011
 10
0
 20
0
 30
0
  0
INSERT
  8
LAYER_2
  2
AIGNBL02010012
 10
0
 20
0
 30
0
  0
INSERT
  8
LAYER_2
  2
AIGNBL02010013
 10
0
 20
0
 30
0
  0
INSERT
  8
LAYER_2
  2
AIGNBL02010014
 10
0
 20
0
 30
0
  0
INSERT
  8
LAYER_2
  2
AIGNBL02010015
 10
0
 20
0
 30
0
  0
INSERT
  8
LAYER_2
  2
AIGNBL02010016
 10
0
 20
0
 30
0
  0
INSERT
  8
LAYER_2
  2
AIGNBL02010017
 10
0
 20
0
 30
0
  0
INSERT
  8
LAYER_2
  2
AIGNBL02010018
 10
0
 20
0
 30
0
  0
INSERT
  8
LAYER_2
  2
AIGNBL02010019
 10
0
 20
0
 30
0
  0
INSERT
  8
LAYER_2
  2
AIGNBL0201001A
 10
0
 20
0
 30
0
  0
INSERT
  8
LAYER_2
  2
AIGNBL0201001B
 10
0
 20
0
 30
0
  0
INSERT
  8
LAYER_2
  2
AIGNBL0201001C
 10
0
 20
0
 30
0
  0
INSERT
  8
LAYER_2
  2
AIGNBL0201001D
 10
0
 20
0
 30
0
  0
INSERT
  8
LAYER_2
  2
AIGNBL0201001E
 10
0
 20
0
 30
0
  0
INSERT
  8
LAYER_2
  2
AIGNBL0201001F
 10
0
 20
0
 30
0
  0
INSERT
  8
LAYER_2
  2
AIGNBL02010020
 10
0
 20
0
 30
0
  0
INSERT
  8
LAYER_2
  2
AIGNBL02010021
 10
0
 20
0
 30
0
  0
INSERT
  8
LAYER_2
  2
AIGNBL02010022
 10
0
 20
0
 30
0
  0
INSERT
  8
LAYER_2
  2
AIGNBL02010023
 10
0
 20
0
 30
0
  0
INSERT
  8
LAYER_2
  2
AIGNBL02010024
 10
0
 20
0
 30
0
  0
INSERT
  8
LAYER_2
  2
AIGNBL02010025
 10
0
 20
0
 30
0
  0
INSERT
  8
LAYER_2
  2
AIGNBL02010026
 10
0
 20
0
 30
0
  0
INSERT
  8
LAYER_2
  2
AIGNBL02010027
 10
0
 20
0
 30
0
  0
INSERT
  8
LAYER_2
  2
AIGNBL02010028
 10
0
 20
0
 30
0
  0
INSERT
  8
LAYER_2
  2
AIGNBL02010029
 10
0
 20
0
 30
0
  0
INSERT
  8
LAYER_2
  2
AIGNBL0201002A
 10
0
 20
0
 30
0
  0
INSERT
  8
LAYER_2
  2
AIGNBL0201002B
 10
0
 20
0
 30
0
  0
INSERT
  8
LAYER_2
  2
AIGNBL0201002C
 10
0
 20
0
 30
0
  0
INSERT
  8
LAYER_2
  2
AIGNBL0201002D
 10
0
 20
0
 30
0
  0
INSERT
  8
LAYER_2
  2
AIGNBL0201002E
 10
0
 20
0
 30
0
  0
INSERT
  8
LAYER_2
  2
AIGNBL0201002F
 10
0
 20
0
 30
0
  0
INSERT
  8
LAYER_2
  2
AIGNBL02010030
 10
0
 20
0
 30
0
  0
INSERT
  8
LAYER_2
  2
AIGNBL02010031
 10
0
 20
0
 30
0
  0
INSERT
  8
LAYER_2
  2
AIGNBL02010032
 10
0
 20
0
 30
0
  0
INSERT
  8
LAYER_2
  2
AIGNBL02010033
 10
0
 20
0
 30
0
  0
INSERT
  8
LAYER_2
  2
AIGNBL02010034
 10
0
 20
0
 30
0
  0
INSERT
  8
LAYER_2
  2
AIGNBL02010035
 10
0
 20
0
 30
0
  0
INSERT
  8
LAYER_2
  2
AIGNBL02010036
 10
0
 20
0
 30
0
  0
INSERT
  8
LAYER_2
  2
AIGNBL02010037
 10
0
 20
0
 30
0
  0
INSERT
  8
LAYER_2
  2
AIGNBL02010038
 10
0
 20
0
 30
0
  0
INSERT
  8
LAYER_2
  2
AIGNBL02010039
 10
0
 20
0
 30
0
  0
INSERT
  8
LAYER_2
  2
AIGNBL0201003A
 10
0
 20
0
 30
0
  0
INSERT
  8
LAYER_2
  2
AIGNBL0201003B
 10
0
 20
0
 30
0
  0
INSERT
  8
LAYER_2
  2
AIGNBL0201003C
 10
0
 20
0
 30
0
  0
INSERT
  8
LAYER_2
  2
AIGNBL0201003D
 10
0
 20
0
 30
0
  0
INSERT
  8
LAYER_2
  2
AIGNBL0201003E
 10
0
 20
0
 30
0
  0
INSERT
  8
LAYER_2
  2
AIGNBL0201003F
 10
0
 20
0
 30
0
  0
INSERT
  8
LAYER_2
  2
AIGNBL02010040
 10
0
 20
0
 30
0
  0
INSERT
  8
LAYER_2
  2
AIGNBL02010041
 10
0
 20
0
 30
0
  0
INSERT
  8
LAYER_2
  2
AIGNBL02010042
 10
0
 20
0
 30
0
  0
INSERT
  8
LAYER_2
  2
AIGNBL02010043
 10
0
 20
0
 30
0
  0
INSERT
  8
LAYER_2
  2
AIGNBL02010044
 10
0
 20
0
 30
0
  0
INSERT
  8
LAYER_2
  2
AIGNBL02010045
 10
0
 20
0
 30
0
  0
INSERT
  8
LAYER_2
  2
AIGNBL02010046
 10
0
 20
0
 30
0
  0
INSERT
  8
LAYER_2
  2
AIGNBL02010047
 10
0
 20
0
 30
0
  0
INSERT
  8
LAYER_2
  2
AIGNBL02010048
 10
0
 20
0
 30
0
  0
INSERT
  8
LAYER_2
  2
AIGNBL02010049
 10
0
 20
0
 30
0
  0
INSERT
  8
LAYER_2
  2
AIGNBL0201004A
 10
0
 20
0
 30
0
  0
INSERT
  8
LAYER_2
  2
AIGNBL0201004B
 10
0
 20
0
 30
0
  0
INSERT
  8
LAYER_2
  2
AIGNBL0201004C
 10
0
 20
0
 30
0
  0
INSERT
  8
LAYER_2
  2
AIGNBL0201004D
 10
0
 20
0
 30
0
  0
INSERT
  8
LAYER_2
  2
AIGNBL0201004E
 10
0
 20
0
 30
0
  0
INSERT
  8
LAYER_2
  2
AIGNBL0201004F
 10
0
 20
0
 30
0
  0
INSERT
  8
LAYER_2
  2
AIGNBL02010050
 10
0
 20
0
 30
0
  0
INSERT
  8
LAYER_2
  2
AIGNBL02010051
 10
0
 20
0
 30
0
  0
INSERT
  8
LAYER_2
  2
AIGNBL02010052
 10
0
 20
0
 30
0
  0
INSERT
  8
LAYER_2
  2
AIGNBL02010053
 10
0
 20
0
 30
0
  0
INSERT
  8
LAYER_2
  2
AIGNBL02010054
 10
0
 20
0
 30
0
  0
INSERT
  8
LAYER_2
  2
AIGNBL02010055
 10
0
 20
0
 30
0
  0
INSERT
  8
LAYER_2
  2
AIGNBL02010056
 10
0
 20
0
 30
0
  0
INSERT
  8
LAYER_2
  2
AIGNBL02010057
 10
0
 20
0
 30
0
  0
INSERT
  8
LAYER_2
  2
AIGNBL02010058
 10
0
 20
0
 30
0
  0
INSERT
  8
LAYER_2
  2
AIGNBL02010059
 10
0
 20
0
 30
0
  0
INSERT
  8
LAYER_2
  2
AIGNBL0201005A
 10
0
 20
0
 30
0
  0
INSERT
  8
LAYER_2
  2
AIGNBL0201005B
 10
0
 20
0
 30
0
  0
INSERT
  8
LAYER_2
  2
AIGNBL0201005C
 10
0
 20
0
 30
0
  0
INSERT
  8
LAYER_2
  2
AIGNBL0201005D
 10
0
 20
0
 30
0
  0
INSERT
  8
LAYER_2
  2
AIGNBL0201005E
 10
0
 20
0
 30
0
  0
INSERT
  8
LAYER_2
  2
AIGNBL0201005F
 10
0
 20
0
 30
0
  0
INSERT
  8
LAYER_2
  2
AIGNBL02010060
 10
0
 20
0
 30
0
  0
INSERT
  8
LAYER_2
  2
AIGNBL02010061
 10
0
 20
0
 30
0
  0
INSERT
  8
LAYER_2
  2
AIGNBL02010062
 10
0
 20
0
 30
0
  0
INSERT
  8
LAYER_2
  2
AIGNBL02010063
 10
0
 20
0
 30
0
  0
INSERT
  8
LAYER_2
  2
AIGNBL02010064
 10
0
 20
0
 30
0
  0
INSERT
  8
LAYER_2
  2
AIGNBL02010065
 10
0
 20
0
 30
0
  0
INSERT
  8
LAYER_2
  2
AIGNBL02010066
 10
0
 20
0
 30
0
  0
INSERT
  8
LAYER_2
  2
AIGNBL02010067
 10
0
 20
0
 30
0
  0
INSERT
  8
LAYER_2
  2
AIGNBL02010068
 10
0
 20
0
 30
0
  0
INSERT
  8
LAYER_2
  2
AIGNBL02010069
 10
0
 20
0
 30
0
  0
INSERT
  8
LAYER_2
  2
AIGNBL0201006A
 10
0
 20
0
 30
0
  0
INSERT
  8
LAYER_2
  2
AIGNBL0201006B
 10
0
 20
0
 30
0
  0
INSERT
  8
LAYER_2
  2
AIGNBL0201006C
 10
0
 20
0
 30
0
  0
INSERT
  8
LAYER_2
  2
AIGNBL0201006D
 10
0
 20
0
 30
0
  0
INSERT
  8
LAYER_2
  2
AIGNBL0201006E
 10
0
 20
0
 30
0
  0
INSERT
  8
LAYER_2
  2
AIGNBL0201006F
 10
0
 20
0
 30
0
  0
INSERT
  8
LAYER_2
  2
AIGNBL02010070
 10
0
 20
0
 30
0
  0
INSERT
  8
LAYER_2
  2
AIGNBL02010071
 10
0
 20
0
 30
0
  0
INSERT
  8
LAYER_2
  2
AIGNBL02010072
 10
0
 20
0
 30
0
  0
INSERT
  8
LAYER_2
  2
AIGNBL02010073
 10
0
 20
0
 30
0
  0
INSERT
  8
LAYER_2
  2
AIGNBL02010074
 10
0
 20
0
 30
0
  0
INSERT
  8
LAYER_2
  2
AIGNBL02010075
 10
0
 20
0
 30
0
  0
INSERT
  8
LAYER_2
  2
AIGNBL02010076
 10
0
 20
0
 30
0
  0
INSERT
  8
LAYER_2
  2
AIGNBL02010077
 10
0
 20
0
 30
0
  0
INSERT
  8
LAYER_2
  2
AIGNBL02010078
 10
0
 20
0
 30
0
  0
INSERT
  8
LAYER_2
  2
AIGNBL02010079
 10
0
 20
0
 30
0
  0
INSERT
  8
LAYER_2
  2
AIGNBL0201007A
 10
0
 20
0
 30
0
  0
INSERT
  8
LAYER_2
  2
AIGNBL0201007B
 10
0
 20
0
 30
0
  0
INSERT
  8
LAYER_2
  2
AIGNBL0201007C
 10
0
 20
0
 30
0
  0
INSERT
  8
LAYER_2
  2
AIGNBL0201007D
 10
0
 20
0
 30
0
  0
INSERT
  8
LAYER_2
  2
AIGNBL0201007E
 10
0
 20
0
 30
0
  0
INSERT
  8
LAYER_2
  2
AIGNBL0201007F
 10
0
 20
0
 30
0
  0
INSERT
  8
LAYER_2
  2
AIGNBL02010080
 10
0
 20
0
 30
0
  0
INSERT
  8
LAYER_2
  2
AIGNBL02010081
 10
0
 20
0
 30
0
  0
INSERT
  8
LAYER_2
  2
AIGNBL02010082
 10
0
 20
0
 30
0
  0
INSERT
  8
LAYER_2
  2
AIGNBL02010083
 10
0
 20
0
 30
0
  0
INSERT
  8
LAYER_2
  2
AIGNBL02010084
 10
0
 20
0
 30
0
  0
INSERT
  8
LAYER_2
  2
AIGNBL02010085
 10
0
 20
0
 30
0
  0
INSERT
  8
LAYER_2
  2
AIGNBL02010086
 10
0
 20
0
 30
0
  0
INSERT
  8
LAYER_2
  2
AIGNBL02010087
 10
0
 20
0
 30
0
  0
INSERT
  8
LAYER_2
  2
AIGNBL02010088
 10
0
 20
0
 30
0
  0
INSERT
  8
LAYER_2
  2
AIGNBL02010089
 10
0
 20
0
 30
0
  0
INSERT
  8
LAYER_2
  2
AIGNBL0201008A
 10
0
 20
0
 30
0
  0
INSERT
  8
LAYER_2
  2
AIGNBL0201008B
 10
0
 20
0
 30
0
  0
INSERT
  8
LAYER_2
  2
AIGNBL0201008C
 10
0
 20
0
 30
0
  0
INSERT
  8
LAYER_2
  2
AIGNBL0201008D
 10
0
 20
0
 30
0
  0
INSERT
  8
LAYER_2
  2
AIGNBL0201008E
 10
0
 20
0
 30
0
  0
INSERT
  8
LAYER_2
  2
AIGNBL0201008F
 10
0
 20
0
 30
0
  0
INSERT
  8
LAYER_2
  2
AIGNBL02010090
 10
0
 20
0
 30
0
  0
INSERT
  8
LAYER_2
  2
AIGNBL02010091
 10
0
 20
0
 30
0
  0
INSERT
  8
LAYER_2
  2
AIGNBL02010092
 10
0
 20
0
 30
0
  0
INSERT
  8
LAYER_2
  2
AIGNBL02010093
 10
0
 20
0
 30
0
  0
INSERT
  8
LAYER_2
  2
AIGNBL02010094
 10
0
 20
0
 30
0
  0
INSERT
  8
LAYER_2
  2
AIGNBL02010095
 10
0
 20
0
 30
0
  0
INSERT
  8
LAYER_2
  2
AIGNBL02010096
 10
0
 20
0
 30
0
  0
INSERT
  8
LAYER_2
  2
AIGNBL02010097
 10
0
 20
0
 30
0
  0
INSERT
  8
LAYER_2
  2
AIGNBL02010098
 10
0
 20
0
 30
0
  0
INSERT
  8
LAYER_2
  2
AIGNBL02010099
 10
0
 20
0
 30
0
  0
INSERT
  8
LAYER_2
  2
AIGNBL0201009A
 10
0
 20
0
 30
0
  0
INSERT
  8
LAYER_2
  2
AIGNBL0201009B
 10
0
 20
0
 30
0
  0
INSERT
  8
LAYER_2
  2
AIGNBL0201009C
 10
0
 20
0
 30
0
  0
INSERT
  8
LAYER_2
  2
AIGNBL0201009D
 10
0
 20
0
 30
0
  0
INSERT
  8
LAYER_2
  2
AIGNBL0201009E
 10
0
 20
0
 30
0
  0
INSERT
  8
LAYER_2
  2
AIGNBL0201009F
 10
0
 20
0
 30
0
  0
INSERT
  8
LAYER_2
  2
AIGNBL020100A0
 10
0
 20
0
 30
0
  0
INSERT
  8
LAYER_2
  2
AIGNBL020100A1
 10
0
 20
0
 30
0
  0
INSERT
  8
LAYER_2
  2
AIGNBL020100A2
 10
0
 20
0
 30
0
  0
INSERT
  8
LAYER_2
  2
AIGNBL020100A3
 10
0
 20
0
 30
0
  0
INSERT
  8
LAYER_2
  2
AIGNBL020100A4
 10
0
 20
0
 30
0
  0
INSERT
  8
LAYER_2
  2
AIGNBL020100A5
 10
0
 20
0
 30
0
  0
INSERT
  8
LAYER_2
  2
AIGNBL020100A6
 10
0
 20
0
 30
0
  0
INSERT
  8
LAYER_2
  2
AIGNBL020100A7
 10
0
 20
0
 30
0
  0
INSERT
  8
LAYER_2
  2
AIGNBL020100A8
 10
0
 20
0
 30
0
  0
INSERT
  8
LAYER_2
  2
AIGNBL020100A9
 10
0
 20
0
 30
0
  0
INSERT
  8
LAYER_2
  2
AIGNBL020100AA
 10
0
 20
0
 30
0
  0
INSERT
  8
LAYER_2
  2
AIGNBL020100AB
 10
0
 20
0
 30
0
  0
INSERT
  8
LAYER_2
  2
AIGNBL020100AC
 10
0
 20
0
 30
0
  0
INSERT
  8
LAYER_2
  2
AIGNBL020100AD
 10
0
 20
0
 30
0
  0
INSERT
  8
LAYER_2
  2
AIGNBL020100AE
 10
0
 20
0
 30
0
  0
INSERT
  8
LAYER_2
  2
AIGNBL020100AF
 10
0
 20
0
 30
0
  0
INSERT
  8
LAYER_2
  2
AIGNBL020100B0
 10
0
 20
0
 30
0
  0
INSERT
  8
LAYER_2
  2
AIGNBL020100B1
 10
0
 20
0
 30
0
  0
INSERT
  8
LAYER_2
  2
AIGNBL020100B2
 10
0
 20
0
 30
0
  0
INSERT
  8
LAYER_2
  2
AIGNBL020100B3
 10
0
 20
0
 30
0
  0
INSERT
  8
LAYER_2
  2
AIGNBL020100B4
 10
0
 20
0
 30
0
  0
INSERT
  8
LAYER_2
  2
AIGNBL020100B5
 10
0
 20
0
 30
0
  0
INSERT
  8
LAYER_2
  2
AIGNBL020100B6
 10
0
 20
0
 30
0
  0
INSERT
  8
LAYER_2
  2
AIGNBL020100B7
 10
0
 20
0
 30
0
  0
INSERT
  8
LAYER_2
  2
AIGNBL020100B8
 10
0
 20
0
 30
0
  0
INSERT
  8
LAYER_2
  2
AIGNBL020100B9
 10
0
 20
0
 30
0
  0
INSERT
  8
LAYER_2
  2
AIGNBL020100BA
 10
0
 20
0
 30
0
  0
INSERT
  8
LAYER_2
  2
AIGNBL020100BB
 10
0
 20
0
 30
0
  0
ENDSEC
  0
EOF
