  0
SECTION
  2
HEADER
  9
$ACADVER
  1
AC1009
  9
$LUNITS
 70
2
  9
$LUPREC
 70
4
  9
$LTSCALE
 40
1.0
  9
$EXTMIN
 10
124.874
 20
-66.6014
 30
0
  9
$EXTMAX
 10
469.2192
 20
169.592
 30
0
  0
ENDSEC
  0
SECTION
  2
TABLES
  0
TABLE
  2
LTYPE
 70
256
  0
ENDTAB
  0
TABLE
  2
LAYER
 70
4
  0
LAYER
  2
LAYER_1
 70
64
 62
7
  6
CONTINUOUS
  0
LAYER
  2
LAYER_2
 70
64
 62
7
  6
CONTINUOUS
  0
LAYER
  2
LAYER_3
 70
64
 62
7
  6
CONTINUOUS
  0
LAYER
  2
LAYER_4
 70
64
 62
7
  6
CONTINUOUS
  0
ENDTAB
  0
TABLE
  2
STYLE
 70
6
  0
STYLE
  2
STANDARD
 70
0
 40
0
 50
0
 71
0
 41
0
 42
0
  3
TXT
  4
BIGFONT
  0
ENDTAB
  0
ENDSEC
  0
SECTION
  2
BLOCKS
  0
BLOCK
  8
LAYER_1
  2
AIGNBL01030005
 70
64
 10
0
 20
0
 30
0
  3
AIGNBL01030005
  0
LINE
  8
LAYER_1
 10
351.6608
 20
-18.6827
 11
351.6608
 21
-24.6402
  0
LINE
  8
LAYER_1
 10
351.6608
 20
-24.6402
 11
352.6854
 21
-24.6402
  0
LINE
  8
LAYER_1
 10
352.6854
 20
-24.6402
 11
352.6854
 21
-24.1943
  0
LINE
  8
LAYER_1
 10
352.6854
 20
-24.1943
 11
355.3631
 21
-24.1943
  0
LINE
  8
LAYER_1
 10
355.3631
 20
-24.1943
 11
355.3631
 21
-24.6402
  0
LINE
  8
LAYER_1
 10
355.3631
 20
-24.6402
 11
356.4356
 21
-24.6402
  0
LINE
  8
LAYER_1
 10
356.4356
 20
-24.6402
 11
356.4356
 21
-18.6827
  0
LINE
  8
LAYER_1
 10
356.4356
 20
-18.6827
 11
351.6608
 21
-18.6827
  0
LINE
  8
LAYER_1
 10
355.3631
 20
-23.2015
 11
352.6854
 21
-23.2015
  0
LINE
  8
LAYER_1
 10
352.6854
 20
-23.2015
 11
352.6854
 21
-21.9114
  0
LINE
  8
LAYER_1
 10
352.6854
 20
-21.9114
 11
355.3631
 21
-21.9114
  0
LINE
  8
LAYER_1
 10
355.3631
 20
-21.9114
 11
355.3631
 21
-23.2015
  0
LINE
  8
LAYER_1
 10
355.3631
 20
-20.9388
 11
352.6854
 21
-20.9388
  0
LINE
  8
LAYER_1
 10
352.6854
 20
-20.9388
 11
352.6854
 21
-19.6756
  0
LINE
  8
LAYER_1
 10
352.6854
 20
-19.6756
 11
355.3631
 21
-19.6756
  0
LINE
  8
LAYER_1
 10
355.3631
 20
-19.6756
 11
355.3631
 21
-20.9388
  0
ENDBLK
  0
BLOCK
  8
LAYER_1
  2
AIGNBL01030006
 70
64
 10
0
 20
0
 30
0
  3
AIGNBL01030006
  0
LINE
  8
LAYER_1
 10
361.1949
 20
-20.6576
 11
363.0347
 21
-20.6576
  0
LINE
  8
LAYER_1
 10
363.0347
 20
-20.6576
 11
363.0347
 21
-19.7345
  0
LINE
  8
LAYER_1
 10
363.0347
 20
-19.7345
 11
360.6544
 21
-19.7345
  0
LINE
  8
LAYER_1
 10
360.6544
 20
-19.7345
 11
360.6544
 21
-18.5234
  0
LINE
  8
LAYER_1
 10
360.6544
 20
-18.5234
 11
359.708
 21
-18.5234
  0
LINE
  8
LAYER_1
 10
359.708
 20
-18.5234
 11
359.708
 21
-19.7345
  0
LINE
  8
LAYER_1
 10
359.708
 20
-19.7345
 11
357.3425
 21
-19.7345
  0
LINE
  8
LAYER_1
 10
357.3425
 20
-19.7345
 11
357.3425
 21
-20.6576
  0
LINE
  8
LAYER_1
 10
357.3425
 20
-20.6576
 11
359.1824
 21
-20.6576
  0
ARC
  8
LAYER_1
 10
352.8546
 20
-17.3096
 40
7.1589
 50
320.090402
 51
332.1165604
  0
ARC
  8
LAYER_1
 10
354.2211
 20
-18.4889
 40
5.3542
 50
306.7900371
 51
320.388939
  0
ARC
  8
LAYER_1
 10
355.363
 20
-19.9296
 40
3.517
 50
299.7830125
 51
305.949067
  0
ARC
  8
LAYER_1
 10
357.3634
 20
-22.9418
 40
0.2566
 50
189.0074096
 51
222.6984605
  0
ARC
  8
LAYER_1
 10
349.1372
 20
-31.2373
 40
11.4263
 50
41.87779049
 51
45.2975775
  0
ARC
  8
LAYER_1
 10
356.4824
 20
-24.3816
 40
1.3954
 50
27.02587099
 51
33.58032053
  0
ARC
  8
LAYER_1
 10
357.2054
 20
-22.7438
 40
1.1304
 50
297.3892127
 51
310.3878745
  0
ARC
  8
LAYER_1
 10
354.0201
 20
-18.4423
 40
6.4808
 50
307.1941606
 51
316.157217
  0
LINE
  8
LAYER_1
 10
358.6943
 20
-22.9314
 11
358.6943
 21
-23.6463
  0
LINE
  8
LAYER_1
 10
358.6943
 20
-23.6463
 11
359.708
 21
-23.6463
  0
LINE
  8
LAYER_1
 10
359.708
 20
-23.6463
 11
359.708
 21
-24.6876
  0
LINE
  8
LAYER_1
 10
359.708
 20
-24.6876
 11
360.6544
 21
-24.6876
  0
LINE
  8
LAYER_1
 10
360.6544
 20
-24.6876
 11
360.6544
 21
-23.6463
  0
LINE
  8
LAYER_1
 10
360.6544
 20
-23.6463
 11
361.6305
 21
-23.6463
  0
LINE
  8
LAYER_1
 10
361.6305
 20
-23.6463
 11
361.6305
 21
-22.8527
  0
ARC
  8
LAYER_1
 10
367.4883
 20
-17.4254
 40
7.9856
 50
222.815146
 51
229.3961219
  0
ARC
  8
LAYER_1
 10
363.3358
 20
-22.334
 40
1.5569
 50
227.8538365
 51
243.321749
  0
ARC
  8
LAYER_1
 10
365.3283
 20
-25.2866
 40
3.1117
 50
130.0133947
 51
149.8793337
  0
ARC
  8
LAYER_1
 10
366.7079
 20
-17.3889
 40
6.4681
 50
224.481624
 51
238.4919087
  0
ARC
  8
LAYER_1
 10
366.2472
 20
-18.041
 40
5.6842
 50
209.4847319
 51
223.0462119
  0
ARC
  8
LAYER_1
 10
368.6885
 20
-16.4658
 40
8.5864
 50
209.2217911
 51
210.6164294
  0
LINE
  8
LAYER_1
 10
359.708
 20
-22.7289
 11
358.8744
 21
-22.7289
  0
ARC
  8
LAYER_1
 10
349.8954
 20
-15.6235
 40
11.4502
 50
321.6442745
 51
327.3776932
  0
ARC
  8
LAYER_1
 10
358.7365
 20
-21.2021
 40
0.9988
 50
323.4874232
 51
346.5604038
  0
LINE
  8
LAYER_1
 10
359.708
 20
-21.4342
 11
359.708
 21
-22.7289
  0
LINE
  8
LAYER_1
 10
360.6544
 20
-22.7289
 11
360.6469
 21
-21.4287
  0
ARC
  8
LAYER_1
 10
362.6699
 20
-20.5916
 40
2.1894
 50
202.4797564
 51
213.37689
  0
ARC
  8
LAYER_1
 10
369.8576
 20
-15.9715
 40
10.7338
 50
212.8634514
 51
219.016696
  0
LINE
  8
LAYER_1
 10
361.5179
 20
-22.7289
 11
360.6544
 21
-22.7289
  0
ENDBLK
  0
BLOCK
  8
LAYER_1
  2
AIGNBL01030007
 70
64
 10
0
 20
0
 30
0
  3
AIGNBL01030007
  0
LINE
  8
LAYER_1
 10
364.3797
 20
-22.0502
 11
364.3797
 21
-24.7051
  0
LINE
  8
LAYER_1
 10
364.3797
 20
-24.7051
 11
365.2777
 21
-24.7051
  0
LINE
  8
LAYER_1
 10
365.2777
 20
-24.7051
 11
365.2777
 21
-24.5221
  0
LINE
  8
LAYER_1
 10
365.2777
 20
-24.5221
 11
368.0042
 21
-24.5221
  0
LINE
  8
LAYER_1
 10
368.0042
 20
-24.5221
 11
368.0042
 21
-24.653
  0
LINE
  8
LAYER_1
 10
368.0042
 20
-24.653
 11
368.9475
 21
-24.653
  0
LINE
  8
LAYER_1
 10
368.9475
 20
-24.653
 11
368.9475
 21
-22.0502
  0
LINE
  8
LAYER_1
 10
368.9475
 20
-22.0502
 11
364.3797
 21
-22.0502
  0
LINE
  8
LAYER_1
 10
365.2777
 20
-22.5871
 11
366.1759
 21
-22.5871
  0
LINE
  8
LAYER_1
 10
366.1759
 20
-22.5871
 11
366.1759
 21
-23.0127
  0
LINE
  8
LAYER_1
 10
366.1759
 20
-23.0127
 11
365.2777
 21
-23.0127
  0
LINE
  8
LAYER_1
 10
365.2777
 20
-23.0127
 11
365.2777
 21
-22.5871
  0
LINE
  8
LAYER_1
 10
366.1822
 20
-23.9775
 11
365.2712
 21
-23.9775
  0
LINE
  8
LAYER_1
 10
365.2712
 20
-23.9775
 11
365.2712
 21
-23.5714
  0
LINE
  8
LAYER_1
 10
365.2712
 20
-23.5714
 11
366.1822
 21
-23.5714
  0
LINE
  8
LAYER_1
 10
366.1822
 20
-23.5714
 11
366.1822
 21
-23.9775
  0
LINE
  8
LAYER_1
 10
368.0042
 20
-23.9775
 11
367.0933
 21
-23.9775
  0
LINE
  8
LAYER_1
 10
367.0933
 20
-23.9775
 11
367.0933
 21
-23.5714
  0
LINE
  8
LAYER_1
 10
367.0933
 20
-23.5714
 11
368.0042
 21
-23.5714
  0
LINE
  8
LAYER_1
 10
368.0042
 20
-23.5714
 11
368.0042
 21
-23.9775
  0
LINE
  8
LAYER_1
 10
368.0042
 20
-22.9955
 11
367.0933
 21
-22.9955
  0
LINE
  8
LAYER_1
 10
367.0933
 20
-22.9955
 11
367.0933
 21
-22.5895
  0
LINE
  8
LAYER_1
 10
367.0933
 20
-22.5895
 11
368.0042
 21
-22.5895
  0
LINE
  8
LAYER_1
 10
368.0042
 20
-22.5895
 11
368.0042
 21
-22.9955
  0
ENDBLK
  0
BLOCK
  8
LAYER_1
  2
AIGNBL01030008
 70
64
 10
0
 20
0
 30
0
  3
AIGNBL01030008
  0
LINE
  8
LAYER_1
 10
372.772
 20
-19.4737
 11
372.772
 21
-18.6171
  0
LINE
  8
LAYER_1
 10
372.772
 20
-18.6171
 11
370.123
 21
-18.6171
  0
LINE
  8
LAYER_1
 10
370.123
 20
-18.6171
 11
370.123
 21
-19.4737
  0
LINE
  8
LAYER_1
 10
370.123
 20
-19.4737
 11
370.8144
 21
-19.4737
  0
ARC
  8
LAYER_1
 10
356.4936
 20
-17.2671
 40
14.4898
 50
345.1345212
 51
351.2405475
  0
ARC
  8
LAYER_1
 10
366.8274
 20
-20.0374
 40
3.7912
 50
328.8660584
 51
345.5344938
  0
ARC
  8
LAYER_1
 10
368.4286
 20
-20.8831
 40
1.9862
 50
321.4032115
 51
325.8630795
  0
ARC
  8
LAYER_1
 10
368.3738
 20
-23.5064
 40
2.1211
 50
13.85472312
 51
40.74075759
  0
LINE
  8
LAYER_1
 10
370.4332
 20
-22.9985
 11
370.5883
 21
-22.7958
  0
LINE
  8
LAYER_1
 10
370.5883
 20
-22.7958
 11
370.5883
 21
-24.2866
  0
LINE
  8
LAYER_1
 10
370.5883
 20
-24.2866
 11
371.3958
 21
-24.2866
  0
LINE
  8
LAYER_1
 10
371.3958
 20
-24.2866
 11
371.3958
 21
-23.8159
  0
LINE
  8
LAYER_1
 10
371.3958
 20
-23.8159
 11
372.6301
 21
-23.8159
  0
LINE
  8
LAYER_1
 10
372.6301
 20
-23.8159
 11
372.6301
 21
-20.6966
  0
LINE
  8
LAYER_1
 10
372.6301
 20
-20.6966
 11
371.4669
 21
-20.6966
  0
ARC
  8
LAYER_1
 10
363.6989
 20
-18.5004
 40
8.0725
 50
344.2131719
 51
353.0750751
  0
LINE
  8
LAYER_1
 10
371.7125
 20
-19.4737
 11
372.772
 21
-19.4737
  0
LINE
  8
LAYER_1
 10
371.803
 20
-22.9919
 11
371.3958
 21
-22.9919
  0
LINE
  8
LAYER_1
 10
371.3958
 20
-22.9919
 11
371.3958
 21
-21.5204
  0
LINE
  8
LAYER_1
 10
371.3958
 20
-21.5204
 11
371.803
 21
-21.5204
  0
LINE
  8
LAYER_1
 10
371.803
 20
-21.5204
 11
371.803
 21
-22.9919
  0
ENDBLK
  0
BLOCK
  8
LAYER_1
  2
AIGNBL01030009
 70
64
 10
0
 20
0
 30
0
  3
AIGNBL01030009
  0
LINE
  8
LAYER_1
 10
375.5843
 20
-21.0627
 11
375.5843
 21
-19.4932
  0
LINE
  8
LAYER_1
 10
375.5843
 20
-19.4932
 11
376.0884
 21
-19.4932
  0
LINE
  8
LAYER_1
 10
376.0884
 20
-19.4932
 11
376.0884
 21
-18.6171
  0
LINE
  8
LAYER_1
 10
376.0884
 20
-18.6171
 11
372.89
 21
-18.6171
  0
LINE
  8
LAYER_1
 10
372.89
 20
-18.6171
 11
372.89
 21
-19.4932
  0
LINE
  8
LAYER_1
 10
372.89
 20
-19.4932
 11
373.323
 21
-19.4932
  0
LINE
  8
LAYER_1
 10
373.323
 20
-19.4932
 11
373.323
 21
-21.0627
  0
LINE
  8
LAYER_1
 10
373.323
 20
-21.0627
 11
372.7285
 21
-21.0627
  0
LINE
  8
LAYER_1
 10
372.7285
 20
-21.0627
 11
372.7285
 21
-21.9587
  0
LINE
  8
LAYER_1
 10
372.7285
 20
-21.9587
 11
373.2971
 21
-21.9587
  0
ARC
  8
LAYER_1
 10
370.5179
 20
-21.9112
 40
2.7796
 50
338.6726626
 51
359.0209934
  0
ARC
  8
LAYER_1
 10
370.2413
 20
-21.8534
 40
3.0587
 50
321.0652746
 51
339.5482703
  0
ARC
  8
LAYER_1
 10
370.471
 20
-22.0198
 40
2.7755
 50
312.3585029
 51
320.7571916
  0
ARC
  8
LAYER_1
 10
369.9128
 20
-28.2294
 40
4.8157
 50
49.01744843
 51
59.72034273
  0
ARC
  8
LAYER_1
 10
371.6288
 20
-22.7923
 40
2.3079
 50
308.6770083
 51
331.7345889
  0
ARC
  8
LAYER_1
 10
370.3348
 20
-22.0397
 40
3.8043
 50
330.9809007
 51
347.5160211
  0
ARC
  8
LAYER_1
 10
369.047
 20
-21.6624
 40
5.144
 50
346.5132457
 51
356.6977471
  0
LINE
  8
LAYER_1
 10
374.1825
 20
-21.9587
 11
374.6928
 21
-21.9587
  0
LINE
  8
LAYER_1
 10
374.6928
 20
-21.9587
 11
374.6928
 21
-24.5744
  0
LINE
  8
LAYER_1
 10
374.6928
 20
-24.5744
 11
375.5843
 21
-24.5744
  0
LINE
  8
LAYER_1
 10
375.5843
 20
-24.5744
 11
375.5843
 21
-21.9587
  0
LINE
  8
LAYER_1
 10
375.5843
 20
-21.9587
 11
376.1659
 21
-21.9587
  0
LINE
  8
LAYER_1
 10
376.1659
 20
-21.9587
 11
376.1659
 21
-21.0627
  0
LINE
  8
LAYER_1
 10
376.1659
 20
-21.0627
 11
375.5843
 21
-21.0627
  0
LINE
  8
LAYER_1
 10
374.6928
 20
-21.0627
 11
374.2017
 21
-21.0627
  0
LINE
  8
LAYER_1
 10
374.2017
 20
-21.0627
 11
374.2017
 21
-19.4932
  0
LINE
  8
LAYER_1
 10
374.2017
 20
-19.4932
 11
374.6928
 21
-19.4932
  0
LINE
  8
LAYER_1
 10
374.6928
 20
-19.4932
 11
374.6928
 21
-21.0627
  0
ENDBLK
  0
BLOCK
  8
LAYER_1
  2
AIGNBL0103000A
 70
64
 10
0
 20
0
 30
0
  3
AIGNBL0103000A
  0
ARC
  8
LAYER_1
 10
348.7749
 20
-19.7029
 40
1.9538
 50
288.5728851
 51
313.5589395
  0
ARC
  8
LAYER_1
 10
349.2926
 20
-20.3423
 40
1.1356
 50
316.8584967
 51
347.2193472
  0
ARC
  8
LAYER_1
 10
348.4589
 20
-20.1395
 40
1.9937
 50
346.8369842
 51
1.013916361
  0
ARC
  8
LAYER_1
 10
349.1937
 20
-20.1074
 40
1.2585
 50
0.1442876533
 51
45.47147913
  0
ARC
  8
LAYER_1
 10
348.6643
 20
-20.6066
 40
1.9859
 50
44.68437791
 51
67.71710381
  0
ARC
  8
LAYER_1
 10
348.4024
 20
-21.0891
 40
2.5323
 50
66.37394432
 51
86.05236678
  0
ARC
  8
LAYER_1
 10
348.5066
 20
-20.2975
 40
1.7361
 50
87.68383207
 51
89.78881595
  0
LINE
  8
LAYER_1
 10
348.513
 20
-18.5614
 11
345.5421
 21
-18.5614
  0
LINE
  8
LAYER_1
 10
345.5421
 20
-18.5614
 11
345.5421
 21
-21.8229
  0
LINE
  8
LAYER_1
 10
345.5421
 20
-21.8229
 11
347.3051
 21
-21.8229
  0
ARC
  8
LAYER_1
 10
347.331
 20
-23.4609
 40
1.6382
 50
64.35518167
 51
90.905835
  0
ARC
  8
LAYER_1
 10
347.5318
 20
-22.9615
 40
1.1016
 50
16.86565433
 51
62.52763861
  0
ARC
  8
LAYER_1
 10
347.7116
 20
-22.8924
 40
0.9097
 50
0.3657920727
 51
15.98793587
  0
LINE
  8
LAYER_1
 10
348.6212
 20
-22.8866
 11
348.6212
 21
-24.6193
  0
LINE
  8
LAYER_1
 10
348.6212
 20
-24.6193
 11
350.1657
 21
-24.6193
  0
LINE
  8
LAYER_1
 10
350.1657
 20
-24.6193
 11
350.1657
 21
-22.7905
  0
ARC
  8
LAYER_1
 10
348.1169
 20
-22.7474
 40
2.0493
 50
358.7953186
 51
12.5237444
  0
ARC
  8
LAYER_1
 10
349.1685
 20
-22.5087
 40
0.971
 50
12.22629885
 51
45.01434
  0
ARC
  8
LAYER_1
 10
348.9903
 20
-22.7785
 40
1.2894
 50
47.89284515
 51
71.60372221
  0
LINE
  8
LAYER_1
 10
348.3227
 20
-20.7712
 11
347.0847
 21
-20.7712
  0
LINE
  8
LAYER_1
 10
347.0847
 20
-20.7712
 11
347.0847
 21
-19.6173
  0
LINE
  8
LAYER_1
 10
347.0847
 20
-19.6173
 11
347.1208
 21
-19.6173
  0
LINE
  8
LAYER_1
 10
347.1208
 20
-19.6173
 11
348.3548
 21
-19.6173
  0
ARC
  8
LAYER_1
 10
348.314
 20
-20.2805
 40
0.6645
 50
46.60498432
 51
86.47787041
  0
ARC
  8
LAYER_1
 10
348.38
 20
-20.1655
 40
0.5365
 50
356.9384635
 51
43.29207093
  0
ARC
  8
LAYER_1
 10
348.3704
 20
-20.1929
 40
0.5453
 50
290.0148134
 51
359.8586292
  0
ARC
  8
LAYER_1
 10
348.194
 20
-19.8655
 40
0.9148
 50
278.085377
 51
293.3808036
  0
ENDBLK
  0
BLOCK
  8
LAYER_1
  2
AIGNBL0103000C
 70
64
 10
0
 20
0
 30
0
  3
AIGNBL0103000C
  0
LINE
  8
LAYER_1
 10
411.3531
 20
-23.6915
 11
411.3531
 21
-20.7177
  0
LINE
  8
LAYER_1
 10
411.3531
 20
-20.7177
 11
411.6643
 21
-20.7177
  0
LINE
  8
LAYER_1
 10
411.6643
 20
-20.7177
 11
411.6643
 21
-24.211
  0
LINE
  8
LAYER_1
 10
411.6643
 20
-24.211
 11
411.331
 21
-24.211
  0
LINE
  8
LAYER_1
 10
411.331
 20
-24.211
 11
409.3544
 21
-21.0939
  0
LINE
  8
LAYER_1
 10
409.3544
 20
-21.0939
 11
409.3544
 21
-24.211
  0
LINE
  8
LAYER_1
 10
409.3544
 20
-24.211
 11
409.0435
 21
-24.211
  0
LINE
  8
LAYER_1
 10
409.0435
 20
-24.211
 11
409.0435
 21
-20.7177
  0
LINE
  8
LAYER_1
 10
409.0435
 20
-20.7177
 11
409.4431
 21
-20.7177
  0
LINE
  8
LAYER_1
 10
409.4431
 20
-20.7177
 11
411.3531
 21
-23.6915
  0
ENDBLK
  0
BLOCK
  8
LAYER_1
  2
AIGNBL0103000D
 70
64
 10
0
 20
0
 30
0
  3
AIGNBL0103000D
  0
LINE
  8
LAYER_1
 10
412.708
 20
-21.0939
 11
412.353
 21
-21.0939
  0
LINE
  8
LAYER_1
 10
412.353
 20
-21.0939
 11
412.353
 21
-20.7177
  0
LINE
  8
LAYER_1
 10
412.353
 20
-20.7177
 11
412.708
 21
-20.7177
  0
LINE
  8
LAYER_1
 10
412.708
 20
-20.7177
 11
412.708
 21
-21.0939
  0
LINE
  8
LAYER_1
 10
412.6859
 20
-24.211
 11
412.3751
 21
-24.211
  0
LINE
  8
LAYER_1
 10
412.3751
 20
-24.211
 11
412.3751
 21
-21.7567
  0
LINE
  8
LAYER_1
 10
412.3751
 20
-21.7567
 11
412.6859
 21
-21.7567
  0
LINE
  8
LAYER_1
 10
412.6859
 20
-21.7567
 11
412.6859
 21
-24.211
  0
ENDBLK
  0
BLOCK
  8
LAYER_1
  2
AIGNBL0103000E
 70
64
 10
0
 20
0
 30
0
  3
AIGNBL0103000E
  0
LINE
  8
LAYER_1
 10
413.7075
 20
-24.211
 11
413.3967
 21
-24.211
  0
LINE
  8
LAYER_1
 10
413.3967
 20
-24.211
 11
413.3967
 21
-20.7177
  0
LINE
  8
LAYER_1
 10
413.3967
 20
-20.7177
 11
413.7075
 21
-20.7177
  0
LINE
  8
LAYER_1
 10
413.7075
 20
-20.7177
 11
413.7075
 21
-22.2583
  0
ARC
  8
LAYER_1
 10
414.7275
 20
-22.8826
 40
1.1959
 50
129.0425664
 51
148.5296577
  0
ARC
  8
LAYER_1
 10
414.534
 20
-22.6564
 40
0.8984
 50
91.65079798
 51
128.5451202
  0
ARC
  8
LAYER_1
 10
414.5711
 20
-22.8969
 40
1.1402
 50
89.86186398
 51
93.16396332
  0
ARC
  8
LAYER_1
 10
414.6094
 20
-22.6703
 40
0.9142
 50
55.37843322
 51
92.22964094
  0
ARC
  8
LAYER_1
 10
414.6762
 20
-22.4489
 40
0.6977
 50
7.392823027
 51
49.55460188
  0
ARC
  8
LAYER_1
 10
413.7622
 20
-22.6569
 40
1.6332
 50
359.5282561
 51
10.50481292
  0
LINE
  8
LAYER_1
 10
415.3954
 20
-22.6703
 11
415.3954
 21
-24.211
  0
LINE
  8
LAYER_1
 10
415.3954
 20
-24.211
 11
415.0846
 21
-24.211
  0
LINE
  8
LAYER_1
 10
415.0846
 20
-24.211
 11
415.0846
 21
-22.7062
  0
ARC
  8
LAYER_1
 10
413.9504
 20
-22.6662
 40
1.1349
 50
357.9789105
 51
16.98197242
  0
ARC
  8
LAYER_1
 10
414.6198
 20
-22.4587
 40
0.4341
 50
16.59677351
 51
48.63125212
  0
ARC
  8
LAYER_1
 10
414.5362
 20
-22.6142
 40
0.6074
 50
52.41132045
 51
92.74352394
  0
ARC
  8
LAYER_1
 10
414.5074
 20
-22.701
 40
0.6935
 50
90.02758188
 51
129.8640462
  0
ARC
  8
LAYER_1
 10
414.6401
 20
-22.9062
 40
0.9365
 50
128.0467338
 51
164.2262689
  0
ARC
  8
LAYER_1
 10
414.6954
 20
-22.8985
 40
0.9879
 50
165.5296484
 51
180.2726432
  0
LINE
  8
LAYER_1
 10
413.7075
 20
-22.9032
 11
413.7075
 21
-24.211
  0
ENDBLK
  0
BLOCK
  8
LAYER_1
  2
AIGNBL0103000F
 70
64
 10
0
 20
0
 30
0
  3
AIGNBL0103000F
  0
ARC
  8
LAYER_1
 10
417.2202
 20
-22.9429
 40
1.1862
 50
50.66677427
 51
90.17171201
  0
ARC
  8
LAYER_1
 10
417.3643
 20
-22.7675
 40
0.9592
 50
14.76823995
 51
50.68858398
  0
ARC
  8
LAYER_1
 10
416.7527
 20
-22.9491
 40
1.597
 50
359.0745588
 51
15.47326638
  0
ARC
  8
LAYER_1
 10
416.8612
 20
-23.0129
 40
1.4888
 50
332.9229904
 51
1.463898015
  0
ARC
  8
LAYER_1
 10
417.4027
 20
-23.2389
 40
0.9049
 50
308.9846043
 51
330.054276
  0
ARC
  8
LAYER_1
 10
417.2175
 20
-23.0174
 40
1.1936
 50
269.9562788
 51
309.2052349
  0
ARC
  8
LAYER_1
 10
417.2128
 20
-23.0267
 40
1.1844
 50
230.6348894
 51
270.1844284
  0
ARC
  8
LAYER_1
 10
417.063
 20
-23.2074
 40
0.9496
 50
194.5709147
 51
230.7073161
  0
ARC
  8
LAYER_1
 10
417.7436
 20
-23.0038
 40
1.6598
 50
179.0010711
 51
195.4601095
  0
ARC
  8
LAYER_1
 10
417.5182
 20
-22.9389
 40
1.4345
 50
152.4352517
 51
181.4366148
  0
ARC
  8
LAYER_1
 10
417.0353
 20
-22.7371
 40
0.9142
 50
128.8709262
 51
149.6419077
  0
ARC
  8
LAYER_1
 10
417.2156
 20
-22.949
 40
1.1923
 50
89.95302455
 51
129.2276577
  0
ARC
  8
LAYER_1
 10
417.1863
 20
-22.7784
 40
0.7484
 50
129.941227
 51
170.5112719
  0
ARC
  8
LAYER_1
 10
417.9386
 20
-22.9615
 40
1.5217
 50
168.3809413
 51
180.5052149
  0
ARC
  8
LAYER_1
 10
417.6287
 20
-23.0198
 40
1.2125
 50
177.8795135
 51
209.7652959
  0
ARC
  8
LAYER_1
 10
417.1112
 20
-23.2612
 40
0.6452
 50
213.9717645
 51
231.0723404
  0
ARC
  8
LAYER_1
 10
417.2095
 20
-23.145
 40
0.7974
 50
230.8249409
 51
270.5110491
  0
ARC
  8
LAYER_1
 10
417.2222
 20
-23.1406
 40
0.8017
 50
269.6008139
 51
309.0631962
  0
ARC
  8
LAYER_1
 10
417.248
 20
-23.1926
 40
0.7452
 50
310.0430385
 51
350.8041923
  0
ARC
  8
LAYER_1
 10
416.426
 20
-22.9909
 40
1.5903
 50
348.3604548
 51
0.5752092068
  0
ARC
  8
LAYER_1
 10
416.855
 20
-22.9332
 40
1.1619
 50
357.9411261
 51
30.41357781
  0
ARC
  8
LAYER_1
 10
417.3124
 20
-22.7181
 40
0.6602
 50
34.41537859
 51
51.05519408
  0
ARC
  8
LAYER_1
 10
417.2223
 20
-22.8267
 40
0.8013
 50
50.92748548
 51
90.40850442
  0
ARC
  8
LAYER_1
 10
417.2114
 20
-22.8283
 40
0.8029
 50
89.63079039
 51
129.0332197
  0
ENDBLK
  0
BLOCK
  8
LAYER_1
  2
AIGNBL01030010
 70
64
 10
0
 20
0
 30
0
  3
AIGNBL01030010
  0
ARC
  8
LAYER_1
 10
420.3474
 20
-22.4331
 40
0.6528
 50
6.066193067
 51
49.62996607
  0
ARC
  8
LAYER_1
 10
419.5747
 20
-22.5931
 40
1.4401
 50
359.7756232
 51
9.146367368
  0
LINE
  8
LAYER_1
 10
421.0148
 20
-22.5987
 11
421.0148
 21
-24.211
  0
LINE
  8
LAYER_1
 10
421.0148
 20
-24.211
 11
420.7039
 21
-24.211
  0
LINE
  8
LAYER_1
 10
420.7039
 20
-24.211
 11
420.7039
 21
-22.6345
  0
ARC
  8
LAYER_1
 10
419.8442
 20
-22.6054
 40
0.8602
 50
358.0627892
 51
19.48702453
  0
ARC
  8
LAYER_1
 10
420.2475
 20
-22.4644
 40
0.4329
 50
19.69341995
 51
49.96487887
  0
ARC
  8
LAYER_1
 10
420.1924
 20
-22.5879
 40
0.5642
 50
53.74913583
 51
94.46032741
  0
ARC
  8
LAYER_1
 10
420.1489
 20
-22.7189
 40
0.6935
 50
90.03590281
 51
129.8639993
  0
ARC
  8
LAYER_1
 10
420.4072
 20
-23.0487
 40
1.1122
 50
129.1893445
 51
162.0673612
  0
LINE
  8
LAYER_1
 10
419.349
 20
-22.7062
 11
419.349
 21
-24.211
  0
LINE
  8
LAYER_1
 10
419.349
 20
-24.211
 11
419.0382
 21
-24.211
  0
LINE
  8
LAYER_1
 10
419.0382
 20
-24.211
 11
419.0382
 21
-21.7567
  0
LINE
  8
LAYER_1
 10
419.0382
 20
-21.7567
 11
419.349
 21
-21.7567
  0
LINE
  8
LAYER_1
 10
419.349
 20
-21.7567
 11
419.349
 21
-22.2583
  0
ARC
  8
LAYER_1
 10
420.2683
 20
-22.8484
 40
1.0924
 50
128.1682586
 51
147.3013471
  0
ARC
  8
LAYER_1
 10
420.2416
 20
-22.7682
 40
1.0132
 50
94.71600563
 51
129.7843011
  0
ARC
  8
LAYER_1
 10
420.2145
 20
-22.6751
 40
0.9184
 50
89.95857338
 51
93.51287669
  0
ARC
  8
LAYER_1
 10
420.2346
 20
-22.6481
 40
0.8917
 50
53.9196421
 51
91.2469403
  0
ARC
  8
LAYER_1
 10
420.2862
 20
-22.5374
 40
0.7721
 50
51.1823524
 51
52.17362777
  0
ENDBLK
  0
BLOCK
  8
LAYER_1
  2
AIGNBL01030011
 70
64
 10
0
 20
0
 30
0
  3
AIGNBL01030011
  0
LINE
  8
LAYER_1
 10
424.5013
 20
-24.211
 11
424.1239
 21
-24.211
  0
LINE
  8
LAYER_1
 10
424.1239
 20
-24.211
 11
422.9689
 21
-22.5987
  0
LINE
  8
LAYER_1
 10
422.9689
 20
-22.5987
 11
422.0139
 21
-22.5987
  0
LINE
  8
LAYER_1
 10
422.0139
 20
-22.5987
 11
422.0139
 21
-24.211
  0
LINE
  8
LAYER_1
 10
422.0139
 20
-24.211
 11
421.7031
 21
-24.211
  0
LINE
  8
LAYER_1
 10
421.7031
 20
-24.211
 11
421.7031
 21
-20.7177
  0
LINE
  8
LAYER_1
 10
421.7031
 20
-20.7177
 11
423.1022
 21
-20.7177
  0
ARC
  8
LAYER_1
 10
423.1508
 20
-22.4292
 40
1.7122
 50
64.78634393
 51
91.62619302
  0
ARC
  8
LAYER_1
 10
423.4547
 20
-21.6612
 40
0.8895
 50
51.15329891
 51
61.42266901
  0
ARC
  8
LAYER_1
 10
423.4868
 20
-21.6204
 40
0.8375
 50
358.0285714
 51
51.10895389
  0
ARC
  8
LAYER_1
 10
423.4414
 20
-21.6661
 40
0.8826
 50
324.0538843
 51
1.095358491
  0
ARC
  8
LAYER_1
 10
423.4731
 20
-21.6566
 40
0.8629
 50
308.7017291
 51
322.3098272
  0
ARC
  8
LAYER_1
 10
423.3953
 20
-21.5394
 40
1.0031
 50
290.1144101
 51
307.9832712
  0
ARC
  8
LAYER_1
 10
423.1236
 20
-20.7808
 40
1.8088
 50
275.667509
 51
289.9328649
  0
LINE
  8
LAYER_1
 10
423.3022
 20
-22.5808
 11
424.5013
 21
-24.211
  0
LINE
  8
LAYER_1
 10
422.0139
 20
-20.9864
 11
422.0139
 21
-22.33
  0
LINE
  8
LAYER_1
 10
422.0139
 20
-22.33
 11
423.0135
 21
-22.33
  0
ARC
  8
LAYER_1
 10
423.0488
 20
-20.622
 40
1.7084
 50
268.8145403
 51
283.8353824
  0
ARC
  8
LAYER_1
 10
423.2624
 20
-21.4694
 40
0.8345
 50
283.5133713
 51
307.3368065
  0
ARC
  8
LAYER_1
 10
423.3955
 20
-21.6689
 40
0.5954
 50
308.7978
 51
1.89553515
  0
ARC
  8
LAYER_1
 10
423.3785
 20
-21.6373
 40
0.6121
 50
358.8831178
 51
50.42354707
  0
ARC
  8
LAYER_1
 10
423.3189
 20
-21.7455
 40
0.7339
 50
52.22190104
 51
73.158632
  0
ARC
  8
LAYER_1
 10
423.1372
 20
-22.374
 40
1.3881
 50
73.49546464
 51
91.4452343
  0
LINE
  8
LAYER_1
 10
423.1022
 20
-20.9864
 11
422.0139
 21
-20.9864
  0
ENDBLK
  0
BLOCK
  8
LAYER_1
  2
AIGNBL01030012
 70
64
 10
0
 20
0
 30
0
  3
AIGNBL01030012
  0
ARC
  8
LAYER_1
 10
426.3415
 20
-22.4608
 40
0.6477
 50
358.8953531
 51
51.5122055
  0
LINE
  8
LAYER_1
 10
426.9891
 20
-22.4733
 11
426.9891
 21
-23.6915
  0
ARC
  8
LAYER_1
 10
428.0267
 20
-23.7019
 40
1.0376
 50
179.4235989
 51
209.3795198
  0
LINE
  8
LAYER_1
 10
427.1225
 20
-24.211
 11
426.7892
 21
-24.211
  0
ARC
  8
LAYER_1
 10
427.3885
 20
-23.8292
 40
0.7106
 50
181.8964594
 51
212.4999282
  0
ARC
  8
LAYER_1
 10
426.0212
 20
-23.2877
 40
0.8666
 50
307.189829
 51
319.3119411
  0
ARC
  8
LAYER_1
 10
425.8893
 20
-23.1568
 40
1.0509
 50
274.3504506
 51
308.6050919
  0
ARC
  8
LAYER_1
 10
425.8407
 20
-22.8973
 40
1.3137
 50
269.7153606
 51
275.6028137
  0
ARC
  8
LAYER_1
 10
425.8103
 20
-23.1966
 40
1.0147
 50
236.2903294
 51
271.3514804
  0
ARC
  8
LAYER_1
 10
425.731
 20
-23.371
 40
0.8262
 50
231.0915336
 51
234.1508653
  0
ARC
  8
LAYER_1
 10
425.5452
 20
-23.598
 40
0.5329
 50
178.4986863
 51
231.3116344
  0
ARC
  8
LAYER_1
 10
425.5481
 20
-23.5883
 40
0.5357
 50
125.8271978
 51
179.5390433
  0
ARC
  8
LAYER_1
 10
426.0314
 20
-24.2191
 40
1.3302
 50
111.9683279
 51
126.8010416
  0
ARC
  8
LAYER_1
 10
426.9461
 20
-26.4012
 40
3.6961
 50
106.0708689
 51
112.4634395
  0
ARC
  8
LAYER_1
 10
424.8891
 20
-18.9871
 40
3.9984
 50
284.9845405
 51
296.5823747
  0
ARC
  8
LAYER_1
 10
426.1434
 20
-22.5296
 40
0.536
 50
356.4520709
 51
44.97668772
  0
ARC
  8
LAYER_1
 10
426.1052
 20
-22.6842
 40
0.6772
 50
51.96319352
 51
92.26961274
  0
ARC
  8
LAYER_1
 10
426.0688
 20
-22.6725
 40
0.6651
 50
89.1726404
 51
128.3313414
  0
ARC
  8
LAYER_1
 10
426.0248
 20
-22.5908
 40
0.5739
 50
129.9435942
 51
171.8142261
  0
LINE
  8
LAYER_1
 10
425.4567
 20
-22.5091
 11
425.1013
 21
-22.5091
  0
ARC
  8
LAYER_1
 10
425.9335
 20
-22.6305
 40
0.841
 50
126.4176159
 51
171.6973663
  0
ARC
  8
LAYER_1
 10
425.9997
 20
-22.6813
 40
0.9215
 50
91.53634868
 51
127.8595442
  0
ARC
  8
LAYER_1
 10
426.0724
 20
-23.1141
 40
1.3574
 50
89.74504012
 51
94.11220953
  0
ARC
  8
LAYER_1
 10
426.1131
 20
-22.8858
 40
1.1296
 50
58.6194476
 51
91.75785475
  0
ARC
  8
LAYER_1
 10
426.26
 20
-22.5567
 40
0.7735
 50
51.21066166
 51
55.21930848
  0
ARC
  8
LAYER_1
 10
425.6092
 20
-20.7169
 40
2.3856
 50
282.4346248
 51
296.6244974
  0
ARC
  8
LAYER_1
 10
426.4428
 20
-24.7366
 40
1.7201
 50
100.7186377
 51
123.201468
  0
ARC
  8
LAYER_1
 10
425.7241
 20
-23.6037
 40
0.3791
 50
126.0646439
 51
177.0173138
  0
ARC
  8
LAYER_1
 10
425.6606
 20
-23.5773
 40
0.3152
 50
181.2127761
 51
234.7684415
  0
ARC
  8
LAYER_1
 10
425.8125
 20
-23.3796
 40
0.5644
 50
233.7561098
 51
274.4533535
  0
ARC
  8
LAYER_1
 10
425.8852
 20
-23.0754
 40
0.8673
 50
268.0933954
 51
305.5631596
  0
ARC
  8
LAYER_1
 10
425.3489
 20
-22.444
 40
1.6943
 50
307.8958858
 51
321.685826
  0
LINE
  8
LAYER_1
 10
426.6783
 20
-23.4944
 11
426.6783
 21
-22.8495
  0
ENDBLK
  0
BLOCK
  8
LAYER_1
  2
AIGNBL01030013
 70
64
 10
0
 20
0
 30
0
  3
AIGNBL01030013
  0
LINE
  8
LAYER_1
 10
428.1662
 20
-21.0939
 11
427.8111
 21
-21.0939
  0
LINE
  8
LAYER_1
 10
427.8111
 20
-21.0939
 11
427.8111
 21
-20.7177
  0
LINE
  8
LAYER_1
 10
427.8111
 20
-20.7177
 11
428.1662
 21
-20.7177
  0
LINE
  8
LAYER_1
 10
428.1662
 20
-20.7177
 11
428.1662
 21
-21.0939
  0
LINE
  8
LAYER_1
 10
428.1441
 20
-24.211
 11
427.8332
 21
-24.211
  0
LINE
  8
LAYER_1
 10
427.8332
 20
-24.211
 11
427.8332
 21
-21.7567
  0
LINE
  8
LAYER_1
 10
427.8332
 20
-21.7567
 11
428.1441
 21
-21.7567
  0
LINE
  8
LAYER_1
 10
428.1441
 20
-21.7567
 11
428.1441
 21
-24.211
  0
ENDBLK
  0
BLOCK
  8
LAYER_1
  2
AIGNBL01030014
 70
64
 10
0
 20
0
 30
0
  3
AIGNBL01030014
  0
LINE
  8
LAYER_1
 10
429.1657
 20
-22.9211
 11
430.4761
 21
-21.7567
  0
LINE
  8
LAYER_1
 10
430.4761
 20
-21.7567
 11
430.8757
 21
-21.7567
  0
LINE
  8
LAYER_1
 10
430.8757
 20
-21.7567
 11
429.8765
 21
-22.6703
  0
LINE
  8
LAYER_1
 10
429.8765
 20
-22.6703
 11
431.0315
 21
-24.211
  0
LINE
  8
LAYER_1
 10
431.0315
 20
-24.211
 11
430.6536
 21
-24.211
  0
LINE
  8
LAYER_1
 10
430.6536
 20
-24.211
 11
429.6544
 21
-22.8674
  0
LINE
  8
LAYER_1
 10
429.6544
 20
-22.8674
 11
429.1657
 21
-23.2794
  0
LINE
  8
LAYER_1
 10
429.1657
 20
-23.2794
 11
429.1657
 21
-24.211
  0
LINE
  8
LAYER_1
 10
429.1657
 20
-24.211
 11
428.8549
 21
-24.211
  0
LINE
  8
LAYER_1
 10
428.8549
 20
-24.211
 11
428.8549
 21
-20.7177
  0
LINE
  8
LAYER_1
 10
428.8549
 20
-20.7177
 11
429.1657
 21
-20.7177
  0
LINE
  8
LAYER_1
 10
429.1657
 20
-20.7177
 11
429.1657
 21
-22.9211
  0
ENDBLK
  0
BLOCK
  8
LAYER_1
  2
AIGNBL01030015
 70
64
 10
0
 20
0
 30
0
  3
AIGNBL01030015
  0
ARC
  8
LAYER_1
 10
432.9966
 20
-22.6595
 40
0.8773
 50
12.60535839
 51
49.78015098
  0
ARC
  8
LAYER_1
 10
431.8871
 20
-22.9827
 40
2.032
 50
358.7043305
 51
14.67021056
  0
LINE
  8
LAYER_1
 10
433.9185
 20
-23.0286
 11
432.0527
 21
-23.0286
  0
ARC
  8
LAYER_1
 10
433.2178
 20
-23.0254
 40
1.1651
 50
180.1564368
 51
212.937591
  0
ARC
  8
LAYER_1
 10
432.7281
 20
-23.2849
 40
0.6149
 50
217.4609626
 51
231.0501281
  0
ARC
  8
LAYER_1
 10
432.8452
 20
-23.145
 40
0.7974
 50
230.8249409
 51
270.5110491
  0
ARC
  8
LAYER_1
 10
432.8579
 20
-23.1406
 40
0.8017
 50
269.6008139
 51
309.0631962
  0
ARC
  8
LAYER_1
 10
433.003
 20
-23.3225
 40
0.569
 50
309.2650276
 51
349.862747
  0
LINE
  8
LAYER_1
 10
433.5631
 20
-23.4227
 11
433.8739
 21
-23.4227
  0
ARC
  8
LAYER_1
 10
433.0533
 20
-23.3306
 40
0.8258
 50
314.9109041
 51
353.5950804
  0
ARC
  8
LAYER_1
 10
433.1001
 20
-23.3555
 40
0.7752
 50
308.7395833
 51
313.7628734
  0
ARC
  8
LAYER_1
 10
432.8732
 20
-23.0759
 40
1.1353
 50
268.9430762
 51
308.8390436
  0
ARC
  8
LAYER_1
 10
432.8346
 20
-22.9841
 40
1.227
 50
239.2915575
 51
270.8243559
  0
ARC
  8
LAYER_1
 10
432.7851
 20
-23.1116
 40
1.0923
 50
230.9757754
 51
238.1127847
  0
ARC
  8
LAYER_1
 10
432.6965
 20
-23.2301
 40
0.9445
 50
194.4648819
 51
230.6233388
  0
ARC
  8
LAYER_1
 10
433.4313
 20
-23.0078
 40
1.7118
 50
178.8975076
 51
195.5256865
  0
ARC
  8
LAYER_1
 10
433.1833
 20
-22.94
 40
1.464
 50
152.2522295
 51
181.3642106
  0
ARC
  8
LAYER_1
 10
432.7339
 20
-22.7533
 40
0.9802
 50
128.8196472
 51
149.67893
  0
ARC
  8
LAYER_1
 10
432.7748
 20
-22.8175
 40
1.0559
 50
94.54633015
 51
128.3661435
  0
ARC
  8
LAYER_1
 10
432.8432
 20
-23.1639
 40
1.4073
 50
89.62772971
 51
96.20349867
  0
ARC
  8
LAYER_1
 10
432.8707
 20
-22.9186
 40
1.1621
 50
58.70061417
 51
90.90531606
  0
ARC
  8
LAYER_1
 10
432.9281
 20
-22.7776
 40
1.012
 50
51.13492566
 51
57.33000345
  0
ARC
  8
LAYER_1
 10
432.692
 20
-22.7698
 40
0.8932
 50
0.6323163431
 51
37.95011538
  0
ARC
  8
LAYER_1
 10
432.9947
 20
-22.5948
 40
0.549
 50
42.98287442
 51
50.89905263
  0
ARC
  8
LAYER_1
 10
432.8766
 20
-22.7553
 40
0.7482
 50
51.62942978
 51
91.85980427
  0
ARC
  8
LAYER_1
 10
432.83
 20
-22.8268
 40
0.8196
 50
88.44194211
 51
126.5877202
  0
ARC
  8
LAYER_1
 10
432.835
 20
-22.7759
 40
0.7825
 50
129.1017402
 51
178.8274293
  0
LINE
  8
LAYER_1
 10
432.0527
 20
-22.7599
 11
433.5852
 21
-22.7599
  0
ENDBLK
  0
BLOCK
  8
LAYER_1
  2
AIGNBL01030016
 70
64
 10
0
 20
0
 30
0
  3
AIGNBL01030016
  0
ARC
  8
LAYER_1
 10
435.9168
 20
-22.4329
 40
0.6524
 50
6.052944294
 51
49.64662325
  0
ARC
  8
LAYER_1
 10
435.1426
 20
-22.593
 40
1.4412
 50
359.7753414
 51
9.138735262
  0
LINE
  8
LAYER_1
 10
436.5838
 20
-22.5987
 11
436.5838
 21
-24.211
  0
LINE
  8
LAYER_1
 10
436.5838
 20
-24.211
 11
436.2729
 21
-24.211
  0
LINE
  8
LAYER_1
 10
436.2729
 20
-24.211
 11
436.2729
 21
-22.6345
  0
ARC
  8
LAYER_1
 10
435.4129
 20
-22.6054
 40
0.8605
 50
358.0648143
 51
19.47992018
  0
ARC
  8
LAYER_1
 10
435.8164
 20
-22.4643
 40
0.4331
 50
19.68415817
 51
49.93849285
  0
ARC
  8
LAYER_1
 10
435.7613
 20
-22.5884
 40
0.5647
 50
53.76649242
 51
94.44297082
  0
ARC
  8
LAYER_1
 10
435.718
 20
-22.7191
 40
0.6937
 50
90.03109776
 51
129.8605303
  0
ARC
  8
LAYER_1
 10
435.9762
 20
-23.0487
 40
1.1122
 50
129.1893445
 51
162.0673612
  0
LINE
  8
LAYER_1
 10
434.918
 20
-22.7062
 11
434.918
 21
-24.211
  0
LINE
  8
LAYER_1
 10
434.918
 20
-24.211
 11
434.6072
 21
-24.211
  0
LINE
  8
LAYER_1
 10
434.6072
 20
-24.211
 11
434.6072
 21
-21.7567
  0
LINE
  8
LAYER_1
 10
434.6072
 20
-21.7567
 11
434.918
 21
-21.7567
  0
LINE
  8
LAYER_1
 10
434.918
 20
-21.7567
 11
434.918
 21
-22.2583
  0
ARC
  8
LAYER_1
 10
435.8386
 20
-22.8496
 40
1.0941
 50
128.1836958
 51
147.2859099
  0
ARC
  8
LAYER_1
 10
435.8108
 20
-22.7688
 40
1.0139
 50
94.72575203
 51
129.7728799
  0
ARC
  8
LAYER_1
 10
435.7835
 20
-22.6746
 40
0.9179
 50
89.95901443
 51
93.51387211
  0
ARC
  8
LAYER_1
 10
435.8036
 20
-22.6481
 40
0.8916
 50
53.91828854
 51
91.24869688
  0
ARC
  8
LAYER_1
 10
435.856
 20
-22.5361
 40
0.7706
 50
51.16371242
 51
52.1565867
  0
ENDBLK
  0
BLOCK
  8
LAYER_1
  2
AIGNBL01030017
 70
64
 10
0
 20
0
 30
0
  3
AIGNBL01030017
  0
LINE
  8
LAYER_1
 10
438.7158
 20
-23.781
 11
439.782
 21
-20.7177
  0
LINE
  8
LAYER_1
 10
439.782
 20
-20.7177
 11
440.1595
 21
-20.7177
  0
LINE
  8
LAYER_1
 10
440.1595
 20
-20.7177
 11
438.8937
 21
-24.211
  0
LINE
  8
LAYER_1
 10
438.8937
 20
-24.211
 11
438.5383
 21
-24.211
  0
LINE
  8
LAYER_1
 10
438.5383
 20
-24.211
 11
437.2725
 21
-20.7177
  0
LINE
  8
LAYER_1
 10
437.2725
 20
-20.7177
 11
437.65
 21
-20.7177
  0
LINE
  8
LAYER_1
 10
437.65
 20
-20.7177
 11
438.7158
 21
-23.781
  0
ENDBLK
  0
BLOCK
  8
LAYER_1
  2
AIGNBL01030018
 70
64
 10
0
 20
0
 30
0
  3
AIGNBL01030018
  0
ARC
  8
LAYER_1
 10
442.125
 20
-22.6595
 40
0.8773
 50
12.60535839
 51
49.78015098
  0
ARC
  8
LAYER_1
 10
441.0155
 20
-22.9827
 40
2.032
 50
358.7043305
 51
14.67021056
  0
LINE
  8
LAYER_1
 10
443.0469
 20
-23.0286
 11
441.1811
 21
-23.0286
  0
ARC
  8
LAYER_1
 10
442.3462
 20
-23.0254
 40
1.1651
 50
180.1564368
 51
212.937591
  0
ARC
  8
LAYER_1
 10
441.8565
 20
-23.2849
 40
0.6149
 50
217.4609626
 51
231.0501281
  0
ARC
  8
LAYER_1
 10
441.9736
 20
-23.145
 40
0.7974
 50
230.8249409
 51
270.5110491
  0
ARC
  8
LAYER_1
 10
441.9863
 20
-23.1406
 40
0.8017
 50
269.6008139
 51
309.0631962
  0
ARC
  8
LAYER_1
 10
442.1314
 20
-23.3225
 40
0.569
 50
309.2650276
 51
349.862747
  0
LINE
  8
LAYER_1
 10
442.6915
 20
-23.4227
 11
443.0023
 21
-23.4227
  0
ARC
  8
LAYER_1
 10
442.1817
 20
-23.3306
 40
0.8258
 50
314.9109041
 51
353.5950804
  0
ARC
  8
LAYER_1
 10
442.2285
 20
-23.3555
 40
0.7752
 50
308.7395833
 51
313.7628734
  0
ARC
  8
LAYER_1
 10
442.0016
 20
-23.0759
 40
1.1353
 50
268.9430762
 51
308.8390436
  0
ARC
  8
LAYER_1
 10
441.963
 20
-22.9841
 40
1.227
 50
239.2915575
 51
270.8243559
  0
ARC
  8
LAYER_1
 10
441.9135
 20
-23.1116
 40
1.0923
 50
230.9757754
 51
238.1127847
  0
ARC
  8
LAYER_1
 10
441.8249
 20
-23.2301
 40
0.9445
 50
194.4648819
 51
230.6233388
  0
ARC
  8
LAYER_1
 10
442.5597
 20
-23.0078
 40
1.7118
 50
178.8975076
 51
195.5256865
  0
ARC
  8
LAYER_1
 10
442.3117
 20
-22.94
 40
1.464
 50
152.2522295
 51
181.3642106
  0
ARC
  8
LAYER_1
 10
441.8623
 20
-22.7533
 40
0.9802
 50
128.8196472
 51
149.67893
  0
ARC
  8
LAYER_1
 10
441.9032
 20
-22.8175
 40
1.0559
 50
94.54633015
 51
128.3661435
  0
ARC
  8
LAYER_1
 10
441.9716
 20
-23.1639
 40
1.4073
 50
89.62772971
 51
96.20349867
  0
ARC
  8
LAYER_1
 10
441.9991
 20
-22.9186
 40
1.1621
 50
58.70061417
 51
90.90531606
  0
ARC
  8
LAYER_1
 10
442.0565
 20
-22.7776
 40
1.012
 50
51.13492566
 51
57.33000345
  0
ARC
  8
LAYER_1
 10
441.8204
 20
-22.7698
 40
0.8932
 50
0.632316343
 51
37.95011538
  0
ARC
  8
LAYER_1
 10
442.1231
 20
-22.5948
 40
0.549
 50
42.98287442
 51
50.89905263
  0
ARC
  8
LAYER_1
 10
442.005
 20
-22.7553
 40
0.7482
 50
51.62942978
 51
91.85980427
  0
ARC
  8
LAYER_1
 10
441.9584
 20
-22.8268
 40
0.8196
 50
88.44194211
 51
126.5877202
  0
ARC
  8
LAYER_1
 10
441.9634
 20
-22.7759
 40
0.7825
 50
129.1017402
 51
178.8274293
  0
LINE
  8
LAYER_1
 10
441.1811
 20
-22.7599
 11
442.7136
 21
-22.7599
  0
ENDBLK
  0
BLOCK
  8
LAYER_1
  2
AIGNBL01030019
 70
64
 10
0
 20
0
 30
0
  3
AIGNBL01030019
  0
ARC
  8
LAYER_1
 10
445.0305
 20
-22.6231
 40
0.8375
 50
1.671258445
 51
51.06339914
  0
LINE
  8
LAYER_1
 10
445.8676
 20
-22.5987
 11
445.5343
 21
-22.5987
  0
ARC
  8
LAYER_1
 10
444.8903
 20
-22.6165
 40
0.6443
 50
1.58055456
 51
45.70579646
  0
ARC
  8
LAYER_1
 10
445.041
 20
-22.5128
 40
0.4662
 50
50.0789695
 51
50.95457144
  0
ARC
  8
LAYER_1
 10
444.9169
 20
-22.6859
 40
0.6789
 50
52.01439078
 51
92.22595481
  0
ARC
  8
LAYER_1
 10
444.8852
 20
-22.8111
 40
0.8036
 50
89.6186395
 51
129.0043909
  0
ARC
  8
LAYER_1
 10
444.8919
 20
-22.8041
 40
0.8025
 50
129.6946848
 51
169.2357304
  0
ARC
  8
LAYER_1
 10
445.5765
 20
-22.9779
 40
1.508
 50
167.6047547
 51
180.565743
  0
ARC
  8
LAYER_1
 10
445.2802
 20
-23.0377
 40
1.2125
 50
177.8795135
 51
209.7652959
  0
ARC
  8
LAYER_1
 10
444.7627
 20
-23.2791
 40
0.6452
 50
213.9717645
 51
231.0723404
  0
ARC
  8
LAYER_1
 10
444.8534
 20
-23.184
 40
0.7763
 50
230.2735397
 51
269.4517866
  0
ARC
  8
LAYER_1
 10
444.8661
 20
-23.3249
 40
0.6356
 50
268.1860073
 51
306.6591483
  0
ARC
  8
LAYER_1
 10
444.8151
 20
-23.315
 40
0.6749
 50
309.6324237
 51
331.4085902
  0
ARC
  8
LAYER_1
 10
444.3806
 20
-23.0908
 40
1.1638
 50
331.95394
 51
352.4559225
  0
LINE
  8
LAYER_1
 10
445.5343
 20
-23.2436
 11
445.8676
 21
-23.2436
  0
ARC
  8
LAYER_1
 10
444.6839
 20
-23.1745
 40
1.1857
 50
324.474546
 51
356.6583966
  0
ARC
  8
LAYER_1
 10
445.059
 20
-23.3884
 40
0.7574
 50
308.8650125
 51
321.1503435
  0
ARC
  8
LAYER_1
 10
444.8782
 20
-23.1706
 40
1.0405
 50
269.4444518
 51
309.0942617
  0
ARC
  8
LAYER_1
 10
444.8439
 20
-22.9913
 40
1.22
 50
239.4742138
 51
271.1358593
  0
ARC
  8
LAYER_1
 10
444.7495
 20
-23.2179
 40
0.9773
 50
231.0597509
 51
237.4946614
  0
ARC
  8
LAYER_1
 10
444.7722
 20
-23.1932
 40
1.0109
 50
196.201462
 51
230.939326
  0
ARC
  8
LAYER_1
 10
445.3234
 20
-23.0217
 40
1.588
 50
178.955892
 51
196.592382
  0
ARC
  8
LAYER_1
 10
445.1993
 20
-22.9579
 40
1.4641
 50
152.2570094
 51
181.3661544
  0
ARC
  8
LAYER_1
 10
444.7492
 20
-22.771
 40
0.9798
 50
128.8084293
 51
149.6793015
  0
ARC
  8
LAYER_1
 10
444.8541
 20
-22.9098
 40
1.1537
 50
88.19172
 51
128.5461335
  0
ARC
  8
LAYER_1
 10
444.9113
 20
-22.8457
 40
1.0892
 50
57.48337982
 51
91.09649987
  0
ARC
  8
LAYER_1
 10
444.9797
 20
-22.6875
 40
0.9195
 50
51.1229112
 51
55.77503012
  0
ENDBLK
  0
BLOCK
  8
LAYER_1
  2
AIGNBL0103001A
 70
64
 10
0
 20
0
 30
0
  3
AIGNBL0103001A
  0
LINE
  8
LAYER_1
 10
446.9338
 20
-22.0254
 11
446.5563
 21
-22.0254
  0
LINE
  8
LAYER_1
 10
446.5563
 20
-22.0254
 11
446.5563
 21
-21.7567
  0
LINE
  8
LAYER_1
 10
446.5563
 20
-21.7567
 11
446.9338
 21
-21.7567
  0
LINE
  8
LAYER_1
 10
446.9338
 20
-21.7567
 11
446.9338
 21
-21.0759
  0
LINE
  8
LAYER_1
 10
446.9338
 20
-21.0759
 11
447.2446
 21
-21.0759
  0
LINE
  8
LAYER_1
 10
447.2446
 20
-21.0759
 11
447.2446
 21
-21.7567
  0
LINE
  8
LAYER_1
 10
447.2446
 20
-21.7567
 11
447.8888
 21
-21.7567
  0
LINE
  8
LAYER_1
 10
447.8888
 20
-21.7567
 11
447.8888
 21
-22.0254
  0
LINE
  8
LAYER_1
 10
447.8888
 20
-22.0254
 11
447.2446
 21
-22.0254
  0
LINE
  8
LAYER_1
 10
447.2446
 20
-22.0254
 11
447.2446
 21
-23.7273
  0
ARC
  8
LAYER_1
 10
447.4396
 20
-23.741
 40
0.1955
 50
175.9732437
 51
228.9835322
  0
ARC
  8
LAYER_1
 10
447.5003
 20
-23.5935
 40
0.3504
 50
237.3514
 51
275.4152849
  0
ARC
  8
LAYER_1
 10
447.4615
 20
-21.8947
 40
2.0489
 50
272.0111657
 51
283.3132415
  0
LINE
  8
LAYER_1
 10
447.9333
 20
-23.8885
 11
447.9333
 21
-24.1572
  0
ARC
  8
LAYER_1
 10
447.5248
 20
-22.6457
 40
1.5657
 50
268.6807438
 51
285.1216927
  0
ARC
  8
LAYER_1
 10
447.4424
 20
-23.512
 40
0.7006
 50
237.6031931
 51
273.7942508
  0
ARC
  8
LAYER_1
 10
447.3156
 20
-23.812
 40
0.3831
 50
175.3615279
 51
229.5523501
  0
LINE
  8
LAYER_1
 10
446.9338
 20
-23.781
 11
446.9338
 21
-22.0254
  0
ENDBLK
  0
BLOCK
  8
LAYER_1
  2
AIGNBL0103001B
 70
64
 10
0
 20
0
 30
0
  3
AIGNBL0103001B
  0
ARC
  8
LAYER_1
 10
449.7578
 20
-22.9426
 40
1.1859
 50
50.66150285
 51
90.17219299
  0
ARC
  8
LAYER_1
 10
449.9018
 20
-22.7675
 40
0.9592
 50
14.76823995
 51
50.68858398
  0
ARC
  8
LAYER_1
 10
449.2902
 20
-22.9491
 40
1.597
 50
359.0745588
 51
15.47326638
  0
ARC
  8
LAYER_1
 10
449.3987
 20
-23.0129
 40
1.4888
 50
332.9229904
 51
1.463898015
  0
ARC
  8
LAYER_1
 10
449.9402
 20
-23.2389
 40
0.9049
 50
308.9846043
 51
330.054276
  0
ARC
  8
LAYER_1
 10
449.7551
 20
-23.0176
 40
1.1934
 50
269.9580643
 51
309.2082399
  0
ARC
  8
LAYER_1
 10
449.7504
 20
-23.0267
 40
1.1843
 50
230.6338742
 51
270.1854435
  0
ARC
  8
LAYER_1
 10
449.6001
 20
-23.2076
 40
0.9492
 50
194.5641692
 51
230.7187548
  0
ARC
  8
LAYER_1
 10
450.2817
 20
-23.0039
 40
1.6602
 50
178.9999448
 51
195.4543813
  0
ARC
  8
LAYER_1
 10
450.0559
 20
-22.9389
 40
1.4346
 50
152.440143
 51
181.4386246
  0
ARC
  8
LAYER_1
 10
449.5725
 20
-22.7369
 40
0.9137
 50
128.8590762
 51
149.64206
  0
ARC
  8
LAYER_1
 10
449.7531
 20
-22.9486
 40
1.1919
 50
89.94611367
 51
129.2345685
  0
ARC
  8
LAYER_1
 10
449.724
 20
-22.7784
 40
0.7485
 50
129.9572066
 51
170.513785
  0
ARC
  8
LAYER_1
 10
450.4765
 20
-22.9615
 40
1.5219
 50
168.3825372
 51
180.5048727
  0
ARC
  8
LAYER_1
 10
450.1666
 20
-23.0197
 40
1.2128
 50
177.8808615
 51
209.7571183
  0
ARC
  8
LAYER_1
 10
449.6488
 20
-23.2613
 40
0.6452
 50
213.9608257
 51
231.0572481
  0
ARC
  8
LAYER_1
 10
449.7471
 20
-23.1448
 40
0.7976
 50
230.8301274
 51
270.5128691
  0
ARC
  8
LAYER_1
 10
449.7597
 20
-23.1404
 40
0.8019
 50
269.6052449
 51
309.0587652
  0
ARC
  8
LAYER_1
 10
449.7853
 20
-23.1926
 40
0.7453
 50
310.0589858
 51
350.8067204
  0
ARC
  8
LAYER_1
 10
448.9632
 20
-22.9909
 40
1.5906
 50
348.3621131
 51
0.5748288016
  0
ARC
  8
LAYER_1
 10
449.3922
 20
-22.9332
 40
1.1623
 50
357.9424682
 51
30.405245
  0
ARC
  8
LAYER_1
 10
449.8499
 20
-22.718
 40
0.6602
 50
34.40440476
 51
51.04012059
  0
ARC
  8
LAYER_1
 10
449.7599
 20
-22.8269
 40
0.8015
 50
50.93185275
 51
90.40413715
  0
ARC
  8
LAYER_1
 10
449.749
 20
-22.8286
 40
0.8032
 50
89.63143996
 51
129.0255635
  0
ENDBLK
  0
BLOCK
  8
LAYER_1
  2
AIGNBL0103001C
 70
64
 10
0
 20
0
 30
0
  3
AIGNBL0103001C
  0
ARC
  8
LAYER_1
 10
452.9664
 20
-23.1085
 40
1.0479
 50
91.97449921
 51
126.0364908
  0
ARC
  8
LAYER_1
 10
452.9124
 20
-22.9974
 40
0.9265
 50
127.3790583
 51
128.8914925
  0
ARC
  8
LAYER_1
 10
453.1515
 20
-23.2783
 40
1.2954
 50
129.3195113
 51
159.9076653
  0
ARC
  8
LAYER_1
 10
453.4883
 20
-23.4442
 40
1.6692
 50
158.5305935
 51
163.6690784
  0
LINE
  8
LAYER_1
 10
451.8865
 20
-22.9749
 11
451.8865
 21
-24.211
  0
LINE
  8
LAYER_1
 10
451.8865
 20
-24.211
 11
451.5757
 21
-24.211
  0
LINE
  8
LAYER_1
 10
451.5757
 20
-24.211
 11
451.5757
 21
-21.7567
  0
LINE
  8
LAYER_1
 10
451.5757
 20
-21.7567
 11
451.8865
 21
-21.7567
  0
LINE
  8
LAYER_1
 10
451.8865
 20
-21.7567
 11
451.8865
 21
-22.4016
  0
ARC
  8
LAYER_1
 10
452.8099
 20
-22.8482
 40
1.0257
 50
126.6660176
 51
154.191822
  0
ARC
  8
LAYER_1
 10
452.9593
 20
-22.9923
 40
1.231
 50
96.7347369
 51
128.2380372
  0
ARC
  8
LAYER_1
 10
453.0592
 20
-23.4099
 40
1.6582
 50
94.45866182
 51
98.47013404
  0
LINE
  8
LAYER_1
 10
452.9303
 20
-21.7567
 11
452.9303
 21
-22.0612
  0
ENDBLK
  0
BLOCK
  8
LAYER_1
  2
AIGNBL0103001D
 70
64
 10
0
 20
0
 30
0
  3
AIGNBL0103001D
  0
ARC
  8
LAYER_1
 10
456.9874
 20
-22.0808
 40
1.3725
 50
22.00525061
 51
51.66041441
  0
ARC
  8
LAYER_1
 10
456.9553
 20
-22.0678
 40
1.3976
 50
3.944709453
 51
21.01923372
  0
LINE
  8
LAYER_1
 10
458.3496
 20
-21.9717
 11
457.9942
 21
-21.9717
  0
ARC
  8
LAYER_1
 10
456.7058
 20
-22.1814
 40
1.3053
 50
9.244936017
 51
39.89846196
  0
ARC
  8
LAYER_1
 10
456.971
 20
-22.0087
 40
0.9919
 50
42.07227079
 51
51.06597021
  0
ARC
  8
LAYER_1
 10
456.9862
 20
-21.9894
 40
0.9673
 50
51.04363883
 51
90.80293306
  0
ARC
  8
LAYER_1
 10
456.9725
 20
-22.0291
 40
1.0069
 50
89.99521346
 51
129.7637352
  0
ARC
  8
LAYER_1
 10
457.0506
 20
-22.1364
 40
1.1394
 50
129.3282959
 51
161.8462612
  0
ARC
  8
LAYER_1
 10
457.884
 20
-22.4305
 40
2.023
 50
161.2872167
 51
181.7196094
  0
ARC
  8
LAYER_1
 10
457.963
 20
-22.5458
 40
2.1018
 50
178.5111965
 51
202.8880035
  0
ARC
  8
LAYER_1
 10
456.9068
 20
-22.9384
 40
0.9773
 50
205.7650824
 51
230.4033087
  0
ARC
  8
LAYER_1
 10
456.8928
 20
-22.9234
 40
0.9802
 50
231.5971318
 51
266.9374647
  0
ARC
  8
LAYER_1
 10
456.9447
 20
-22.6265
 40
1.28
 50
265.3245196
 51
270.2397005
  0
ARC
  8
LAYER_1
 10
456.9712
 20
-22.8168
 40
1.0898
 50
268.8891446
 51
302.4978619
  0
ARC
  8
LAYER_1
 10
457.0406
 20
-22.9774
 40
0.9175
 50
304.2317539
 51
308.8925694
  0
ARC
  8
LAYER_1
 10
456.9987
 20
-22.9519
 40
0.9638
 50
309.8804575
 51
345.8002502
  0
ARC
  8
LAYER_1
 10
456.1725
 20
-22.6755
 40
1.8338
 50
343.7622191
 51
353.4314757
  0
LINE
  8
LAYER_1
 10
457.9942
 20
-22.8853
 11
458.3496
 21
-22.8853
  0
ARC
  8
LAYER_1
 10
456.5849
 20
-22.7565
 40
1.7694
 50
329.5088725
 51
355.8261983
  0
ARC
  8
LAYER_1
 10
457.2037
 20
-23.0679
 40
1.0792
 50
309.0113598
 51
327.0821032
  0
ARC
  8
LAYER_1
 10
457.0131
 20
-22.8192
 40
1.3924
 50
268.3335414
 51
308.6646952
  0
ARC
  8
LAYER_1
 10
456.9563
 20
-22.6534
 40
1.5577
 50
242.6588458
 51
270.6006766
  0
ARC
  8
LAYER_1
 10
456.9255
 20
-22.7662
 40
1.4435
 50
231.0262418
 51
241.6854014
  0
ARC
  8
LAYER_1
 10
456.7842
 20
-22.9571
 40
1.2063
 50
198.8310515
 51
230.5439002
  0
ARC
  8
LAYER_1
 10
457.5306
 20
-22.6579
 40
2.0097
 50
188.8838186
 51
200.036658
  0
ARC
  8
LAYER_1
 10
458.6789
 20
-22.4774
 40
3.1722
 50
179.6025146
 51
188.9017078
  0
ARC
  8
LAYER_1
 10
457.6362
 20
-22.4243
 40
2.1297
 50
156.9967553
 51
180.8361337
  0
ARC
  8
LAYER_1
 10
457.0554
 20
-22.224
 40
1.5173
 50
128.7135698
 51
155.3870176
  0
ARC
  8
LAYER_1
 10
457.0212
 20
-22.1471
 40
1.4361
 50
100.5737547
 51
129.5697784
  0
ARC
  8
LAYER_1
 10
456.9719
 20
-22.0231
 40
1.3054
 50
89.97110599
 51
99.44652635
  0
ARC
  8
LAYER_1
 10
456.9913
 20
-22.1425
 40
1.425
 50
61.295461
 51
90.75165687
  0
ARC
  8
LAYER_1
 10
457.0405
 20
-21.996
 40
1.2731
 50
51.16628827
 51
60.06998139
  0
ENDBLK
  0
BLOCK
  8
LAYER_1
  2
AIGNBL0103001E
 70
64
 10
0
 20
0
 30
0
  3
AIGNBL0103001E
  0
ARC
  8
LAYER_1
 10
460.1744
 20
-22.9427
 40
1.186
 50
50.66407849
 51
90.1744078
  0
ARC
  8
LAYER_1
 10
460.3185
 20
-22.7675
 40
0.9592
 50
14.76823995
 51
50.68858398
  0
ARC
  8
LAYER_1
 10
459.7069
 20
-22.9491
 40
1.597
 50
359.0745588
 51
15.47326638
  0
ARC
  8
LAYER_1
 10
459.8154
 20
-23.0129
 40
1.4888
 50
332.9229904
 51
1.463898015
  0
ARC
  8
LAYER_1
 10
460.3569
 20
-23.2389
 40
0.9049
 50
308.9846043
 51
330.054276
  0
ARC
  8
LAYER_1
 10
460.1718
 20
-23.0175
 40
1.1935
 50
269.9536806
 51
309.2078331
  0
ARC
  8
LAYER_1
 10
460.167
 20
-23.0267
 40
1.1844
 50
230.6348894
 51
270.1844284
  0
ARC
  8
LAYER_1
 10
460.0172
 20
-23.2074
 40
0.9496
 50
194.5709147
 51
230.7073161
  0
ARC
  8
LAYER_1
 10
460.6978
 20
-23.0038
 40
1.6598
 50
179.0010711
 51
195.4601095
  0
ARC
  8
LAYER_1
 10
460.4724
 20
-22.9389
 40
1.4345
 50
152.4352517
 51
181.4366148
  0
ARC
  8
LAYER_1
 10
459.9895
 20
-22.7371
 40
0.9142
 50
128.8709262
 51
149.6419077
  0
ARC
  8
LAYER_1
 10
460.1698
 20
-22.949
 40
1.1923
 50
89.95302455
 51
129.2276577
  0
ARC
  8
LAYER_1
 10
460.1403
 20
-22.7782
 40
0.7481
 50
129.9426778
 51
170.5241534
  0
ARC
  8
LAYER_1
 10
460.894
 20
-22.9615
 40
1.5227
 50
168.3896326
 51
180.5054784
  0
ARC
  8
LAYER_1
 10
460.5833
 20
-23.0198
 40
1.2129
 50
177.8776841
 51
209.7531783
  0
ARC
  8
LAYER_1
 10
460.0652
 20
-23.2614
 40
0.6448
 50
213.9644615
 51
231.0723734
  0
ARC
  8
LAYER_1
 10
460.1637
 20
-23.1448
 40
0.7975
 50
230.8292577
 51
270.5067322
  0
ARC
  8
LAYER_1
 10
460.1764
 20
-23.1407
 40
0.8016
 50
269.5985724
 51
309.0654377
  0
ARC
  8
LAYER_1
 10
460.2022
 20
-23.1926
 40
0.7452
 50
310.0430385
 51
350.8041923
  0
ARC
  8
LAYER_1
 10
459.3802
 20
-22.9909
 40
1.5903
 50
348.3604548
 51
0.5752092068
  0
ARC
  8
LAYER_1
 10
459.8092
 20
-22.9332
 40
1.1619
 50
357.9411261
 51
30.4135778
  0
ARC
  8
LAYER_1
 10
460.2666
 20
-22.7181
 40
0.6602
 50
34.41537859
 51
51.05519408
  0
ARC
  8
LAYER_1
 10
460.1766
 20
-22.8264
 40
0.801
 50
50.91885077
 51
90.41713913
  0
ARC
  8
LAYER_1
 10
460.1657
 20
-22.8284
 40
0.803
 50
89.63522685
 51
129.0287832
  0
ENDBLK
  0
BLOCK
  8
LAYER_1
  2
AIGNBL0103001F
 70
64
 10
0
 20
0
 30
0
  3
AIGNBL0103001F
  0
ARC
  8
LAYER_1
 10
463.383
 20
-23.1083
 40
1.0477
 50
91.97641172
 51
126.0400003
  0
ARC
  8
LAYER_1
 10
463.3283
 20
-22.9959
 40
0.9248
 50
127.3935971
 51
128.9082912
  0
ARC
  8
LAYER_1
 10
463.5682
 20
-23.2783
 40
1.2954
 50
129.3195113
 51
159.9076653
  0
ARC
  8
LAYER_1
 10
463.905
 20
-23.4442
 40
1.6692
 50
158.5305935
 51
163.6690784
  0
LINE
  8
LAYER_1
 10
462.3032
 20
-22.9749
 11
462.3032
 21
-24.211
  0
LINE
  8
LAYER_1
 10
462.3032
 20
-24.211
 11
461.9924
 21
-24.211
  0
LINE
  8
LAYER_1
 10
461.9924
 20
-24.211
 11
461.9924
 21
-21.7567
  0
LINE
  8
LAYER_1
 10
461.9924
 20
-21.7567
 11
462.3032
 21
-21.7567
  0
LINE
  8
LAYER_1
 10
462.3032
 20
-21.7567
 11
462.3032
 21
-22.4016
  0
ARC
  8
LAYER_1
 10
463.2272
 20
-22.8484
 40
1.0263
 50
126.6854221
 51
154.190519
  0
ARC
  8
LAYER_1
 10
463.3763
 20
-22.9931
 40
1.2319
 50
96.74353549
 51
128.2269731
  0
ARC
  8
LAYER_1
 10
463.4758
 20
-23.4094
 40
1.6577
 50
94.46061072
 51
98.47202668
  0
LINE
  8
LAYER_1
 10
463.3469
 20
-21.7567
 11
463.3469
 21
-22.0612
  0
ENDBLK
  0
BLOCK
  8
LAYER_1
  2
AIGNBL01030020
 70
64
 10
0
 20
0
 30
0
  3
AIGNBL01030020
  0
LINE
  8
LAYER_1
 10
464.3465
 20
-24.8738
 11
464.0356
 21
-24.8738
  0
LINE
  8
LAYER_1
 10
464.0356
 20
-24.8738
 11
464.0356
 21
-21.7567
  0
LINE
  8
LAYER_1
 10
464.0356
 20
-21.7567
 11
464.3465
 21
-21.7567
  0
LINE
  8
LAYER_1
 10
464.3465
 20
-21.7567
 11
464.3465
 21
-22.2225
  0
ARC
  8
LAYER_1
 10
465.263
 20
-22.8101
 40
1.0887
 50
128.1353633
 51
147.3342424
  0
ARC
  8
LAYER_1
 10
465.1436
 20
-22.6307
 40
0.8741
 50
89.84322556
 51
129.2407262
  0
ARC
  8
LAYER_1
 10
465.1631
 20
-22.721
 40
0.9645
 50
55.40604137
 51
91.0140482
  0
ARC
  8
LAYER_1
 10
465.2051
 20
-22.624
 40
0.861
 50
51.11842627
 51
54.045517
  0
ARC
  8
LAYER_1
 10
465.1077
 20
-22.7397
 40
1.0122
 50
16.23162703
 51
50.93448874
  0
ARC
  8
LAYER_1
 10
464.5604
 20
-22.9104
 40
1.5854
 50
358.9644331
 51
16.62754507
  0
ARC
  8
LAYER_1
 10
464.4559
 20
-22.9832
 40
1.6902
 50
334.4913298
 51
1.493701086
  0
ARC
  8
LAYER_1
 10
465.1484
 20
-23.2618
 40
0.9464
 50
309.1216072
 51
331.658355
  0
ARC
  8
LAYER_1
 10
465.1375
 20
-23.2438
 40
0.9673
 50
269.1970669
 51
308.9563612
  0
ARC
  8
LAYER_1
 10
465.1248
 20
-23.3278
 40
0.8832
 50
230.9725092
 51
269.9435391
  0
ARC
  8
LAYER_1
 10
465.0259
 20
-23.4097
 40
0.7577
 50
206.2769238
 51
232.8754674
  0
LINE
  8
LAYER_1
 10
464.3465
 20
-23.7452
 11
464.3465
 21
-24.8738
  0
ARC
  8
LAYER_1
 10
465.1182
 20
-23.308
 40
0.6366
 50
309.5468346
 51
332.3130474
  0
ARC
  8
LAYER_1
 10
464.7942
 20
-23.1434
 40
1
 50
332.5837923
 51
348.2771413
  0
ARC
  8
LAYER_1
 10
463.926
 20
-22.9643
 40
1.8864
 50
348.3081699
 51
0.7643743004
  0
ARC
  8
LAYER_1
 10
464.3186
 20
-22.9064
 40
1.494
 50
358.7459202
 51
14.80000182
  0
ARC
  8
LAYER_1
 10
465.0757
 20
-22.7002
 40
0.7094
 50
14.31763419
 51
48.51865146
  0
ARC
  8
LAYER_1
 10
465.1371
 20
-22.6786
 40
0.6533
 50
51.30164547
 51
91.16128832
  0
ARC
  8
LAYER_1
 10
465.1165
 20
-22.7598
 40
0.7345
 50
89.4212797
 51
128.6965228
  0
ARC
  8
LAYER_1
 10
465.1672
 20
-22.8056
 40
0.802
 50
129.4815759
 51
169.0405766
  0
ARC
  8
LAYER_1
 10
465.7873
 20
-22.9617
 40
1.4409
 50
167.6328035
 51
180.5240777
  0
ARC
  8
LAYER_1
 10
465.5547
 20
-23.0132
 40
1.2088
 50
178.1858533
 51
209.9094491
  0
ARC
  8
LAYER_1
 10
465.1138
 20
-23.2141
 40
0.7278
 50
213.5092826
 51
231.1607076
  0
ARC
  8
LAYER_1
 10
465.1055
 20
-23.2389
 40
0.7034
 50
230.4137756
 51
269.6718028
  0
ARC
  8
LAYER_1
 10
465.1114
 20
-23.2788
 40
0.6636
 50
269.1449152
 51
308.3916776
  0
ENDBLK
  0
BLOCK
  8
LAYER_1
  2
AIGNBL01030021
 70
64
 10
0
 20
0
 30
0
  3
AIGNBL01030021
  0
LINE
  8
LAYER_1
 10
467.2781
 20
-23.8348
 11
467.2781
 21
-24.211
  0
LINE
  8
LAYER_1
 10
467.2781
 20
-24.211
 11
466.8339
 21
-24.211
  0
LINE
  8
LAYER_1
 10
466.8339
 20
-24.211
 11
466.8339
 21
-23.8348
  0
LINE
  8
LAYER_1
 10
466.8339
 20
-23.8348
 11
467.2781
 21
-23.8348
  0
ENDBLK
  0
BLOCK
  8
LAYER_1
  2
AIGNBL01020003
 70
64
 10
0
 20
0
 30
0
  3
AIGNBL01020003
  0
LINE
  8
LAYER_1
 10
339.2705
 20
-26.6172
 11
469.2192
 21
-26.6172
  0
LINE
  8
LAYER_1
 10
339.2705
 20
-66.6014
 11
339.2705
 21
-16.6211
  0
LINE
  8
LAYER_1
 10
339.2705
 20
-16.6211
 11
469.2192
 21
-16.6211
  0
LINE
  8
LAYER_1
 10
359.2626
 20
-66.6014
 11
359.2626
 21
-26.6172
  0
LINE
  8
LAYER_1
 10
424.2369
 20
-66.6014
 11
424.2369
 21
-26.6172
  0
LINE
  8
LAYER_1
 10
404.2448
 20
-66.6014
 11
404.2448
 21
-26.6172
  0
LINE
  8
LAYER_1
 10
339.2705
 20
-36.6132
 11
469.2192
 21
-36.6132
  0
LINE
  8
LAYER_1
 10
339.2705
 20
-46.6093
 11
469.2192
 21
-46.6093
  0
LINE
  8
LAYER_1
 10
339.2705
 20
-56.6053
 11
469.2192
 21
-56.6053
  0
LINE
  8
LAYER_1
 10
469.2192
 20
-66.6014
 11
124.874
 21
-66.6014
  0
LINE
  8
LAYER_1
 10
124.874
 20
-66.6014
 11
124.874
 21
169.592
  0
LINE
  8
LAYER_1
 10
124.874
 20
169.592
 11
469.2192
 21
169.592
  0
LINE
  8
LAYER_1
 10
469.2192
 20
169.592
 11
469.2192
 21
-66.6014
  0
ENDBLK
  0
BLOCK
  8
LAYER_1
  2
AIGNBL01020004
 70
64
 10
0
 20
0
 30
0
  3
AIGNBL01020004
  0
INSERT
  8
LAYER_1
  2
AIGNBL01030005
 10
0
 20
0
 30
0
  0
INSERT
  8
LAYER_1
  2
AIGNBL01030006
 10
0
 20
0
 30
0
  0
LINE
  8
LAYER_1
 10
364.2316
 20
-18.593
 11
364.2316
 21
-19.3256
  0
LINE
  8
LAYER_1
 10
364.2316
 20
-19.3256
 11
366.1829
 21
-19.3256
  0
LINE
  8
LAYER_1
 10
366.1829
 20
-19.3256
 11
366.1829
 21
-19.6099
  0
LINE
  8
LAYER_1
 10
366.1829
 20
-19.6099
 11
363.7498
 21
-19.6099
  0
LINE
  8
LAYER_1
 10
363.7498
 20
-19.6099
 11
363.7498
 21
-21.1532
  0
LINE
  8
LAYER_1
 10
363.7498
 20
-21.1532
 11
364.5768
 21
-21.1532
  0
LINE
  8
LAYER_1
 10
364.5768
 20
-21.1532
 11
364.5768
 21
-20.3293
  0
LINE
  8
LAYER_1
 10
364.5768
 20
-20.3293
 11
366.1791
 21
-20.3293
  0
LINE
  8
LAYER_1
 10
366.1791
 20
-20.3293
 11
366.1791
 21
-21.951
  0
LINE
  8
LAYER_1
 10
366.1791
 20
-21.951
 11
367.0965
 21
-21.951
  0
LINE
  8
LAYER_1
 10
367.0965
 20
-21.951
 11
367.0965
 21
-20.3293
  0
LINE
  8
LAYER_1
 10
367.0965
 20
-20.3293
 11
368.7118
 21
-20.3293
  0
LINE
  8
LAYER_1
 10
368.7118
 20
-20.3293
 11
368.7118
 21
-21.1532
  0
LINE
  8
LAYER_1
 10
368.7118
 20
-21.1532
 11
369.5774
 21
-21.1532
  0
LINE
  8
LAYER_1
 10
369.5774
 20
-21.1532
 11
369.5774
 21
-19.6099
  0
LINE
  8
LAYER_1
 10
369.5774
 20
-19.6099
 11
367.1003
 21
-19.6099
  0
LINE
  8
LAYER_1
 10
367.1003
 20
-19.6099
 11
367.1003
 21
-19.3256
  0
LINE
  8
LAYER_1
 10
367.1003
 20
-19.3256
 11
369.0579
 21
-19.3256
  0
LINE
  8
LAYER_1
 10
369.0579
 20
-19.3256
 11
369.0579
 21
-18.593
  0
LINE
  8
LAYER_1
 10
369.0579
 20
-18.593
 11
364.2316
 21
-18.593
  0
LINE
  8
LAYER_1
 10
364.7286
 20
-21.0494
 11
365.9083
 21
-21.0494
  0
LINE
  8
LAYER_1
 10
365.9083
 20
-21.0494
 11
365.9083
 21
-20.5839
  0
LINE
  8
LAYER_1
 10
365.9083
 20
-20.5839
 11
364.7286
 21
-20.5839
  0
LINE
  8
LAYER_1
 10
364.7286
 20
-20.5839
 11
364.7286
 21
-21.0494
  0
LINE
  8
LAYER_1
 10
364.5863
 20
-21.7545
 11
365.9082
 21
-21.7545
  0
LINE
  8
LAYER_1
 10
365.9082
 20
-21.7545
 11
365.9082
 21
-21.2892
  0
LINE
  8
LAYER_1
 10
365.9082
 20
-21.2892
 11
364.5863
 21
-21.2892
  0
LINE
  8
LAYER_1
 10
364.5863
 20
-21.2892
 11
364.5863
 21
-21.7545
  0
LINE
  8
LAYER_1
 10
367.3672
 20
-21.0494
 11
368.5469
 21
-21.0494
  0
LINE
  8
LAYER_1
 10
368.5469
 20
-21.0494
 11
368.5469
 21
-20.5839
  0
LINE
  8
LAYER_1
 10
368.5469
 20
-20.5839
 11
367.3672
 21
-20.5839
  0
LINE
  8
LAYER_1
 10
367.3672
 20
-20.5839
 11
367.3672
 21
-21.0494
  0
LINE
  8
LAYER_1
 10
367.3672
 20
-21.7545
 11
368.6955
 21
-21.7545
  0
LINE
  8
LAYER_1
 10
368.6955
 20
-21.7545
 11
368.6955
 21
-21.2892
  0
LINE
  8
LAYER_1
 10
368.6955
 20
-21.2892
 11
367.3672
 21
-21.2892
  0
LINE
  8
LAYER_1
 10
367.3672
 20
-21.2892
 11
367.3672
 21
-21.7545
  0
INSERT
  8
LAYER_1
  2
AIGNBL01030007
 10
0
 20
0
 30
0
  0
INSERT
  8
LAYER_1
  2
AIGNBL01030008
 10
0
 20
0
 30
0
  0
INSERT
  8
LAYER_1
  2
AIGNBL01030009
 10
0
 20
0
 30
0
  0
LINE
  8
LAYER_1
 10
341.8942
 20
-18.5614
 11
343.4346
 21
-18.5614
  0
LINE
  8
LAYER_1
 10
343.4346
 20
-18.5614
 11
345.5421
 21
-23.0789
  0
LINE
  8
LAYER_1
 10
345.5421
 20
-23.0789
 11
345.5421
 21
-22.3097
  0
LINE
  8
LAYER_1
 10
345.5421
 20
-22.3097
 11
347.0847
 21
-22.3097
  0
LINE
  8
LAYER_1
 10
347.0847
 20
-22.3097
 11
347.0847
 21
-24.6193
  0
LINE
  8
LAYER_1
 10
347.0847
 20
-24.6193
 11
344.7769
 21
-24.6193
  0
LINE
  8
LAYER_1
 10
344.7769
 20
-24.6193
 11
343.4307
 21
-21.7969
  0
LINE
  8
LAYER_1
 10
343.4307
 20
-21.7969
 11
343.4307
 21
-24.6193
  0
LINE
  8
LAYER_1
 10
343.4307
 20
-24.6193
 11
341.8942
 21
-24.6193
  0
LINE
  8
LAYER_1
 10
341.8942
 20
-24.6193
 11
341.8942
 21
-18.5614
  0
INSERT
  8
LAYER_1
  2
AIGNBL0103000A
 10
0
 20
0
 30
0
  0
ARC
  8
LAYER_1
 10
395.6228
 20
-22.2421
 40
1.991
 50
311.8536983
 51
336.66565
  0
ARC
  8
LAYER_1
 10
395.2143
 20
-22.0387
 40
2.4468
 50
336.0820229
 51
355.050887
  0
LINE
  8
LAYER_1
 10
397.652
 20
-22.2498
 11
397.652
 21
-19.0493
  0
LINE
  8
LAYER_1
 10
397.652
 20
-19.0493
 11
396.4658
 21
-19.0493
  0
LINE
  8
LAYER_1
 10
396.4658
 20
-19.0493
 11
396.4658
 21
-21.9151
  0
ARC
  8
LAYER_1
 10
394.9478
 20
-21.874
 40
1.5185
 50
331.8956217
 51
358.4504934
  0
ARC
  8
LAYER_1
 10
395.7367
 20
-22.2196
 40
0.6633
 50
317.1782762
 51
326.1116703
  0
ARC
  8
LAYER_1
 10
394.7907
 20
-21.265
 40
2.0068
 50
296.3435913
 51
315.5475613
  0
LINE
  8
LAYER_1
 10
395.6812
 20
-23.0634
 11
395.6812
 21
-24.2581
  0
ARC
  8
LAYER_1
 10
395.7315
 20
-23.1228
 40
1.1364
 50
267.460987
 51
280.8278078
  0
ARC
  8
LAYER_1
 10
395.6077
 20
-22.387
 40
1.8825
 50
280.3227292
 51
303.5087591
  0
ARC
  8
LAYER_1
 10
395.3215
 20
-21.8982
 40
2.4483
 50
302.7778523
 51
311.7357705
  0
ARC
  8
LAYER_1
 10
383.8582
 20
-21.2369
 40
1.9121
 50
200.4586691
 51
212.6743406
  0
ARC
  8
LAYER_1
 10
360.8299
 20
-29.6321
 40
22.5988
 50
19.99339328
 51
22.95988574
  0
ARC
  8
LAYER_1
 10
378.6335
 20
-22.195
 40
3.306
 50
24.64219126
 51
41.47959493
  0
ARC
  8
LAYER_1
 10
379.7074
 20
-21.3145
 40
1.9189
 50
43.02136381
 51
66.4525374
  0
ARC
  8
LAYER_1
 10
379.7452
 20
-21.2722
 40
1.8651
 50
66.99773131
 51
74.27463074
  0
ARC
  8
LAYER_1
 10
379.3948
 20
-22.5663
 40
3.2057
 50
74.51389392
 51
94.05361784
  0
ARC
  8
LAYER_1
 10
379.436
 20
-23.458
 40
4.0982
 50
93.74752603
 51
109.4964459
  0
ARC
  8
LAYER_1
 10
379.3155
 20
-23.2494
 40
3.8616
 50
108.8443826
 51
117.7785401
  0
ARC
  8
LAYER_1
 10
368.4808
 20
-19.7127
 40
9.0358
 50
353.3545297
 51
359.2384651
  0
ARC
  8
LAYER_1
 10
374.5967
 20
-20.478
 40
2.873
 50
340.8545036
 51
354.3986112
  0
ARC
  8
LAYER_1
 10
375.9845
 20
-20.8638
 40
1.4382
 50
308.1960555
 51
337.240372
  0
ARC
  8
LAYER_1
 10
376.186
 20
-21.1609
 40
1.0804
 50
298.9411123
 51
309.5405453
  0
LINE
  8
LAYER_1
 10
376.7088
 20
-22.1064
 11
376.7088
 21
-23.3788
  0
ARC
  8
LAYER_1
 10
376.133
 20
-20.8091
 40
2.6334
 50
282.629217
 51
311.7889792
  0
ARC
  8
LAYER_1
 10
376.7481
 20
-21.591
 40
1.6417
 50
313.9680024
 51
325.0993696
  0
ARC
  8
LAYER_1
 10
376.075
 20
-21.1667
 40
2.4368
 50
325.9722368
 51
337.2435268
  0
ARC
  8
LAYER_1
 10
374.4452
 20
-20.4759
 40
4.207
 50
337.1535495
 51
344.91421
  0
ARC
  8
LAYER_1
 10
372.5495
 20
-19.9463
 40
6.1753
 50
344.7481064
 51
353.2474184
  0
ARC
  8
LAYER_1
 10
379.476
 20
-22.45
 40
1.947
 50
90.61781687
 51
114.0708883
  0
ARC
  8
LAYER_1
 10
379.4502
 20
-21.5938
 40
1.0907
 50
61.474306
 51
89.74539799
  0
ARC
  8
LAYER_1
 10
379.5976
 20
-21.2581
 40
0.7259
 50
38.2714468
 51
59.04055946
  0
ARC
  8
LAYER_1
 10
378.9476
 20
-21.7619
 40
1.5482
 50
25.3011504
 51
38.01183044
  0
ARC
  8
LAYER_1
 10
374.0025
 20
-24.0904
 40
7.0141
 50
19.69622915
 51
25.23323144
  0
ARC
  8
LAYER_1
 10
386.9461
 20
-19.5396
 40
6.7064
 50
199.0304142
 51
214.1619839
  0
ARC
  8
LAYER_1
 10
385.1883
 20
-20.5955
 40
4.6604
 50
215.5556146
 51
216.3864829
  0
ARC
  8
LAYER_1
 10
383.6855
 20
-21.6697
 40
2.8135
 50
216.9324038
 51
237.9526107
  0
ARC
  8
LAYER_1
 10
383.2601
 20
-22.3143
 40
2.0414
 50
238.4737585
 51
260.7134162
  0
ARC
  8
LAYER_1
 10
383.0587
 20
-23.1943
 40
1.1418
 50
263.5627283
 51
265.8887812
  0
LINE
  8
LAYER_1
 10
382.9768
 20
-24.3332
 11
382.9768
 21
-22.9742
  0
ARC
  8
LAYER_1
 10
383.3434
 20
-22.147
 40
0.9048
 50
229.9708589
 51
246.0997112
  0
ARC
  8
LAYER_1
 10
384.4169
 20
-20.8366
 40
2.5987
 50
213.4542661
 51
230.4296508
  0
LINE
  8
LAYER_1
 10
382.0901
 20
-19.8796
 11
381.4745
 21
-19.8796
  0
LINE
  8
LAYER_1
 10
381.4745
 20
-19.8796
 11
381.3155
 21
-18.8814
  0
LINE
  8
LAYER_1
 10
381.3155
 20
-18.8814
 11
381.9318
 21
-18.8814
  0
LINE
  8
LAYER_1
 10
381.9318
 20
-18.8814
 11
382.0901
 21
-19.8796
  0
LINE
  8
LAYER_1
 10
383.0188
 20
-19.8796
 11
382.4029
 21
-19.8796
  0
LINE
  8
LAYER_1
 10
382.4029
 20
-19.8796
 11
382.2442
 21
-18.8814
  0
LINE
  8
LAYER_1
 10
382.2442
 20
-18.8814
 11
382.8606
 21
-18.8814
  0
LINE
  8
LAYER_1
 10
382.8606
 20
-18.8814
 11
383.0188
 21
-19.8796
  0
ARC
  8
LAYER_1
 10
383.3452
 20
-19.5626
 40
1.2598
 50
294.8462392
 51
325.7593989
  0
ARC
  8
LAYER_1
 10
383.5868
 20
-20.0818
 40
0.6873
 50
280.6862667
 51
294.7597554
  0
LINE
  8
LAYER_1
 10
383.7142
 20
-20.7571
 11
383.7142
 21
-22.0072
  0
ARC
  8
LAYER_1
 10
383.3879
 20
-19.5706
 40
2.4583
 50
277.6270469
 51
307.9992312
  0
ARC
  8
LAYER_1
 10
383.7857
 20
-20.2045
 40
1.7156
 50
310.5659115
 51
312.159519
  0
ARC
  8
LAYER_1
 10
383.3126
 20
-19.7505
 40
2.3702
 50
313.2688841
 51
336.1288754
  0
ARC
  8
LAYER_1
 10
382.549
 20
-19.2963
 40
3.254
 50
334.2571503
 51
342.7179381
  0
LINE
  8
LAYER_1
 10
385.6561
 20
-20.263
 11
388.0832
 21
-20.263
  0
ARC
  8
LAYER_1
 10
384.0183
 20
-20.476
 40
4.0705
 50
346.9025011
 51
2.999941785
  0
ARC
  8
LAYER_1
 10
385.3231
 20
-20.7848
 40
2.7296
 50
327.7013818
 51
347.0097259
  0
ARC
  8
LAYER_1
 10
386.118
 20
-21.2401
 40
1.8149
 50
312.9843281
 51
326.4412197
  0
ARC
  8
LAYER_1
 10
386.162
 20
-21.2473
 40
1.7799
 50
298.6772297
 51
312.1042011
  0
ARC
  8
LAYER_1
 10
385.719
 20
-20.4337
 40
2.7063
 50
288.7192833
 51
298.64049
  0
ARC
  8
LAYER_1
 10
385.0665
 20
-18.4569
 40
4.7879
 50
273.6020975
 51
288.52267
  0
ARC
  8
LAYER_1
 10
384.7612
 20
-16.1994
 40
7.062
 50
268.3271717
 51
274.9240462
  0
LINE
  8
LAYER_1
 10
384.555
 20
-23.2584
 11
384.555
 21
-24.3879
  0
ARC
  8
LAYER_1
 10
384.9661
 20
-16.1363
 40
8.2618
 50
267.1475499
 51
278.4142478
  0
ARC
  8
LAYER_1
 10
385.3877
 20
-18.8538
 40
5.5119
 50
278.2131806
 51
291.6024907
  0
ARC
  8
LAYER_1
 10
386.3117
 20
-21.293
 40
2.9041
 50
292.3703177
 51
310.8518436
  0
ARC
  8
LAYER_1
 10
386.898
 20
-22.0381
 40
1.9575
 50
312.1363704
 51
321.4360617
  0
ARC
  8
LAYER_1
 10
386.3493
 20
-21.2741
 40
2.8742
 50
316.3403134
 51
335.9447601
  0
ARC
  8
LAYER_1
 10
384.9732
 20
-20.6215
 40
4.3969
 50
335.488256
 51
350.554217
  0
ARC
  8
LAYER_1
 10
382.3156
 20
-20.0996
 40
7.1046
 50
349.9195385
 51
2.135290941
  0
ARC
  8
LAYER_1
 10
382.3137
 20
-20.0083
 40
7.1036
 50
1.398744845
 51
7.163066818
  0
LINE
  8
LAYER_1
 10
389.3619
 20
-19.1225
 11
384.6757
 21
-19.1225
  0
ARC
  8
LAYER_1
 10
379.5567
 20
-18.5724
 40
5.1485
 50
346.1208209
 51
353.8665991
  0
ARC
  8
LAYER_1
 10
382.5401
 20
-19.3399
 40
2.0683
 50
333.2294573
 51
346.9363389
  0
ARC
  8
LAYER_1
 10
377.3708
 20
-106.144
 40
86.7721
 50
78.78700631
 51
80.56640675
  0
LINE
  8
LAYER_1
 10
391.5931
 20
-20.5454
 11
391.5931
 21
-18.9096
  0
LINE
  8
LAYER_1
 10
391.5931
 20
-18.9096
 11
390.2958
 21
-18.9096
  0
LINE
  8
LAYER_1
 10
390.2958
 20
-18.9096
 11
390.2958
 21
-24.3878
  0
LINE
  8
LAYER_1
 10
390.2958
 20
-24.3878
 11
391.5931
 21
-24.3878
  0
LINE
  8
LAYER_1
 10
391.5931
 20
-24.3878
 11
391.5931
 21
-21.7936
  0
ARC
  8
LAYER_1
 10
391.8122
 20
-24.3619
 40
2.5777
 50
85.26912846
 51
94.87697352
  0
ARC
  8
LAYER_1
 10
391.5474
 20
-28.0073
 40
6.2326
 50
76.32160786
 51
85.60637667
  0
ARC
  8
LAYER_1
 10
382.6865
 20
-65.0935
 40
44.3625
 50
73.58294073
 51
76.52865465
  0
LINE
  8
LAYER_1
 10
395.2246
 20
-22.5396
 11
395.2246
 21
-21.2884
  0
ARC
  8
LAYER_1
 10
392.0121
 20
-31.4196
 40
10.6283
 50
72.40665783
 51
77.87678181
  0
ARC
  8
LAYER_1
 10
398.8888
 20
-20.9171
 40
3.2368
 50
288.2682375
 51
307.5749128
  0
ARC
  8
LAYER_1
 10
398.4053
 20
-19.5973
 40
4.6418
 50
274.0145895
 51
288.8290898
  0
ARC
  8
LAYER_1
 10
398.4053
 20
-20.3924
 40
3.8491
 50
268.360011
 51
274.8439918
  0
LINE
  8
LAYER_1
 10
398.2951
 20
-24.2399
 11
398.2951
 21
-18.8434
  0
LINE
  8
LAYER_1
 10
398.2951
 20
-18.8434
 11
399.5838
 21
-18.8434
  0
LINE
  8
LAYER_1
 10
399.5838
 20
-18.8434
 11
399.5838
 21
-22.8383
  0
ARC
  8
LAYER_1
 10
399.4956
 20
-22.1335
 40
0.7103
 50
277.1314049
 51
295.958207
  0
ARC
  8
LAYER_1
 10
399.2786
 20
-21.686
 40
1.2076
 50
295.9193969
 51
325.4807177
  0
ARC
  8
LAYER_1
 10
398.9134
 20
-21.3577
 40
1.6958
 50
323.3344126
 51
327.8455613
  0
ARC
  8
LAYER_1
 10
399.1503
 20
-21.5329
 40
1.4022
 50
328.753104
 51
343.5635435
  0
ARC
  8
LAYER_1
 10
397.9377
 20
-21.1696
 40
2.6681
 50
343.4495362
 51
352.9514753
  0
ARC
  8
LAYER_1
 10
395.8698
 20
-20.9074
 40
4.7525
 50
352.8742823
 51
4.069265984
  0
LINE
  8
LAYER_1
 10
400.6103
 20
-20.5702
 11
401.7958
 21
-20.5702
  0
ARC
  8
LAYER_1
 10
396.0506
 20
-20.8034
 40
5.75
 50
348.7691617
 51
2.324459127
  0
ARC
  8
LAYER_1
 10
398.1468
 20
-21.2257
 40
3.6116
 50
332.2799632
 51
348.8629354
  0
ARC
  8
LAYER_1
 10
399.6246
 20
-21.96
 40
1.9623
 50
309.1184749
 51
331.1898301
  0
ENDBLK
  0
BLOCK
  8
LAYER_1
  2
AIGNBL0102000B
 70
64
 10
0
 20
0
 30
0
  3
AIGNBL0102000B
  0
INSERT
  8
LAYER_1
  2
AIGNBL0103000C
 10
0
 20
0
 30
0
  0
INSERT
  8
LAYER_1
  2
AIGNBL0103000D
 10
0
 20
0
 30
0
  0
INSERT
  8
LAYER_1
  2
AIGNBL0103000E
 10
0
 20
0
 30
0
  0
INSERT
  8
LAYER_1
  2
AIGNBL0103000F
 10
0
 20
0
 30
0
  0
INSERT
  8
LAYER_1
  2
AIGNBL01030010
 10
0
 20
0
 30
0
  0
INSERT
  8
LAYER_1
  2
AIGNBL01030011
 10
0
 20
0
 30
0
  0
INSERT
  8
LAYER_1
  2
AIGNBL01030012
 10
0
 20
0
 30
0
  0
INSERT
  8
LAYER_1
  2
AIGNBL01030013
 10
0
 20
0
 30
0
  0
INSERT
  8
LAYER_1
  2
AIGNBL01030014
 10
0
 20
0
 30
0
  0
INSERT
  8
LAYER_1
  2
AIGNBL01030015
 10
0
 20
0
 30
0
  0
INSERT
  8
LAYER_1
  2
AIGNBL01030016
 10
0
 20
0
 30
0
  0
INSERT
  8
LAYER_1
  2
AIGNBL01030017
 10
0
 20
0
 30
0
  0
INSERT
  8
LAYER_1
  2
AIGNBL01030018
 10
0
 20
0
 30
0
  0
INSERT
  8
LAYER_1
  2
AIGNBL01030019
 10
0
 20
0
 30
0
  0
INSERT
  8
LAYER_1
  2
AIGNBL0103001A
 10
0
 20
0
 30
0
  0
INSERT
  8
LAYER_1
  2
AIGNBL0103001B
 10
0
 20
0
 30
0
  0
INSERT
  8
LAYER_1
  2
AIGNBL0103001C
 10
0
 20
0
 30
0
  0
INSERT
  8
LAYER_1
  2
AIGNBL0103001D
 10
0
 20
0
 30
0
  0
INSERT
  8
LAYER_1
  2
AIGNBL0103001E
 10
0
 20
0
 30
0
  0
INSERT
  8
LAYER_1
  2
AIGNBL0103001F
 10
0
 20
0
 30
0
  0
INSERT
  8
LAYER_1
  2
AIGNBL01030020
 10
0
 20
0
 30
0
  0
INSERT
  8
LAYER_1
  2
AIGNBL01030021
 10
0
 20
0
 30
0
  0
ENDBLK
  0
BLOCK
  8
LAYER_1
  2
AIGNBL01010002
 70
64
 10
0
 20
0
 30
0
  3
AIGNBL01010002
  0
INSERT
  8
LAYER_1
  2
AIGNBL01020003
 10
0
 20
0
 30
0
  0
TEXT
  8
LAYER_1
 10
348.9088
 20
-30.5741
 11
348.9088
 21
-30.5741
 40
3.1044
 41
0.5
 72
1
  1
品名
  0
TEXT
  8
LAYER_1
 10
348.9088
 20
-35.2308
 11
348.9088
 21
-35.2308
 40
3.1044
 41
0.5
 72
1
  1
PRODUCT
  0
TEXT
  8
LAYER_1
 10
414.219
 20
-30.5741
 11
414.219
 21
-30.5741
 40
3.1044
 41
0.5
 72
1
  1
型式
  0
TEXT
  8
LAYER_1
 10
414.219
 20
-35.2308
 11
414.219
 21
-35.2308
 40
3.1044
 41
0.5
 72
1
  1
TYPE
  0
TEXT
  8
LAYER_1
 10
414.219
 20
-40.4516
 11
414.219
 21
-40.4516
 40
3.1044
 41
0.5
 72
1
  1
単位
  0
TEXT
  8
LAYER_1
 10
414.219
 20
-45.1084
 11
414.219
 21
-45.1084
 40
3.1044
 41
0.5
 72
1
  1
UNIT
  0
TEXT
  8
LAYER_1
 10
414.219
 20
-60.5799
 11
414.219
 21
-60.5799
 40
3.4815
 41
0.5
 72
1
  1
設計
  0
TEXT
  8
LAYER_1
 10
414.2191
 20
-65.802
 11
414.2191
 21
-65.802
 40
3.4815
 41
0.5
 72
1
  1
DESIGNED
  0
TEXT
  8
LAYER_1
 10
349.219
 20
-40.4517
 11
349.219
 21
-40.4517
 40
3.1044
 41
0.5
 72
1
  1
寸法
  0
TEXT
  8
LAYER_1
 10
349.219
 20
-45.1085
 11
349.219
 21
-45.1085
 40
3.1044
 41
0.5
 72
1
  1
SIZE
  0
TEXT
  8
LAYER_1
 10
349.219
 20
-60.5801
 11
349.219
 21
-60.5801
 40
3.1044
 41
0.5
 72
1
  1
材質
  0
TEXT
  8
LAYER_1
 10
349.219
 20
-65.2368
 11
349.219
 21
-65.2368
 40
3.1044
 41
0.5
 72
1
  1
MATERIAL
  0
TEXT
  8
LAYER_1
 10
349.7268
 20
-50.452
 11
349.7268
 21
-50.452
 40
3.1044
 41
0.5
 72
1
  1
ネジ
  0
TEXT
  8
LAYER_1
 10
349.219
 20
-55.1087
 11
349.219
 21
-55.1087
 40
3.1044
 41
0.5
 72
1
  1
SCREW
  0
TEXT
  8
LAYER_1
 10
413.9088
 20
-50.4519
 11
413.9088
 21
-50.4519
 40
3.1044
 41
0.5
 72
1
  1
日付
  0
TEXT
  8
LAYER_1
 10
413.9088
 20
-55.1086
 11
413.9088
 21
-55.1086
 40
3.1044
 41
0.5
 72
1
  1
DATE
  0
TEXT
  8
LAYER_1
 10
380.3578
 20
-43.2231
 11
380.3578
 21
-43.2231
 40
3.6689
 41
0.5
 72
1
  1
W75×H104×D66
  0
TEXT
  8
LAYER_1
 10
446.7193
 20
-43.2231
 11
446.7193
 21
-43.2231
 40
3.6689
 41
0.5
 72
1
  1
mm
  0
TEXT
  8
LAYER_1
 10
447.4897
 20
-33.2231
 11
447.4897
 21
-33.2231
 40
3.6689
 41
0.5
 72
1
  1
NRJ-202　NRJ-402
  0
TEXT
  8
LAYER_1
 10
446.7193
 20
-53.2231
 11
446.7193
 21
-53.2231
 40
3.6689
 41
0.5
 72
1
  1
2017.09.11
  0
TEXT
  8
LAYER_1
 10
446.719
 20
-63.2231
 11
446.719
 21
-63.2231
 40
3.6689
 41
0.5
 72
1
  1
戸森 幹二
  0
TEXT
  8
LAYER_1
 10
383.8329
 20
-63.2231
 11
383.8329
 21
-63.2231
 40
3.6689
 41
0.5
 72
1
  1
黒色フェノール樹脂
  0
TEXT
  8
LAYER_1
 10
381.7193
 20
-30.8515
 11
381.7193
 21
-30.8515
 40
3.1044
 41
0.5
 72
1
  1
中容量2線式交流電源用
  0
TEXT
  8
LAYER_1
 10
383.5687
 20
-35.5083
 11
383.5687
 21
-35.5083
 40
3.1044
 41
0.5
 72
1
  1
モリブデン避雷器
  0
TEXT
  8
LAYER_1
 10
384.4702
 20
-50.8515
 11
384.4702
 21
-50.8515
 40
3.1044
 41
0.5
 72
1
  1
鉄　三価ホワイト
  0
TEXT
  8
LAYER_1
 10
381.7193
 20
-55.5083
 11
381.7193
 21
-55.5083
 40
3.1044
 41
0.5
 72
1
  1
M5
  0
INSERT
  8
LAYER_1
  2
AIGNBL01020004
 10
0
 20
0
 30
0
  0
INSERT
  8
LAYER_1
  2
AIGNBL0102000B
 10
0
 20
0
 30
0
  0
ENDBLK
  0
ENDSEC
  0
SECTION
  2
ENTITIES
  0
INSERT
  8
LAYER_1
  2
AIGNBL01010002
 10
0
 20
0
 30
0
  0
LINE
  8
LAYER_1
 10
216.8663
 20
42.2738
 11
290.8997
 21
42.2738
  0
LINE
  8
LAYER_1
 10
290.8997
 20
42.2738
 11
290.8997
 21
139.9978
  0
LINE
  8
LAYER_1
 10
290.8997
 20
139.9978
 11
216.8663
 21
139.9978
  0
LINE
  8
LAYER_1
 10
216.8663
 20
139.9978
 11
216.8663
 21
42.2738
  0
LINE
  8
LAYER_1
 10
290.8997
 20
139.9978
 11
290.8997
 21
123.2168
  0
LINE
  8
LAYER_1
 10
263.3199
 20
123.2168
 11
244.446
 21
123.2168
  0
ARC
  8
LAYER_1
 10
217.8539
 20
122.23
 40
0.9872
 50
90.00045142
 51
179.9995485
  0
LINE
  8
LAYER_1
 10
238.4449
 20
123.2168
 11
217.8535
 21
123.2168
  0
ARC
  8
LAYER_1
 10
217.8537
 20
60.042
 40
0.987
 50
180.000903
 51
270.0049018
  0
LINE
  8
LAYER_1
 10
216.8663
 20
122.2296
 11
216.8663
 21
60.042
  0
LINE
  8
LAYER_1
 10
217.8535
 20
59.0547
 11
238.4449
 21
59.0547
  0
LINE
  8
LAYER_1
 10
244.446
 20
59.0547
 11
263.3199
 21
59.0547
  0
ARC
  8
LAYER_1
 10
289.9129
 20
60.0422
 40
0.987
 50
269.9988823
 51
359.9953124
  0
LINE
  8
LAYER_1
 10
269.3211
 20
59.0547
 11
289.9125
 21
59.0547
  0
ARC
  8
LAYER_1
 10
289.9127
 20
122.2297
 40
0.9874
 50
0.01606125663
 51
89.99554647
  0
LINE
  8
LAYER_1
 10
290.8997
 20
60.042
 11
290.8997
 21
122.2296
  0
ARC
  8
LAYER_1
 10
289.7153
 20
124.0066
 40
0.1976
 50
0.04940351692
 51
89.97961434
  0
LINE
  8
LAYER_1
 10
289.9125
 20
123.2168
 11
269.3211
 21
123.2168
  0
LINE
  8
LAYER_1
 10
269.3211
 20
123.2168
 11
289.9125
 21
123.2168
  0
LINE
  8
LAYER_1
 10
289.9125
 20
123.2168
 11
289.9125
 21
124.0068
  0
LINE
  8
LAYER_1
 10
289.7152
 20
124.204
 11
269.4794
 21
124.204
  0
LINE
  8
LAYER_1
 10
263.162
 20
124.204
 11
244.6044
 21
124.204
  0
ARC
  8
LAYER_1
 10
218.0511
 20
124.0067
 40
0.1973
 50
89.971523
 51
179.9703971
  0
LINE
  8
LAYER_1
 10
238.287
 20
124.204
 11
218.0512
 21
124.204
  0
LINE
  8
LAYER_1
 10
217.8535
 20
124.0068
 11
217.8535
 21
123.2168
  0
LINE
  8
LAYER_1
 10
217.8535
 20
123.2168
 11
238.4449
 21
123.2168
  0
LINE
  8
LAYER_1
 10
244.446
 20
123.2168
 11
263.3199
 21
123.2168
  0
LINE
  8
LAYER_1
 10
244.6044
 20
58.0675
 11
263.162
 21
58.0675
  0
ARC
  8
LAYER_1
 10
289.708
 20
58.2728
 40
0.205
 50
272.0170888
 51
357.8958577
  0
LINE
  8
LAYER_1
 10
269.4794
 20
58.0675
 11
289.7152
 21
58.0675
  0
LINE
  8
LAYER_1
 10
289.9125
 20
58.2652
 11
289.9125
 21
59.0547
  0
LINE
  8
LAYER_1
 10
289.9125
 20
59.0547
 11
269.3211
 21
59.0547
  0
LINE
  8
LAYER_1
 10
263.3199
 20
59.0547
 11
244.446
 21
59.0547
  0
ARC
  8
LAYER_1
 10
218.0586
 20
58.2726
 40
0.2048
 50
182.0619205
 51
267.9380795
  0
LINE
  8
LAYER_1
 10
238.4449
 20
59.0547
 11
217.8535
 21
59.0547
  0
LINE
  8
LAYER_1
 10
217.8535
 20
59.0547
 11
217.8535
 21
58.2652
  0
LINE
  8
LAYER_1
 10
218.0512
 20
58.0675
 11
238.287
 21
58.0675
  0
ARC
  8
LAYER_1
 10
287.9384
 20
114.8267
 40
0.9873
 50
359.9989015
 51
89.99529488
  0
LINE
  8
LAYER_1
 10
219.8279
 20
115.8136
 11
287.9385
 21
115.8136
  0
ARC
  8
LAYER_1
 10
287.9385
 20
67.4455
 40
0.9872
 50
270.0078291
 51
0.003778681786
  0
LINE
  8
LAYER_1
 10
288.9252
 20
114.8264
 11
288.9252
 21
67.4452
  0
ARC
  8
LAYER_1
 10
219.8279
 20
67.4454
 40
0.987
 50
179.9967439
 51
269.9974514
  0
LINE
  8
LAYER_1
 10
287.9385
 20
66.458
 11
219.8279
 21
66.458
  0
ARC
  8
LAYER_1
 10
219.828
 20
114.8265
 40
0.9873
 50
90.00284112
 51
179.9797464
  0
ARC
  8
LAYER_1
 10
228.4158
 20
120.0582
 40
1.3324
 50
179.9939793
 51
270.0060207
  0
ARC
  8
LAYER_1
 10
228.4159
 20
120.0584
 40
1.3326
 50
269.9995403
 51
0.0004596968228
  0
ARC
  8
LAYER_1
 10
228.4159
 20
120.0584
 40
1.3326
 50
0.001316828619
 51
89.99868316
  0
ARC
  8
LAYER_1
 10
228.4159
 20
120.0584
 40
1.3326
 50
90.00045976
 51
179.9995402
  0
LINE
  8
LAYER_1
 10
218.8407
 20
67.4452
 11
218.8407
 21
114.8264
  0
LINE
  8
LAYER_1
 10
285.4704
 20
139.9978
 11
285.4704
 21
127.1653
  0
LINE
  8
LAYER_1
 10
222.2955
 20
139.9978
 11
222.2955
 21
127.1653
  0
ARC
  8
LAYER_1
 10
225.2571
 20
127.1653
 40
2.9611
 50
179.993212
 51
269.9990487
  0
LINE
  8
LAYER_1
 10
222.2955
 20
139.9978
 11
222.2955
 21
127.1653
  0
ARC
  8
LAYER_1
 10
232.759
 20
127.1655
 40
2.9615
 50
270.0016768
 51
0.0002578883264
  0
LINE
  8
LAYER_1
 10
225.2568
 20
124.204
 11
232.7591
 21
124.204
  0
LINE
  8
LAYER_1
 10
235.7203
 20
127.1653
 11
235.7203
 21
139.9978
  0
ARC
  8
LAYER_1
 10
250.1323
 20
127.1655
 40
2.9613
 50
179.9961031
 51
270.0000274
  0
LINE
  8
LAYER_1
 10
247.1706
 20
139.9978
 11
247.1706
 21
127.1653
  0
ARC
  8
LAYER_1
 10
257.6341
 20
127.1655
 40
2.9615
 50
270.0000871
 51
359.9999129
  0
LINE
  8
LAYER_1
 10
250.1323
 20
124.204
 11
257.6341
 21
124.204
  0
LINE
  8
LAYER_1
 10
260.5954
 20
127.1653
 11
260.5954
 21
139.9978
  0
ARC
  8
LAYER_1
 10
282.5093
 20
127.1657
 40
2.9615
 50
270.0033199
 51
0.0005496026135
  0
LINE
  8
LAYER_1
 10
285.4704
 20
139.9978
 11
285.4704
 21
127.1653
  0
ARC
  8
LAYER_1
 10
275.0075
 20
127.1654
 40
2.9614
 50
179.9977954
 51
269.9964002
  0
LINE
  8
LAYER_1
 10
282.5092
 20
124.204
 11
275.0073
 21
124.204
  0
ARC
  8
LAYER_1
 10
241.4455
 20
132.1008
 40
3.9481
 50
179.998685
 51
270.0027661
  0
ARC
  8
LAYER_1
 10
241.4458
 20
132.1011
 40
3.9484
 50
269.999154
 51
359.9993949
  0
ARC
  8
LAYER_1
 10
241.4458
 20
132.1011
 40
3.9484
 50
0.0006187802683
 51
90.0008323
  0
ARC
  8
LAYER_1
 10
241.4457
 20
132.1011
 40
3.9484
 50
90.00012047
 51
179.9998795
  0
ARC
  8
LAYER_1
 10
266.3208
 20
132.1009
 40
3.9486
 50
0.0002914553281
 51
89.99825747
  0
ARC
  8
LAYER_1
 10
266.3208
 20
132.1011
 40
3.9484
 50
89.9990746
 51
179.9994743
  0
LINE
  8
LAYER_1
 10
272.0461
 20
127.1653
 11
272.0461
 21
139.9978
  0
ARC
  8
LAYER_1
 10
269.7758
 20
128.6463
 40
0.4936
 50
269.9852893
 51
359.979884
  0
LINE
  8
LAYER_1
 10
270.2689
 20
132.1009
 11
270.2689
 21
128.6461
  0
ARC
  8
LAYER_1
 10
262.8661
 20
128.6462
 40
0.4937
 50
180.0024209
 51
269.9975791
  0
LINE
  8
LAYER_1
 10
269.7753
 20
128.1525
 11
262.8657
 21
128.1525
  0
LINE
  8
LAYER_1
 10
262.3721
 20
128.6461
 11
262.3721
 21
132.1009
  0
ARC
  8
LAYER_1
 10
217.0641
 20
138.2211
 40
0.9871
 50
0.006490157708
 51
90.00511874
  0
ARC
  8
LAYER_1
 10
217.0624
 20
138.2212
 40
0.9888
 50
343.4227455
 51
359.9987091
  0
ARC
  8
LAYER_1
 10
217.7262
 20
138.0238
 40
0.2962
 50
270.0119145
 51
343.3782213
  0
LINE
  8
LAYER_1
 10
216.8663
 20
139.2082
 11
217.064
 21
139.2082
  0
LINE
  8
LAYER_1
 10
217.7261
 20
137.7274
 11
216.8663
 21
137.7274
  0
LINE
  8
LAYER_1
 10
216.8663
 20
137.7274
 11
216.8663
 21
139.2082
  0
ARC
  8
LAYER_1
 10
290.7024
 20
138.2212
 40
0.987
 50
90.00065005
 51
179.9993499
  0
ARC
  8
LAYER_1
 10
290.7042
 20
138.2212
 40
0.9888
 50
180.0012909
 51
196.5772545
  0
ARC
  8
LAYER_1
 10
290.0402
 20
138.0234
 40
0.2958
 50
196.5539502
 51
270.0172038
  0
LINE
  8
LAYER_1
 10
290.8997
 20
139.2082
 11
290.7024
 21
139.2082
  0
ARC
  8
LAYER_1
 10
266.3208
 20
124.2043
 40
3.1588
 50
180.0051092
 51
270.0021465
  0
ARC
  8
LAYER_1
 10
266.3209
 20
124.2042
 40
3.1587
 50
270.0005273
 51
359.9994727
  0
ARC
  8
LAYER_1
 10
266.3209
 20
124.2043
 40
3.1587
 50
359.9990825
 51
89.99910359
  0
ARC
  8
LAYER_1
 10
266.3209
 20
124.2042
 40
3.1588
 50
89.99947269
 51
180.0005273
  0
ARC
  8
LAYER_1
 10
241.4456
 20
124.2041
 40
3.1586
 50
180.0024581
 51
270.0011698
  0
ARC
  8
LAYER_1
 10
241.4457
 20
124.2043
 40
3.1588
 50
269.99922
 51
359.9989662
  0
ARC
  8
LAYER_1
 10
241.4457
 20
124.2042
 40
3.1588
 50
359.9995891
 51
90.00041092
  0
ARC
  8
LAYER_1
 10
241.4457
 20
124.2043
 40
3.1587
 50
90.00078002
 51
180.0010339
  0
ARC
  8
LAYER_1
 10
241.4457
 20
124.2043
 40
2.4679
 50
180.0062309
 51
270.0007345
  0
ARC
  8
LAYER_1
 10
241.4457
 20
124.2042
 40
2.4678
 50
270.0001624
 51
359.9998376
  0
ARC
  8
LAYER_1
 10
241.4457
 20
124.2042
 40
2.4678
 50
359.999474
 51
90.00052599
  0
ARC
  8
LAYER_1
 10
241.4457
 20
124.2042
 40
2.4678
 50
89.99983756
 51
180.0001625
  0
ARC
  8
LAYER_1
 10
266.3209
 20
124.2044
 40
2.468
 50
180.008803
 51
270.000484
  0
ARC
  8
LAYER_1
 10
266.3208
 20
124.2042
 40
2.4678
 50
270.0018358
 51
0.0004859472342
  0
ARC
  8
LAYER_1
 10
266.3209
 20
124.2043
 40
2.4677
 50
359.9988256
 51
89.9988526
  0
ARC
  8
LAYER_1
 10
266.3209
 20
124.2042
 40
2.4678
 50
89.99932504
 51
180.000675
  0
LINE
  8
LAYER_1
 10
290.0399
 20
137.7274
 11
290.8997
 21
137.7274
  0
LINE
  8
LAYER_1
 10
290.8997
 20
137.7274
 11
290.8997
 21
139.2082
  0
LINE
  8
LAYER_1
 10
240.9518
 20
124.6977
 11
239.9646
 21
124.6977
  0
LINE
  8
LAYER_1
 10
239.9646
 20
124.6977
 11
239.9646
 21
123.7104
  0
LINE
  8
LAYER_1
 10
239.9646
 20
123.7104
 11
240.9518
 21
123.7104
  0
LINE
  8
LAYER_1
 10
241.9391
 20
123.7104
 11
242.9263
 21
123.7104
  0
LINE
  8
LAYER_1
 10
242.9263
 20
123.7104
 11
242.9263
 21
124.6977
  0
LINE
  8
LAYER_1
 10
242.9263
 20
124.6977
 11
241.9391
 21
124.6977
  0
LINE
  8
LAYER_1
 10
240.9518
 20
123.7104
 11
240.9518
 21
122.7232
  0
LINE
  8
LAYER_1
 10
240.9518
 20
122.7232
 11
241.9391
 21
122.7232
  0
LINE
  8
LAYER_1
 10
241.9391
 20
122.7232
 11
241.9391
 21
123.7104
  0
LINE
  8
LAYER_1
 10
241.9391
 20
124.6977
 11
241.9391
 21
125.6848
  0
LINE
  8
LAYER_1
 10
241.9391
 20
125.6848
 11
240.9518
 21
125.6848
  0
LINE
  8
LAYER_1
 10
240.9518
 20
125.6848
 11
240.9518
 21
124.6977
  0
LINE
  8
LAYER_1
 10
265.8269
 20
124.6977
 11
264.8401
 21
124.6977
  0
LINE
  8
LAYER_1
 10
264.8401
 20
124.6977
 11
264.8401
 21
123.7104
  0
LINE
  8
LAYER_1
 10
264.8401
 20
123.7104
 11
265.8269
 21
123.7104
  0
LINE
  8
LAYER_1
 10
266.8141
 20
123.7104
 11
267.8013
 21
123.7104
  0
LINE
  8
LAYER_1
 10
267.8013
 20
123.7104
 11
267.8013
 21
124.6977
  0
LINE
  8
LAYER_1
 10
267.8013
 20
124.6977
 11
266.8141
 21
124.6977
  0
LINE
  8
LAYER_1
 10
265.8269
 20
123.7104
 11
265.8269
 21
122.7232
  0
LINE
  8
LAYER_1
 10
265.8269
 20
122.7232
 11
266.8141
 21
122.7232
  0
LINE
  8
LAYER_1
 10
266.8141
 20
122.7232
 11
266.8141
 21
123.7104
  0
ARC
  8
LAYER_1
 10
219.5812
 20
127.1654
 40
1.4805
 50
179.9894403
 51
270.0028207
  0
ARC
  8
LAYER_1
 10
219.5813
 20
127.1655
 40
1.4806
 50
270.001883
 51
359.9981171
  0
ARC
  8
LAYER_1
 10
219.5812
 20
127.1655
 40
1.4807
 50
359.998106
 51
89.99802433
  0
ARC
  8
LAYER_1
 10
219.5813
 20
127.1655
 40
1.4807
 50
89.99811705
 51
180.001883
  0
ARC
  8
LAYER_1
 10
241.4457
 20
132.1012
 40
2.4678
 50
216.8687415
 51
306.8701251
  0
ARC
  8
LAYER_1
 10
241.4452
 20
132.1016
 40
2.4684
 50
306.8730047
 51
323.1269953
  0
ARC
  8
LAYER_1
 10
241.4457
 20
132.1012
 40
2.4677
 50
36.86764251
 51
126.8702953
  0
ARC
  8
LAYER_1
 10
241.4455
 20
132.101
 40
2.4677
 50
126.8640817
 51
143.1243093
  0
LINE
  8
LAYER_1
 10
266.8141
 20
124.6977
 11
266.8141
 21
125.6848
  0
LINE
  8
LAYER_1
 10
266.8141
 20
125.6848
 11
265.8269
 21
125.6848
  0
LINE
  8
LAYER_1
 10
265.8269
 20
125.6848
 11
265.8269
 21
124.6977
  0
LINE
  8
LAYER_1
 10
239.4714
 20
130.6201
 11
239.4714
 21
133.5817
  0
LINE
  8
LAYER_1
 10
243.4199
 20
133.5817
 11
243.4199
 21
130.6201
  0
LINE
  8
LAYER_1
 10
240.9518
 20
132.1009
 11
241.9391
 21
132.1009
  0
LINE
  8
LAYER_1
 10
241.4455
 20
131.6073
 11
241.4455
 21
132.5945
  0
LINE
  8
LAYER_1
 10
262.3721
 20
130.6201
 11
270.2689
 21
130.6201
  0
ARC
  8
LAYER_1
 10
234.4373
 20
125.4875
 40
0.4935
 50
269.9938256
 51
359.9945655
  0
LINE
  8
LAYER_1
 10
223.5787
 20
124.9936
 11
234.4372
 21
124.9936
  0
ARC
  8
LAYER_1
 10
234.4373
 20
136.3457
 40
0.4935
 50
0.00412366293
 51
90.00748524
  0
LINE
  8
LAYER_1
 10
234.9308
 20
125.4872
 11
234.9308
 21
136.3457
  0
ARC
  8
LAYER_1
 10
223.5791
 20
136.3457
 40
0.4936
 50
90.00259506
 51
179.9974049
  0
LINE
  8
LAYER_1
 10
234.4372
 20
136.8388
 11
223.5787
 21
136.8388
  0
ARC
  8
LAYER_1
 10
223.5791
 20
125.4875
 40
0.4936
 50
179.9907854
 51
269.9859991
  0
ARC
  8
LAYER_1
 10
229.008
 20
130.9162
 40
3.9481
 50
179.9969672
 51
270.0015817
  0
ARC
  8
LAYER_1
 10
229.0081
 20
130.9166
 40
3.9485
 50
269.9994714
 51
0.0005285955229
  0
ARC
  8
LAYER_1
 10
229.0082
 20
130.9166
 40
3.9484
 50
0.0006675487602
 51
90.00078353
  0
ARC
  8
LAYER_1
 10
229.0081
 20
130.9166
 40
3.9484
 50
90.00052861
 51
179.9994714
  0
LINE
  8
LAYER_1
 10
223.0855
 20
136.3457
 11
223.0855
 21
125.4872
  0
LINE
  8
LAYER_1
 10
222.2955
 20
137.0365
 11
235.7203
 21
137.0365
  0
LINE
  8
LAYER_1
 10
225.1293
 20
130.176
 11
228.5143
 21
130.176
  0
LINE
  8
LAYER_1
 10
229.5015
 20
130.176
 11
232.8865
 21
130.176
  0
LINE
  8
LAYER_1
 10
232.8865
 20
131.6568
 11
229.5015
 21
131.6568
  0
LINE
  8
LAYER_1
 10
228.5143
 20
131.6568
 11
225.1293
 21
131.6568
  0
LINE
  8
LAYER_1
 10
228.5143
 20
130.176
 11
228.5143
 21
128.942
  0
LINE
  8
LAYER_1
 10
228.5143
 20
128.942
 11
229.5015
 21
128.942
  0
LINE
  8
LAYER_1
 10
229.5015
 20
128.942
 11
229.5015
 21
130.176
  0
ARC
  8
LAYER_1
 10
253.8832
 20
130.9163
 40
3.9482
 50
179.9984686
 51
270.0015314
  0
ARC
  8
LAYER_1
 10
253.8833
 20
130.9165
 40
3.9484
 50
270.0005173
 51
0.0009338301244
  0
ARC
  8
LAYER_1
 10
253.8833
 20
130.9166
 40
3.9484
 50
0.0002623236661
 51
89.99973766
  0
ARC
  8
LAYER_1
 10
253.8833
 20
130.9166
 40
3.9484
 50
90.00020829
 51
179.9997917
  0
LINE
  8
LAYER_1
 10
229.5015
 20
131.6568
 11
229.5015
 21
132.8904
  0
LINE
  8
LAYER_1
 10
229.5015
 20
132.8904
 11
228.5143
 21
132.8904
  0
LINE
  8
LAYER_1
 10
228.5143
 20
132.8904
 11
228.5143
 21
131.6568
  0
LINE
  8
LAYER_1
 10
247.1706
 20
137.0365
 11
260.5954
 21
137.0365
  0
ARC
  8
LAYER_1
 10
284.1877
 20
125.4874
 40
0.4934
 50
270.0026159
 51
0.008995385228
  0
LINE
  8
LAYER_1
 10
273.3292
 20
124.9936
 11
284.1873
 21
124.9936
  0
ARC
  8
LAYER_1
 10
284.1876
 20
136.3459
 40
0.4933
 50
359.9729119
 51
90.01547684
  0
LINE
  8
LAYER_1
 10
284.6809
 20
125.4872
 11
284.6809
 21
136.3457
  0
ARC
  8
LAYER_1
 10
273.3293
 20
136.3458
 40
0.4935
 50
90.01587066
 51
180.0073495
  0
LINE
  8
LAYER_1
 10
284.1873
 20
136.8388
 11
273.3292
 21
136.8388
  0
ARC
  8
LAYER_1
 10
273.3295
 20
125.4878
 40
0.4939
 50
180.0192836
 51
269.9807165
  0
ARC
  8
LAYER_1
 10
278.7583
 20
130.9164
 40
3.9483
 50
180.0007236
 51
270.0007276
  0
ARC
  8
LAYER_1
 10
278.7584
 20
130.9166
 40
3.9485
 50
269.9994646
 51
0.0005353955903
  0
ARC
  8
LAYER_1
 10
278.7585
 20
130.9166
 40
3.9484
 50
0.000660748744
 51
90.00079033
  0
ARC
  8
LAYER_1
 10
278.7584
 20
130.9166
 40
3.9484
 50
90.00053541
 51
179.9994646
  0
LINE
  8
LAYER_1
 10
272.8356
 20
136.3457
 11
272.8356
 21
125.4872
  0
LINE
  8
LAYER_1
 10
272.0461
 20
137.0365
 11
285.4704
 21
137.0365
  0
LINE
  8
LAYER_1
 10
274.8799
 20
130.176
 11
278.2649
 21
130.176
  0
LINE
  8
LAYER_1
 10
279.2516
 20
130.176
 11
282.6366
 21
130.176
  0
LINE
  8
LAYER_1
 10
282.6366
 20
131.6568
 11
279.2516
 21
131.6568
  0
LINE
  8
LAYER_1
 10
278.2649
 20
131.6568
 11
274.8799
 21
131.6568
  0
LINE
  8
LAYER_1
 10
278.2649
 20
130.176
 11
278.2649
 21
128.942
  0
LINE
  8
LAYER_1
 10
278.2649
 20
128.942
 11
279.2516
 21
128.942
  0
LINE
  8
LAYER_1
 10
279.2516
 20
128.942
 11
279.2516
 21
130.176
  0
LINE
  8
LAYER_1
 10
279.2516
 20
131.6568
 11
279.2516
 21
132.8904
  0
LINE
  8
LAYER_1
 10
279.2516
 20
132.8904
 11
278.2649
 21
132.8904
  0
LINE
  8
LAYER_1
 10
278.2649
 20
132.8904
 11
278.2649
 21
131.6568
  0
ARC
  8
LAYER_1
 10
243.1671
 20
139.8005
 40
0.1973
 50
90.00089919
 51
179.9991008
  0
LINE
  8
LAYER_1
 10
242.9698
 20
139.8005
 11
242.9736
 21
139.7618
  0
LINE
  8
LAYER_1
 10
247.1706
 20
139.9978
 11
243.1671
 21
139.9978
  0
ARC
  8
LAYER_1
 10
242.8179
 20
138.0237
 40
0.4935
 50
281.3130036
 51
11.32962578
  0
LINE
  8
LAYER_1
 10
242.9147
 20
137.5398
 11
242.8179
 21
137.5302
  0
LINE
  8
LAYER_1
 10
242.9733
 20
139.7615
 11
243.3018
 21
138.1203
  0
ARC
  8
LAYER_1
 10
240.0735
 20
138.0236
 40
0.4935
 50
179.9819091
 51
269.9832642
  0
LINE
  8
LAYER_1
 10
239.58
 20
138.0238
 11
239.5896
 21
138.1205
  0
LINE
  8
LAYER_1
 10
242.8175
 20
137.5301
 11
240.0734
 21
137.5301
  0
ARC
  8
LAYER_1
 10
239.7158
 20
139.7951
 40
0.2045
 50
350.6713425
 51
76.66320663
  0
LINE
  8
LAYER_1
 10
239.763
 20
139.9941
 11
239.7242
 21
139.998
  0
LINE
  8
LAYER_1
 10
239.5896
 20
138.1203
 11
239.9176
 21
139.7615
  0
LINE
  8
LAYER_1
 10
239.7242
 20
139.9978
 11
235.7203
 21
139.9978
  0
ARC
  8
LAYER_1
 10
268.0422
 20
139.8005
 40
0.1973
 50
89.9957193
 51
180.0042807
  0
LINE
  8
LAYER_1
 10
267.8449
 20
139.8005
 11
267.8488
 21
139.7618
  0
LINE
  8
LAYER_1
 10
272.0461
 20
139.9978
 11
268.0422
 21
139.9978
  0
ARC
  8
LAYER_1
 10
267.6931
 20
138.0236
 40
0.4934
 50
281.3075524
 51
11.34873848
  0
LINE
  8
LAYER_1
 10
267.7898
 20
137.5398
 11
267.6931
 21
137.5302
  0
LINE
  8
LAYER_1
 10
267.8487
 20
139.7615
 11
268.1768
 21
138.1203
  0
ARC
  8
LAYER_1
 10
264.9486
 20
138.0236
 40
0.4935
 50
179.9798396
 51
269.9853337
  0
LINE
  8
LAYER_1
 10
264.4551
 20
138.0238
 11
264.4647
 21
138.1205
  0
LINE
  8
LAYER_1
 10
267.693
 20
137.5301
 11
264.9485
 21
137.5301
  0
ARC
  8
LAYER_1
 10
264.5994
 20
139.8005
 40
0.1975
 50
348.7724007
 51
78.69883367
  0
LINE
  8
LAYER_1
 10
264.6381
 20
139.9941
 11
264.5994
 21
139.998
  0
LINE
  8
LAYER_1
 10
264.4646
 20
138.1203
 11
264.7927
 21
139.7615
  0
LINE
  8
LAYER_1
 10
264.5992
 20
139.9978
 11
260.5954
 21
139.9978
  0
ARC
  8
LAYER_1
 10
282.5095
 20
55.1066
 40
2.9613
 50
0.002234854843
 51
89.99969998
  0
LINE
  8
LAYER_1
 10
285.4704
 20
42.2738
 11
285.4704
 21
55.1063
  0
ARC
  8
LAYER_1
 10
275.0074
 20
55.1067
 40
2.9613
 50
90.00232012
 51
180.0015495
  0
LINE
  8
LAYER_1
 10
282.5092
 20
58.0675
 11
275.0073
 21
58.0675
  0
LINE
  8
LAYER_1
 10
272.0461
 20
55.1063
 11
272.0461
 21
42.2738
  0
ARC
  8
LAYER_1
 10
257.6343
 20
55.1064
 40
2.9615
 50
0.004906449148
 51
90.0008979
  0
LINE
  8
LAYER_1
 10
260.5954
 20
42.2738
 11
260.5954
 21
55.1063
  0
ARC
  8
LAYER_1
 10
250.1323
 20
55.1066
 40
2.9614
 50
89.9997108
 51
180.0002892
  0
LINE
  8
LAYER_1
 10
257.6341
 20
58.0675
 11
250.1323
 21
58.0675
  0
LINE
  8
LAYER_1
 10
247.1706
 20
55.1063
 11
247.1706
 21
42.2738
  0
ARC
  8
LAYER_1
 10
225.257
 20
55.1069
 40
2.961
 50
89.99793062
 51
180.0040043
  0
LINE
  8
LAYER_1
 10
222.2955
 20
42.2738
 11
222.2955
 21
55.1063
  0
ARC
  8
LAYER_1
 10
232.7591
 20
55.1066
 40
2.9614
 50
0.0003972152521
 51
89.99960277
  0
LINE
  8
LAYER_1
 10
225.2568
 20
58.0675
 11
232.7591
 21
58.0675
  0
ARC
  8
LAYER_1
 10
266.3209
 20
50.171
 40
3.9484
 50
179.9979838
 51
270.0005651
  0
ARC
  8
LAYER_1
 10
266.3209
 20
50.171
 40
3.9484
 50
270.0005259
 51
359.9994741
  0
ARC
  8
LAYER_1
 10
266.3209
 20
50.1711
 40
3.9484
 50
359.999162
 51
89.9993869
  0
ARC
  8
LAYER_1
 10
266.3209
 20
50.171
 40
3.9485
 50
89.99947412
 51
180.0005259
  0
ARC
  8
LAYER_1
 10
241.4457
 20
50.1709
 40
3.9483
 50
179.9963764
 51
270.0007214
  0
ARC
  8
LAYER_1
 10
241.4457
 20
50.1711
 40
3.9485
 50
269.99948
 51
359.9990689
  0
LINE
  8
LAYER_1
 10
235.7203
 20
55.1063
 11
235.7203
 21
42.2738
  0
ARC
  8
LAYER_1
 10
237.9908
 20
53.6261
 40
0.4934
 50
89.9961168
 51
180.0271034
  0
LINE
  8
LAYER_1
 10
237.497
 20
50.1707
 11
237.497
 21
53.6259
  0
ARC
  8
LAYER_1
 10
244.9007
 20
53.626
 40
0.4935
 50
359.9936616
 51
89.99472951
  0
LINE
  8
LAYER_1
 10
237.9906
 20
54.1191
 11
244.9003
 21
54.1191
  0
LINE
  8
LAYER_1
 10
245.3939
 20
53.6259
 11
245.3939
 21
50.1707
  0
ARC
  8
LAYER_1
 10
290.7025
 20
44.0508
 40
0.9871
 50
179.9902906
 51
269.9922969
  0
ARC
  8
LAYER_1
 10
290.7028
 20
44.0511
 40
0.9874
 50
163.4102669
 51
180.0053905
  0
ARC
  8
LAYER_1
 10
290.0402
 20
44.2487
 40
0.2958
 50
89.9861063
 51
163.4687004
  0
LINE
  8
LAYER_1
 10
290.8997
 20
43.0637
 11
290.7024
 21
43.0637
  0
LINE
  8
LAYER_1
 10
290.0399
 20
44.5441
 11
290.8997
 21
44.5441
  0
LINE
  8
LAYER_1
 10
290.8997
 20
44.5441
 11
290.8997
 21
43.0637
  0
ARC
  8
LAYER_1
 10
217.064
 20
44.0509
 40
0.9872
 50
270.0019347
 51
0.003868880783
  0
ARC
  8
LAYER_1
 10
217.0638
 20
44.0511
 40
0.9874
 50
359.9946095
 51
16.58973301
  0
ARC
  8
LAYER_1
 10
217.7262
 20
44.2483
 40
0.2962
 50
16.59908386
 51
89.98482494
  0
LINE
  8
LAYER_1
 10
216.8663
 20
43.0637
 11
217.064
 21
43.0637
  0
ARC
  8
LAYER_1
 10
288.1854
 20
55.1064
 40
1.4805
 50
179.9871443
 51
269.9973766
  0
ARC
  8
LAYER_1
 10
288.1853
 20
55.1066
 40
1.4807
 50
269.999094
 51
0.0009059897206
  0
ARC
  8
LAYER_1
 10
288.1854
 20
55.1066
 40
1.4806
 50
0.001621771819
 51
90.00224785
  0
ARC
  8
LAYER_1
 10
288.1853
 20
55.1066
 40
1.4806
 50
90.00090604
 51
179.9990939
  0
ARC
  8
LAYER_1
 10
266.3208
 20
50.1712
 40
2.4677
 50
36.87281542
 51
126.8711593
  0
ARC
  8
LAYER_1
 10
266.3209
 20
50.171
 40
2.4679
 50
126.8694219
 51
143.130578
  0
ARC
  8
LAYER_1
 10
266.3208
 20
50.1713
 40
2.468
 50
216.8748059
 51
306.8673111
  0
ARC
  8
LAYER_1
 10
266.3209
 20
50.171
 40
2.4678
 50
306.8690997
 51
323.1309003
  0
LINE
  8
LAYER_1
 10
217.7261
 20
44.5441
 11
216.8663
 21
44.5441
  0
LINE
  8
LAYER_1
 10
216.8663
 20
44.5441
 11
216.8663
 21
43.0637
  0
LINE
  8
LAYER_1
 10
268.2949
 20
51.6515
 11
268.2949
 21
48.6903
  0
LINE
  8
LAYER_1
 10
264.3465
 20
48.6903
 11
264.3465
 21
51.6515
  0
LINE
  8
LAYER_1
 10
266.8141
 20
50.1707
 11
265.8269
 21
50.1707
  0
LINE
  8
LAYER_1
 10
266.3205
 20
50.6643
 11
266.3205
 21
49.6775
  0
LINE
  8
LAYER_1
 10
245.3939
 20
51.6515
 11
237.497
 21
51.6515
  0
ARC
  8
LAYER_1
 10
273.3294
 20
56.7848
 40
0.4936
 50
90.02058955
 51
180.0142372
  0
LINE
  8
LAYER_1
 10
284.1873
 20
57.278
 11
273.3292
 21
57.278
  0
ARC
  8
LAYER_1
 10
273.3293
 20
45.9266
 40
0.4937
 50
180.0389634
 51
269.9958634
  0
LINE
  8
LAYER_1
 10
272.8356
 20
56.7844
 11
272.8356
 21
45.9263
  0
ARC
  8
LAYER_1
 10
284.1875
 20
45.9263
 40
0.4936
 50
270.0204855
 51
0.02594542778
  0
LINE
  8
LAYER_1
 10
273.3292
 20
45.4327
 11
284.1873
 21
45.4327
  0
ARC
  8
LAYER_1
 10
284.1877
 20
56.785
 40
0.4932
 50
359.9740481
 51
90.02595186
  0
ARC
  8
LAYER_1
 10
278.7584
 20
51.3555
 40
3.9484
 50
179.9989723
 51
269.9995766
  0
ARC
  8
LAYER_1
 10
278.7584
 20
51.3556
 40
3.9485
 50
269.9994439
 51
0.0005561353955
  0
ARC
  8
LAYER_1
 10
278.7585
 20
51.3556
 40
3.9484
 50
0.0006814885496
 51
90.0007696
  0
ARC
  8
LAYER_1
 10
278.7584
 20
51.3556
 40
3.9484
 50
90.00055615
 51
179.9994438
  0
LINE
  8
LAYER_1
 10
284.6809
 20
45.9263
 11
284.6809
 21
56.7844
  0
LINE
  8
LAYER_1
 10
285.4704
 20
45.2354
 11
272.0461
 21
45.2354
  0
LINE
  8
LAYER_1
 10
282.6366
 20
52.0956
 11
279.2516
 21
52.0956
  0
LINE
  8
LAYER_1
 10
278.2649
 20
52.0956
 11
274.8799
 21
52.0956
  0
LINE
  8
LAYER_1
 10
274.8799
 20
50.6152
 11
278.2649
 21
50.6152
  0
LINE
  8
LAYER_1
 10
279.2516
 20
50.6152
 11
282.6366
 21
50.6152
  0
LINE
  8
LAYER_1
 10
279.2516
 20
52.0956
 11
279.2516
 21
53.3296
  0
LINE
  8
LAYER_1
 10
279.2516
 20
53.3296
 11
278.2649
 21
53.3296
  0
LINE
  8
LAYER_1
 10
278.2649
 20
53.3296
 11
278.2649
 21
52.0956
  0
LINE
  8
LAYER_1
 10
278.2649
 20
50.6152
 11
278.2649
 21
49.3812
  0
LINE
  8
LAYER_1
 10
278.2649
 20
49.3812
 11
279.2516
 21
49.3812
  0
LINE
  8
LAYER_1
 10
279.2516
 20
49.3812
 11
279.2516
 21
50.6152
  0
ARC
  8
LAYER_1
 10
248.4542
 20
56.7848
 40
0.4936
 50
90.00524568
 51
180.0063609
  0
LINE
  8
LAYER_1
 10
259.3122
 20
57.278
 11
248.4542
 21
57.278
  0
ARC
  8
LAYER_1
 10
248.4542
 20
45.9265
 40
0.4936
 50
180.021997
 51
270.0012232
  0
LINE
  8
LAYER_1
 10
247.9606
 20
56.7844
 11
247.9606
 21
45.9263
  0
ARC
  8
LAYER_1
 10
259.3122
 20
45.9264
 40
0.4937
 50
270.0021571
 51
0.009447078413
  0
LINE
  8
LAYER_1
 10
248.4542
 20
45.4327
 11
259.3122
 21
45.4327
  0
ARC
  8
LAYER_1
 10
259.3125
 20
56.7849
 40
0.4933
 50
359.9871691
 51
90.01283092
  0
ARC
  8
LAYER_1
 10
253.8833
 20
51.3554
 40
3.9483
 50
179.9967174
 51
270.0003804
  0
ARC
  8
LAYER_1
 10
253.8833
 20
51.3555
 40
3.9484
 50
270.0004965
 51
0.0009545699812
  0
ARC
  8
LAYER_1
 10
253.8833
 20
51.3556
 40
3.9484
 50
0.0002830635232
 51
89.99971692
  0
ARC
  8
LAYER_1
 10
253.8833
 20
51.3556
 40
3.9484
 50
90.00022903
 51
179.9997709
  0
LINE
  8
LAYER_1
 10
259.8058
 20
45.9263
 11
259.8058
 21
56.7844
  0
LINE
  8
LAYER_1
 10
260.5954
 20
45.2354
 11
247.1706
 21
45.2354
  0
LINE
  8
LAYER_1
 10
257.7616
 20
52.0956
 11
254.3766
 21
52.0956
  0
LINE
  8
LAYER_1
 10
253.3894
 20
52.0956
 11
250.0048
 21
52.0956
  0
LINE
  8
LAYER_1
 10
250.0048
 20
50.6152
 11
253.3894
 21
50.6152
  0
LINE
  8
LAYER_1
 10
254.3766
 20
50.6152
 11
257.7616
 21
50.6152
  0
LINE
  8
LAYER_1
 10
254.3766
 20
52.0956
 11
254.3766
 21
53.3296
  0
LINE
  8
LAYER_1
 10
254.3766
 20
53.3296
 11
253.3894
 21
53.3296
  0
LINE
  8
LAYER_1
 10
253.3894
 20
53.3296
 11
253.3894
 21
52.0956
  0
LINE
  8
LAYER_1
 10
253.3894
 20
50.6152
 11
253.3894
 21
49.3812
  0
LINE
  8
LAYER_1
 10
253.3894
 20
49.3812
 11
254.3766
 21
49.3812
  0
LINE
  8
LAYER_1
 10
254.3766
 20
49.3812
 11
254.3766
 21
50.6152
  0
ARC
  8
LAYER_1
 10
223.5792
 20
56.7847
 40
0.4937
 50
90.00731459
 51
180.004292
  0
LINE
  8
LAYER_1
 10
234.4372
 20
57.278
 11
223.5787
 21
57.278
  0
ARC
  8
LAYER_1
 10
223.579
 20
45.9264
 40
0.4935
 50
180.0104502
 51
270.0011611
  0
LINE
  8
LAYER_1
 10
223.0855
 20
56.7844
 11
223.0855
 21
45.9263
  0
ARC
  8
LAYER_1
 10
234.4371
 20
45.9264
 40
0.4937
 50
270.0116933
 51
0.01151749313
  0
LINE
  8
LAYER_1
 10
223.5787
 20
45.4327
 11
234.4372
 21
45.4327
  0
ARC
  8
LAYER_1
 10
234.4374
 20
56.7848
 40
0.4934
 50
0.005274145334
 51
90.01794602
  0
ARC
  8
LAYER_1
 10
229.0081
 20
51.3553
 40
3.9482
 50
179.9952161
 51
270.0004305
  0
ARC
  8
LAYER_1
 10
229.0081
 20
51.3556
 40
3.9485
 50
269.9994507
 51
0.0005493353183
  0
ARC
  8
LAYER_1
 10
229.0082
 20
51.3556
 40
3.9484
 50
0.0006882885559
 51
90.0007628
  0
ARC
  8
LAYER_1
 10
229.0081
 20
51.3556
 40
3.9484
 50
90.00054935
 51
179.9994506
  0
LINE
  8
LAYER_1
 10
234.9308
 20
45.9263
 11
234.9308
 21
56.7844
  0
LINE
  8
LAYER_1
 10
235.7203
 20
45.2354
 11
222.2955
 21
45.2354
  0
LINE
  8
LAYER_1
 10
232.8865
 20
52.0956
 11
229.5015
 21
52.0956
  0
LINE
  8
LAYER_1
 10
228.5143
 20
52.0956
 11
225.1293
 21
52.0956
  0
LINE
  8
LAYER_1
 10
225.1293
 20
50.6152
 11
228.5143
 21
50.6152
  0
LINE
  8
LAYER_1
 10
229.5015
 20
50.6152
 11
232.8865
 21
50.6152
  0
LINE
  8
LAYER_1
 10
229.5015
 20
52.0956
 11
229.5015
 21
53.3296
  0
LINE
  8
LAYER_1
 10
229.5015
 20
53.3296
 11
228.5143
 21
53.3296
  0
LINE
  8
LAYER_1
 10
228.5143
 20
53.3296
 11
228.5143
 21
52.0956
  0
LINE
  8
LAYER_1
 10
228.5143
 20
50.6152
 11
228.5143
 21
49.3812
  0
LINE
  8
LAYER_1
 10
228.5143
 20
49.3812
 11
229.5015
 21
49.3812
  0
LINE
  8
LAYER_1
 10
229.5015
 20
49.3812
 11
229.5015
 21
50.6152
  0
ARC
  8
LAYER_1
 10
264.5918
 20
42.4792
 40
0.2051
 50
272.061562
 51
357.8804169
  0
LINE
  8
LAYER_1
 10
264.7968
 20
42.4716
 11
264.793
 21
42.5103
  0
LINE
  8
LAYER_1
 10
260.5954
 20
42.2738
 11
264.5992
 21
42.2738
  0
ARC
  8
LAYER_1
 10
264.9487
 20
44.2484
 40
0.4936
 50
101.3038447
 51
191.2932541
  0
LINE
  8
LAYER_1
 10
264.8519
 20
44.7324
 11
264.9487
 21
44.742
  0
LINE
  8
LAYER_1
 10
264.7927
 20
42.51
 11
264.4646
 21
44.1513
  0
ARC
  8
LAYER_1
 10
267.6931
 20
44.2483
 40
0.4935
 50
0.01462389448
 51
90.00859627
  0
LINE
  8
LAYER_1
 10
268.1866
 20
44.2484
 11
268.177
 21
44.1516
  0
LINE
  8
LAYER_1
 10
264.9485
 20
44.7418
 11
267.693
 21
44.7418
  0
ARC
  8
LAYER_1
 10
268.0424
 20
42.4717
 40
0.1976
 50
168.6830397
 51
258.662967
  0
LINE
  8
LAYER_1
 10
268.0036
 20
42.278
 11
268.0423
 21
42.2742
  0
LINE
  8
LAYER_1
 10
268.1768
 20
44.1513
 11
267.8487
 21
42.51
  0
LINE
  8
LAYER_1
 10
268.0422
 20
42.2738
 11
272.0461
 21
42.2738
  0
ARC
  8
LAYER_1
 10
239.7242
 20
42.4717
 40
0.1975
 50
269.9868575
 51
359.9841247
  0
LINE
  8
LAYER_1
 10
239.9217
 20
42.4716
 11
239.9178
 21
42.5103
  0
LINE
  8
LAYER_1
 10
235.7203
 20
42.2738
 11
239.7242
 21
42.2738
  0
ARC
  8
LAYER_1
 10
240.0735
 20
44.2485
 40
0.4935
 50
101.3114618
 51
191.3129571
  0
LINE
  8
LAYER_1
 10
239.9767
 20
44.7324
 11
240.0735
 21
44.742
  0
LINE
  8
LAYER_1
 10
239.9176
 20
42.51
 11
239.5896
 21
44.1513
  0
ARC
  8
LAYER_1
 10
242.818
 20
44.2483
 40
0.4935
 50
0.01255358047
 51
90.01066658
  0
LINE
  8
LAYER_1
 10
243.3115
 20
44.2484
 11
243.3019
 21
44.1516
  0
LINE
  8
LAYER_1
 10
240.0734
 20
44.7418
 11
242.8175
 21
44.7418
  0
ARC
  8
LAYER_1
 10
243.1673
 20
42.4716
 40
0.1974
 50
168.6329293
 51
258.6789355
  0
LINE
  8
LAYER_1
 10
243.1285
 20
42.278
 11
243.1672
 21
42.2742
  0
LINE
  8
LAYER_1
 10
243.3018
 20
44.1513
 11
242.9733
 21
42.51
  0
ARC
  8
LAYER_1
 10
241.4458
 20
58.0681
 40
3.1586
 50
359.9985733
 51
90.00142666
  0
ARC
  8
LAYER_1
 10
241.4458
 20
58.0679
 40
3.1588
 50
90.00092746
 51
180.0008864
  0
ARC
  8
LAYER_1
 10
241.4458
 20
58.0681
 40
2.468
 50
180.0018261
 51
269.998174
  0
ARC
  8
LAYER_1
 10
241.4457
 20
58.0679
 40
2.4678
 50
269.9999737
 51
2.62877652e-005
  0
ARC
  8
LAYER_1
 10
241.4457
 20
58.0679
 40
2.4678
 50
359.9996627
 51
90.00033726
  0
ARC
  8
LAYER_1
 10
241.4457
 20
58.0679
 40
2.4678
 50
90.00002628
 51
179.9999737
  0
LINE
  8
LAYER_1
 10
243.1671
 20
42.2738
 11
247.1706
 21
42.2738
  0
LINE
  8
LAYER_1
 10
240.9518
 20
58.5611
 11
239.9646
 21
58.5611
  0
LINE
  8
LAYER_1
 10
239.9646
 20
58.5611
 11
239.9646
 21
57.5743
  0
LINE
  8
LAYER_1
 10
239.9646
 20
57.5743
 11
240.9518
 21
57.5743
  0
LINE
  8
LAYER_1
 10
241.9391
 20
57.5743
 11
242.9263
 21
57.5743
  0
LINE
  8
LAYER_1
 10
242.9263
 20
57.5743
 11
242.9263
 21
58.5611
  0
LINE
  8
LAYER_1
 10
242.9263
 20
58.5611
 11
241.9391
 21
58.5611
  0
LINE
  8
LAYER_1
 10
240.9518
 20
57.5743
 11
240.9518
 21
56.5871
  0
LINE
  8
LAYER_1
 10
240.9518
 20
56.5871
 11
241.9391
 21
56.5871
  0
LINE
  8
LAYER_1
 10
241.9391
 20
56.5871
 11
241.9391
 21
57.5743
  0
ARC
  8
LAYER_1
 10
266.3209
 20
58.0682
 40
3.1585
 50
359.9957454
 51
90.00062668
  0
ARC
  8
LAYER_1
 10
266.3209
 20
58.0679
 40
3.1588
 50
89.99962013
 51
180.0003799
  0
ARC
  8
LAYER_1
 10
266.321
 20
58.0682
 40
2.4681
 50
180.0043979
 51
269.9979237
  0
ARC
  8
LAYER_1
 10
266.3208
 20
58.0679
 40
2.4678
 50
270.0016471
 51
0.0006746733796
  0
ARC
  8
LAYER_1
 10
266.3208
 20
58.0679
 40
2.4678
 50
359.9990143
 51
89.99866387
  0
ARC
  8
LAYER_1
 10
266.3209
 20
58.0679
 40
2.4678
 50
89.99951377
 51
180.0004862
  0
LINE
  8
LAYER_1
 10
241.9391
 20
58.5611
 11
241.9391
 21
59.5483
  0
LINE
  8
LAYER_1
 10
241.9391
 20
59.5483
 11
240.9518
 21
59.5483
  0
LINE
  8
LAYER_1
 10
240.9518
 20
59.5483
 11
240.9518
 21
58.5611
  0
LINE
  8
LAYER_1
 10
265.8269
 20
58.5611
 11
264.8401
 21
58.5611
  0
LINE
  8
LAYER_1
 10
264.8401
 20
58.5611
 11
264.8401
 21
57.5743
  0
LINE
  8
LAYER_1
 10
264.8401
 20
57.5743
 11
265.8269
 21
57.5743
  0
LINE
  8
LAYER_1
 10
266.8141
 20
57.5743
 11
267.8013
 21
57.5743
  0
LINE
  8
LAYER_1
 10
267.8013
 20
57.5743
 11
267.8013
 21
58.5611
  0
LINE
  8
LAYER_1
 10
267.8013
 20
58.5611
 11
266.8141
 21
58.5611
  0
LINE
  8
LAYER_1
 10
265.8269
 20
57.5743
 11
265.8269
 21
56.5871
  0
LINE
  8
LAYER_1
 10
265.8269
 20
56.5871
 11
266.8141
 21
56.5871
  0
LINE
  8
LAYER_1
 10
266.8141
 20
56.5871
 11
266.8141
 21
57.5743
  0
LINE
  8
LAYER_1
 10
266.8141
 20
58.5611
 11
266.8141
 21
59.5483
  0
LINE
  8
LAYER_1
 10
266.8141
 20
59.5483
 11
265.8269
 21
59.5483
  0
LINE
  8
LAYER_1
 10
265.8269
 20
59.5483
 11
265.8269
 21
58.5611
  0
LINE
  8
LAYER_1
 10
238.287
 20
58.0675
 11
238.287
 21
54.1191
  0
LINE
  8
LAYER_1
 10
244.6044
 20
58.0675
 11
244.6044
 21
54.1191
  0
LINE
  8
LAYER_1
 10
263.162
 20
58.0675
 11
263.162
 21
52.5401
  0
LINE
  8
LAYER_1
 10
269.4794
 20
58.0675
 11
269.4794
 21
52.5401
  0
LINE
  8
LAYER_1
 10
374.2531
 20
44.2482
 11
374.2531
 21
71.8872
  0
LINE
  8
LAYER_1
 10
374.2531
 20
108.4103
 11
374.2531
 21
138.0233
  0
LINE
  8
LAYER_1
 10
362.4079
 20
139.9978
 11
319.9624
 21
139.9978
  0
LINE
  8
LAYER_1
 10
309.1039
 20
115.8136
 11
309.1039
 21
66.458
  0
LINE
  8
LAYER_1
 10
319.9624
 20
42.2738
 11
362.4079
 21
42.2738
  0
LINE
  8
LAYER_1
 10
309.1039
 20
66.458
 11
314.0395
 21
66.458
  0
LINE
  8
LAYER_1
 10
314.0395
 20
66.458
 11
314.0395
 21
115.8136
  0
LINE
  8
LAYER_1
 10
314.0395
 20
115.8136
 11
309.1039
 21
115.8136
  0
LINE
  8
LAYER_1
 10
309.1039
 20
115.8136
 11
309.1039
 21
66.458
  0
LINE
  8
LAYER_1
 10
316.0139
 20
59.0547
 11
314.0395
 21
59.0547
  0
LINE
  8
LAYER_1
 10
314.0395
 20
59.0547
 11
314.0395
 21
123.2168
  0
LINE
  8
LAYER_1
 10
314.0395
 20
123.2168
 11
316.0139
 21
123.2168
  0
LINE
  8
LAYER_1
 10
316.0139
 20
123.2168
 11
316.0139
 21
124.204
  0
LINE
  8
LAYER_1
 10
316.0139
 20
124.204
 11
319.9624
 21
124.204
  0
LINE
  8
LAYER_1
 10
319.9624
 20
124.204
 11
319.9624
 21
123.2168
  0
LINE
  8
LAYER_1
 10
319.9624
 20
59.0547
 11
319.9624
 21
58.0675
  0
LINE
  8
LAYER_1
 10
319.9624
 20
58.0675
 11
316.0139
 21
58.0675
  0
LINE
  8
LAYER_1
 10
316.0139
 20
58.0675
 11
316.0139
 21
59.0547
  0
LINE
  8
LAYER_1
 10
365.3691
 20
138.0233
 11
374.2531
 21
138.0233
  0
LINE
  8
LAYER_1
 10
374.2531
 20
138.0233
 11
374.2531
 21
108.4103
  0
LINE
  8
LAYER_1
 10
374.2531
 20
71.8872
 11
374.2531
 21
44.2482
  0
LINE
  8
LAYER_1
 10
374.2531
 20
44.2482
 11
365.3691
 21
44.2482
  0
LINE
  8
LAYER_1
 10
364.3823
 20
43.261
 11
362.4079
 21
43.261
  0
LINE
  8
LAYER_1
 10
362.4079
 20
43.261
 11
362.4079
 21
42.2738
  0
LINE
  8
LAYER_1
 10
362.4079
 20
43.261
 11
362.4079
 21
42.2738
  0
LINE
  8
LAYER_1
 10
362.4079
 20
42.2738
 11
319.9624
 21
42.2738
  0
LINE
  8
LAYER_1
 10
319.9624
 20
42.2738
 11
319.9624
 21
59.0547
  0
LINE
  8
LAYER_1
 10
319.9624
 20
123.2168
 11
319.9624
 21
139.9978
  0
LINE
  8
LAYER_1
 10
319.9624
 20
139.9978
 11
362.4079
 21
139.9978
  0
LINE
  8
LAYER_1
 10
362.4079
 20
139.9978
 11
362.4079
 21
139.0106
  0
LINE
  8
LAYER_1
 10
365.3691
 20
44.2482
 11
364.3823
 21
43.261
  0
LINE
  8
LAYER_1
 10
364.3823
 20
139.0106
 11
362.4079
 21
139.0106
  0
LINE
  8
LAYER_1
 10
364.3823
 20
139.0106
 11
365.3691
 21
138.0233
  0
LINE
  8
LAYER_1
 10
316.0139
 20
123.2168
 11
319.9624
 21
123.2168
  0
LINE
  8
LAYER_1
 10
316.0139
 20
59.0547
 11
319.9624
 21
59.0547
  0
LINE
  8
LAYER_1
 10
370.7983
 20
73.8612
 11
369.3175
 21
73.8612
  0
LINE
  8
LAYER_1
 10
369.3175
 20
73.8612
 11
369.3175
 21
108.4103
  0
LINE
  8
LAYER_1
 10
369.3175
 20
108.4103
 11
374.2531
 21
108.4103
  0
ARC
  8
LAYER_1
 10
371.9085
 20
106.733
 40
0.2967
 50
225.0255436
 51
269.9640648
  0
LINE
  8
LAYER_1
 10
374.2531
 20
71.8872
 11
370.7983
 21
73.8612
  0
ARC
  8
LAYER_1
 10
373.9573
 20
106.7325
 40
0.2962
 50
269.9764925
 51
359.9848203
  0
LINE
  8
LAYER_1
 10
371.9083
 20
106.4359
 11
373.9572
 21
106.4359
  0
ARC
  8
LAYER_1
 10
371.0939
 20
107.5453
 40
0.2951
 50
179.8866633
 51
225.0222267
  0
LINE
  8
LAYER_1
 10
374.2531
 20
106.7322
 11
374.2531
 21
108.4103
  0
LINE
  8
LAYER_1
 10
374.2531
 20
108.4103
 11
370.7983
 21
108.4103
  0
LINE
  8
LAYER_1
 10
370.7983
 20
108.4103
 11
370.7983
 21
107.5459
  0
LINE
  8
LAYER_1
 10
370.8851
 20
107.3363
 11
371.6988
 21
106.5227
  0
LINE
  8
LAYER_1
 10
374.2531
 20
71.8872
 11
374.2531
 21
73.3681
  0
LINE
  8
LAYER_1
 10
370.7983
 20
76.3293
 11
374.2531
 21
73.3681
  0
LINE
  8
LAYER_1
 10
369.3175
 20
73.8612
 11
370.7983
 21
73.8612
  0
LINE
  8
LAYER_1
 10
370.7983
 20
73.8612
 11
370.7983
 21
75.3421
  0
LINE
  8
LAYER_1
 10
370.7983
 20
75.3421
 11
369.3175
 21
75.3421
  0
LINE
  8
LAYER_1
 10
369.3175
 20
75.3421
 11
369.3175
 21
73.8612
  0
ARC
  8
LAYER_1
 10
313.8916
 20
120.0584
 40
1.3324
 50
83.6084257
 51
173.6209754
  0
ARC
  8
LAYER_1
 10
313.8918
 20
120.0584
 40
1.3326
 50
173.6219076
 51
263.6207904
  0
ARC
  8
LAYER_1
 10
313.8918
 20
120.0597
 40
1.3339
 50
263.6277545
 51
276.3722455
  0
LINE
  8
LAYER_1
 10
370.7983
 20
75.3421
 11
370.0579
 21
75.3421
  0
LINE
  8
LAYER_1
 10
370.0579
 20
75.3421
 11
370.7983
 21
76.3293
  0
LINE
  8
LAYER_1
 10
371.2919
 20
42.2738
 11
374.2532
 21
42.2738
  0
LINE
  8
LAYER_1
 10
374.2532
 20
42.2738
 11
374.2532
 21
44.2482
  0
LINE
  8
LAYER_1
 10
374.2532
 20
44.2482
 11
371.2919
 21
44.2482
  0
LINE
  8
LAYER_1
 10
371.2919
 20
44.2482
 11
371.2919
 21
42.2738
  0
LINE
  8
LAYER_1
 10
290.8997
 20
23.3157
 11
290.8997
 21
-36.898
  0
LINE
  8
LAYER_1
 10
290.8997
 20
-36.898
 11
272.737
 21
-36.898
  0
LINE
  8
LAYER_1
 10
271.7498
 20
-36.898
 11
260.8917
 21
-36.898
  0
LINE
  8
LAYER_1
 10
259.9045
 20
-36.898
 11
216.8663
 21
-36.898
  0
LINE
  8
LAYER_1
 10
216.8663
 20
-36.898
 11
216.8663
 21
23.3157
  0
LINE
  8
LAYER_1
 10
218.8407
 20
28.2509
 11
288.9252
 21
28.2509
  0
LINE
  8
LAYER_1
 10
218.8407
 20
28.2509
 11
218.8407
 21
23.3157
  0
LINE
  8
LAYER_1
 10
218.8407
 20
23.3157
 11
216.8663
 21
23.3157
  0
LINE
  8
LAYER_1
 10
290.8997
 20
23.3157
 11
288.9252
 21
23.3157
  0
LINE
  8
LAYER_1
 10
288.9252
 20
23.3157
 11
288.9252
 21
28.2509
  0
LINE
  8
LAYER_1
 10
216.8663
 20
17.3928
 11
290.8997
 21
17.3928
  0
LINE
  8
LAYER_1
 10
290.8997
 20
17.3928
 11
290.8997
 21
23.3157
  0
LINE
  8
LAYER_1
 10
290.8997
 20
23.3157
 11
216.8663
 21
23.3157
  0
LINE
  8
LAYER_1
 10
216.8663
 20
23.3157
 11
216.8663
 21
17.3928
  0
LINE
  8
LAYER_1
 10
290.8997
 20
17.3928
 11
289.4188
 21
17.3928
  0
LINE
  8
LAYER_1
 10
218.3471
 20
17.3928
 11
216.8663
 21
17.3928
  0
LINE
  8
LAYER_1
 10
218.3471
 20
21.3412
 11
238.287
 21
21.3412
  0
LINE
  8
LAYER_1
 10
244.6044
 20
21.3412
 11
263.162
 21
21.3412
  0
LINE
  8
LAYER_1
 10
269.4794
 20
21.3412
 11
289.4188
 21
21.3412
  0
LINE
  8
LAYER_1
 10
218.3471
 20
21.3412
 11
218.3471
 21
17.3928
  0
LINE
  8
LAYER_1
 10
289.4188
 20
21.3412
 11
289.4188
 21
17.3928
  0
LINE
  8
LAYER_1
 10
269.4794
 20
17.3928
 11
269.4794
 21
23.3157
  0
LINE
  8
LAYER_1
 10
263.162
 20
17.3928
 11
263.162
 21
23.3157
  0
LINE
  8
LAYER_1
 10
244.6044
 20
23.3157
 11
244.6044
 21
17.3928
  0
LINE
  8
LAYER_1
 10
238.287
 20
23.3157
 11
238.287
 21
17.3928
  0
LINE
  8
LAYER_1
 10
240.2114
 20
-20.1175
 11
242.6795
 21
-20.1175
  0
LINE
  8
LAYER_1
 10
242.6795
 20
-20.1175
 11
242.6795
 21
17.3928
  0
LINE
  8
LAYER_1
 10
242.6795
 20
17.3928
 11
240.2114
 21
17.3928
  0
LINE
  8
LAYER_1
 10
240.2114
 20
17.3928
 11
240.2114
 21
-20.1175
  0
LINE
  8
LAYER_1
 10
265.0869
 20
-20.1175
 11
267.5545
 21
-20.1175
  0
LINE
  8
LAYER_1
 10
267.5545
 20
-20.1175
 11
267.5545
 21
17.3928
  0
LINE
  8
LAYER_1
 10
267.5545
 20
17.3928
 11
265.0869
 21
17.3928
  0
LINE
  8
LAYER_1
 10
265.0869
 20
17.3928
 11
265.0869
 21
-20.1175
  0
LINE
  8
LAYER_1
 10
249.145
 20
-5.8042
 11
247.1706
 21
-5.8042
  0
LINE
  8
LAYER_1
 10
247.1706
 20
-5.8042
 11
247.1706
 21
17.3928
  0
LINE
  8
LAYER_1
 10
247.1706
 20
17.3928
 11
260.5954
 21
17.3928
  0
LINE
  8
LAYER_1
 10
260.5954
 20
17.3928
 11
260.5954
 21
-5.8042
  0
LINE
  8
LAYER_1
 10
260.5954
 20
-5.8042
 11
258.6214
 21
-5.8042
  0
LINE
  8
LAYER_1
 10
250.6254
 20
-9.259
 11
257.1405
 21
-9.259
  0
LINE
  8
LAYER_1
 10
257.1405
 20
-9.259
 11
258.6214
 21
-5.8042
  0
LINE
  8
LAYER_1
 10
250.6254
 20
-9.259
 11
249.145
 21
-5.8042
  0
LINE
  8
LAYER_1
 10
258.198
 20
-6.7914
 11
249.5679
 21
-6.7914
  0
LINE
  8
LAYER_1
 10
247.4669
 20
-5.8042
 11
247.4669
 21
-4.8169
  0
LINE
  8
LAYER_1
 10
247.4669
 20
-4.8169
 11
260.2994
 21
-4.8169
  0
LINE
  8
LAYER_1
 10
260.2994
 20
-4.8169
 11
260.2994
 21
-5.8042
  0
LINE
  8
LAYER_1
 10
252.4026
 20
-4.3238
 11
252.4026
 21
-4.8169
  0
LINE
  8
LAYER_1
 10
252.4026
 20
-4.8169
 11
255.3638
 21
-4.8169
  0
LINE
  8
LAYER_1
 10
255.3638
 20
-4.8169
 11
255.3638
 21
-4.3238
  0
LINE
  8
LAYER_1
 10
252.4026
 20
-4.3238
 11
249.9346
 21
-4.3238
  0
LINE
  8
LAYER_1
 10
249.9346
 20
-4.3238
 11
247.5656
 21
-4.8169
  0
LINE
  8
LAYER_1
 10
255.3638
 20
-4.3238
 11
257.8314
 21
-4.3238
  0
LINE
  8
LAYER_1
 10
257.8314
 20
-4.3238
 11
260.2004
 21
-4.8169
  0
LINE
  8
LAYER_1
 10
252.4026
 20
-2.8429
 11
252.4026
 21
-3.3365
  0
LINE
  8
LAYER_1
 10
252.4026
 20
-3.3365
 11
255.3638
 21
-3.3365
  0
LINE
  8
LAYER_1
 10
255.3638
 20
-3.3365
 11
255.3638
 21
-2.8429
  0
LINE
  8
LAYER_1
 10
252.4026
 20
-2.8429
 11
249.9346
 21
-2.8429
  0
LINE
  8
LAYER_1
 10
249.9346
 20
-2.8429
 11
247.5656
 21
-3.3365
  0
LINE
  8
LAYER_1
 10
255.3638
 20
-2.8429
 11
257.8314
 21
-2.8429
  0
LINE
  8
LAYER_1
 10
257.8314
 20
-2.8429
 11
260.2004
 21
-3.3365
  0
LINE
  8
LAYER_1
 10
247.5656
 20
-3.3365
 11
247.5656
 21
-4.8169
  0
LINE
  8
LAYER_1
 10
260.2004
 20
-3.3365
 11
260.2004
 21
-4.8169
  0
LINE
  8
LAYER_1
 10
249.9346
 20
-2.8429
 11
257.8314
 21
-2.8429
  0
LINE
  8
LAYER_1
 10
257.8314
 20
-2.8429
 11
257.8314
 21
-1.6585
  0
LINE
  8
LAYER_1
 10
257.8314
 20
-1.6585
 11
249.9346
 21
-1.6585
  0
LINE
  8
LAYER_1
 10
249.9346
 20
-1.6585
 11
249.9346
 21
-2.8429
  0
ARC
  8
LAYER_1
 10
257.5356
 20
-1.3619
 40
0.2961
 50
269.9792632
 51
359.9820365
  0
LINE
  8
LAYER_1
 10
250.2309
 20
-1.6585
 11
257.5355
 21
-1.6585
  0
ARC
  8
LAYER_1
 10
255.8575
 20
-0.375
 40
1.9743
 50
0.004185570999
 51
89.99871657
  0
LINE
  8
LAYER_1
 10
257.8314
 20
-1.3621
 11
257.8314
 21
-0.3749
  0
ARC
  8
LAYER_1
 10
251.9091
 20
-0.3747
 40
1.9742
 50
90.00411794
 51
180.0045885
  0
LINE
  8
LAYER_1
 10
255.8574
 20
1.5991
 11
251.909
 21
1.5991
  0
ARC
  8
LAYER_1
 10
250.2309
 20
-1.3622
 40
0.2959
 50
179.9752267
 51
270.0247732
  0
LINE
  8
LAYER_1
 10
249.9346
 20
-0.3749
 11
249.9346
 21
-1.3621
  0
LINE
  8
LAYER_1
 10
260.5954
 20
4.0667
 11
247.1706
 21
4.0667
  0
LINE
  8
LAYER_1
 10
274.0201
 20
-5.8042
 11
272.0461
 21
-5.8042
  0
LINE
  8
LAYER_1
 10
272.0461
 20
-5.8042
 11
272.0461
 21
17.3928
  0
LINE
  8
LAYER_1
 10
272.0461
 20
17.3928
 11
285.4704
 21
17.3928
  0
LINE
  8
LAYER_1
 10
285.4704
 20
17.3928
 11
285.4704
 21
-5.8042
  0
LINE
  8
LAYER_1
 10
285.4704
 20
-5.8042
 11
283.4964
 21
-5.8042
  0
LINE
  8
LAYER_1
 10
275.5009
 20
-9.259
 11
282.0156
 21
-9.259
  0
LINE
  8
LAYER_1
 10
282.0156
 20
-9.259
 11
283.4964
 21
-5.8042
  0
LINE
  8
LAYER_1
 10
275.5009
 20
-9.259
 11
274.0201
 21
-5.8042
  0
LINE
  8
LAYER_1
 10
283.0735
 20
-6.7914
 11
274.443
 21
-6.7914
  0
LINE
  8
LAYER_1
 10
272.342
 20
-5.8042
 11
272.342
 21
-4.8169
  0
LINE
  8
LAYER_1
 10
272.342
 20
-4.8169
 11
285.1745
 21
-4.8169
  0
LINE
  8
LAYER_1
 10
285.1745
 20
-4.8169
 11
285.1745
 21
-5.8042
  0
LINE
  8
LAYER_1
 10
277.2777
 20
-4.3238
 11
277.2777
 21
-4.8169
  0
LINE
  8
LAYER_1
 10
277.2777
 20
-4.8169
 11
280.2389
 21
-4.8169
  0
LINE
  8
LAYER_1
 10
280.2389
 20
-4.8169
 11
280.2389
 21
-4.3238
  0
LINE
  8
LAYER_1
 10
277.2777
 20
-2.8429
 11
277.2777
 21
-3.3365
  0
LINE
  8
LAYER_1
 10
277.2777
 20
-3.3365
 11
280.2389
 21
-3.3365
  0
LINE
  8
LAYER_1
 10
280.2389
 20
-3.3365
 11
280.2389
 21
-2.8429
  0
LINE
  8
LAYER_1
 10
277.2777
 20
-2.8429
 11
274.8096
 21
-2.8429
  0
LINE
  8
LAYER_1
 10
274.8096
 20
-2.8429
 11
272.4406
 21
-3.3365
  0
LINE
  8
LAYER_1
 10
272.4406
 20
-3.3365
 11
272.4406
 21
-4.8169
  0
LINE
  8
LAYER_1
 10
272.4406
 20
-4.8169
 11
274.8096
 21
-4.3238
  0
LINE
  8
LAYER_1
 10
274.8096
 20
-4.3238
 11
277.2777
 21
-4.3238
  0
LINE
  8
LAYER_1
 10
280.2389
 20
-2.8429
 11
282.7065
 21
-2.8429
  0
LINE
  8
LAYER_1
 10
282.7065
 20
-2.8429
 11
285.0759
 21
-3.3365
  0
LINE
  8
LAYER_1
 10
285.0759
 20
-3.3365
 11
285.0759
 21
-4.8169
  0
LINE
  8
LAYER_1
 10
285.0759
 20
-4.8169
 11
282.7065
 21
-4.3238
  0
LINE
  8
LAYER_1
 10
282.7065
 20
-4.3238
 11
280.2389
 21
-4.3238
  0
LINE
  8
LAYER_1
 10
274.8096
 20
-2.8429
 11
282.7065
 21
-2.8429
  0
LINE
  8
LAYER_1
 10
282.7065
 20
-2.8429
 11
282.7065
 21
-1.6585
  0
LINE
  8
LAYER_1
 10
282.7065
 20
-1.6585
 11
274.8096
 21
-1.6585
  0
LINE
  8
LAYER_1
 10
274.8096
 20
-1.6585
 11
274.8096
 21
-2.8429
  0
ARC
  8
LAYER_1
 10
282.4107
 20
-1.3618
 40
0.2962
 50
269.9735657
 51
359.9683937
  0
LINE
  8
LAYER_1
 10
275.106
 20
-1.6585
 11
282.4106
 21
-1.6585
  0
ARC
  8
LAYER_1
 10
280.7327
 20
-0.3749
 40
1.9742
 50
0.001190231371
 51
89.99880976
  0
LINE
  8
LAYER_1
 10
282.7065
 20
-1.3621
 11
282.7065
 21
-0.3749
  0
ARC
  8
LAYER_1
 10
276.7842
 20
-0.3747
 40
1.9742
 50
90.00650273
 51
180.0051062
  0
LINE
  8
LAYER_1
 10
280.7325
 20
1.5991
 11
276.784
 21
1.5991
  0
ARC
  8
LAYER_1
 10
275.106
 20
-1.3621
 40
0.296
 50
180.0053123
 51
270.0140412
  0
LINE
  8
LAYER_1
 10
274.8096
 20
-0.3749
 11
274.8096
 21
-1.3621
  0
LINE
  8
LAYER_1
 10
285.4704
 20
4.0667
 11
272.0461
 21
4.0667
  0
LINE
  8
LAYER_1
 10
224.27
 20
-5.8042
 11
222.2955
 21
-5.8042
  0
LINE
  8
LAYER_1
 10
222.2955
 20
-5.8042
 11
222.2955
 21
17.3928
  0
LINE
  8
LAYER_1
 10
222.2955
 20
17.3928
 11
235.7203
 21
17.3928
  0
LINE
  8
LAYER_1
 10
235.7203
 20
17.3928
 11
235.7203
 21
-5.8042
  0
LINE
  8
LAYER_1
 10
235.7203
 20
-5.8042
 11
233.7459
 21
-5.8042
  0
LINE
  8
LAYER_1
 10
225.7504
 20
-9.259
 11
232.2655
 21
-9.259
  0
LINE
  8
LAYER_1
 10
232.2655
 20
-9.259
 11
233.7459
 21
-5.8042
  0
LINE
  8
LAYER_1
 10
225.7504
 20
-9.259
 11
224.27
 21
-5.8042
  0
LINE
  8
LAYER_1
 10
233.323
 20
-6.7914
 11
224.6929
 21
-6.7914
  0
LINE
  8
LAYER_1
 10
235.424
 20
-5.8042
 11
235.424
 21
-4.8169
  0
LINE
  8
LAYER_1
 10
235.424
 20
-4.8169
 11
222.5919
 21
-4.8169
  0
LINE
  8
LAYER_1
 10
222.5919
 20
-4.8169
 11
222.5919
 21
-5.8042
  0
LINE
  8
LAYER_1
 10
227.5271
 20
-4.3238
 11
227.5271
 21
-4.8169
  0
LINE
  8
LAYER_1
 10
227.5271
 20
-4.8169
 11
230.4887
 21
-4.8169
  0
LINE
  8
LAYER_1
 10
230.4887
 20
-4.8169
 11
230.4887
 21
-4.3238
  0
LINE
  8
LAYER_1
 10
227.5271
 20
-2.8429
 11
227.5271
 21
-3.3365
  0
LINE
  8
LAYER_1
 10
227.5271
 20
-3.3365
 11
230.4887
 21
-3.3365
  0
LINE
  8
LAYER_1
 10
230.4887
 20
-3.3365
 11
230.4887
 21
-2.8429
  0
LINE
  8
LAYER_1
 10
227.5271
 20
-2.8429
 11
225.0595
 21
-2.8429
  0
LINE
  8
LAYER_1
 10
225.0595
 20
-2.8429
 11
222.6905
 21
-3.3365
  0
LINE
  8
LAYER_1
 10
222.6905
 20
-3.3365
 11
222.6905
 21
-4.8169
  0
LINE
  8
LAYER_1
 10
222.6905
 20
-4.8169
 11
225.0595
 21
-4.3238
  0
LINE
  8
LAYER_1
 10
225.0595
 20
-4.3238
 11
227.5271
 21
-4.3238
  0
LINE
  8
LAYER_1
 10
230.4887
 20
-2.8429
 11
232.9563
 21
-2.8429
  0
LINE
  8
LAYER_1
 10
232.9563
 20
-2.8429
 11
235.3253
 21
-3.3365
  0
LINE
  8
LAYER_1
 10
235.3253
 20
-3.3365
 11
235.3253
 21
-4.8169
  0
LINE
  8
LAYER_1
 10
235.3253
 20
-4.8169
 11
232.9563
 21
-4.3238
  0
LINE
  8
LAYER_1
 10
232.9563
 20
-4.3238
 11
230.4887
 21
-4.3238
  0
LINE
  8
LAYER_1
 10
225.0595
 20
-2.8429
 11
232.9563
 21
-2.8429
  0
LINE
  8
LAYER_1
 10
232.9563
 20
-2.8429
 11
232.9563
 21
-1.6585
  0
LINE
  8
LAYER_1
 10
232.9563
 20
-1.6585
 11
225.0595
 21
-1.6585
  0
LINE
  8
LAYER_1
 10
225.0595
 20
-1.6585
 11
225.0595
 21
-2.8429
  0
ARC
  8
LAYER_1
 10
232.6605
 20
-1.3619
 40
0.2961
 50
269.9758119
 51
359.9854879
  0
LINE
  8
LAYER_1
 10
225.3558
 20
-1.6585
 11
232.6604
 21
-1.6585
  0
ARC
  8
LAYER_1
 10
230.9823
 20
-0.3752
 40
1.9745
 50
0.008773047287
 51
89.9970311
  0
LINE
  8
LAYER_1
 10
232.9563
 20
-1.3621
 11
232.9563
 21
-0.3749
  0
ARC
  8
LAYER_1
 10
227.034
 20
-0.3748
 40
1.9743
 50
90.00318418
 51
180.00262
  0
LINE
  8
LAYER_1
 10
230.9823
 20
1.5991
 11
227.0339
 21
1.5991
  0
ARC
  8
LAYER_1
 10
225.3557
 20
-1.3623
 40
0.2958
 50
179.9559851
 51
270.0246549
  0
LINE
  8
LAYER_1
 10
225.0595
 20
-0.3749
 11
225.0595
 21
-1.3621
  0
LINE
  8
LAYER_1
 10
235.7203
 20
4.0667
 11
222.2955
 21
4.0667
  0
LINE
  8
LAYER_1
 10
220.0252
 20
8.5087
 11
220.0252
 21
14.6289
  0
LINE
  8
LAYER_1
 10
220.0252
 20
14.6289
 11
222.2955
 21
14.6289
  0
LINE
  8
LAYER_1
 10
220.0252
 20
8.5087
 11
222.2955
 21
8.5087
  0
LINE
  8
LAYER_1
 10
287.7408
 20
8.5087
 11
287.7408
 21
14.6289
  0
LINE
  8
LAYER_1
 10
287.7408
 20
14.6289
 11
285.4704
 21
14.6289
  0
LINE
  8
LAYER_1
 10
287.7408
 20
8.5087
 11
285.4704
 21
8.5087
  0
LINE
  8
LAYER_1
 10
216.8663
 20
-20.1175
 11
217.8535
 21
-20.1175
  0
LINE
  8
LAYER_1
 10
217.8535
 20
-20.1175
 11
217.8535
 21
8.5088
  0
LINE
  8
LAYER_1
 10
217.8535
 20
8.5088
 11
216.8663
 21
8.5088
  0
LINE
  8
LAYER_1
 10
216.8663
 20
8.5088
 11
216.8663
 21
-20.1175
  0
LINE
  8
LAYER_1
 10
289.9125
 20
-20.1175
 11
290.8997
 21
-20.1175
  0
LINE
  8
LAYER_1
 10
290.8997
 20
-20.1175
 11
290.8997
 21
8.5088
  0
LINE
  8
LAYER_1
 10
290.8997
 20
8.5088
 11
289.9125
 21
8.5088
  0
LINE
  8
LAYER_1
 10
289.9125
 20
8.5088
 11
289.9125
 21
-20.1175
  0
LINE
  8
LAYER_1
 10
290.8997
 20
-25.0527
 11
216.8663
 21
-25.0527
  0
LINE
  8
LAYER_1
 10
216.8663
 20
-36.898
 11
222.2955
 21
-36.898
  0
LINE
  8
LAYER_1
 10
222.2955
 20
-36.898
 11
222.2955
 21
-28.0143
  0
LINE
  8
LAYER_1
 10
222.2955
 20
-28.0143
 11
216.8663
 21
-28.0143
  0
LINE
  8
LAYER_1
 10
216.8663
 20
-28.0143
 11
216.8663
 21
-36.898
  0
LINE
  8
LAYER_1
 10
285.4704
 20
-36.898
 11
290.8997
 21
-36.898
  0
LINE
  8
LAYER_1
 10
290.8997
 20
-36.898
 11
290.8997
 21
-28.0143
  0
LINE
  8
LAYER_1
 10
290.8997
 20
-28.0143
 11
285.4704
 21
-28.0143
  0
LINE
  8
LAYER_1
 10
285.4704
 20
-28.0143
 11
285.4704
 21
-36.898
  0
LINE
  8
LAYER_1
 10
290.8997
 20
-27.0271
 11
216.8663
 21
-27.0271
  0
LINE
  8
LAYER_1
 10
285.4704
 20
-29.0011
 11
222.2955
 21
-29.0011
  0
LINE
  8
LAYER_1
 10
216.8663
 20
-29.0011
 11
216.8663
 21
-27.0271
  0
LINE
  8
LAYER_1
 10
216.8663
 20
-27.0271
 11
290.8997
 21
-27.0271
  0
LINE
  8
LAYER_1
 10
290.8997
 20
-27.0271
 11
290.8997
 21
-29.0011
  0
LINE
  8
LAYER_1
 10
238.1879
 20
-36.898
 11
244.703
 21
-36.898
  0
LINE
  8
LAYER_1
 10
244.703
 20
-36.898
 11
244.703
 21
-29.0011
  0
LINE
  8
LAYER_1
 10
244.703
 20
-29.0011
 11
238.1879
 21
-29.0011
  0
LINE
  8
LAYER_1
 10
238.1879
 20
-29.0011
 11
238.1879
 21
-36.898
  0
LINE
  8
LAYER_1
 10
269.5781
 20
-36.898
 11
263.0634
 21
-36.898
  0
LINE
  8
LAYER_1
 10
263.0634
 20
-34.924
 11
263.0634
 21
-29.0011
  0
LINE
  8
LAYER_1
 10
263.0634
 20
-29.0011
 11
269.5781
 21
-29.0011
  0
LINE
  8
LAYER_1
 10
269.5781
 20
-29.0011
 11
269.5781
 21
-34.924
  0
LINE
  8
LAYER_1
 10
222.2955
 20
-32.9496
 11
235.1281
 21
-32.9496
  0
LINE
  8
LAYER_1
 10
235.1281
 20
-32.9496
 11
235.1281
 21
-29.0011
  0
LINE
  8
LAYER_1
 10
235.1281
 20
-29.0011
 11
222.2955
 21
-29.0011
  0
LINE
  8
LAYER_1
 10
222.2955
 20
-29.0011
 11
222.2955
 21
-32.9496
  0
LINE
  8
LAYER_1
 10
272.6383
 20
-32.9496
 11
285.4704
 21
-32.9496
  0
LINE
  8
LAYER_1
 10
285.4704
 20
-32.9496
 11
285.4704
 21
-29.0011
  0
LINE
  8
LAYER_1
 10
285.4704
 20
-29.0011
 11
272.6383
 21
-29.0011
  0
LINE
  8
LAYER_1
 10
272.6383
 20
-29.0011
 11
272.6383
 21
-32.9496
  0
LINE
  8
LAYER_1
 10
247.3683
 20
-32.9496
 11
260.3981
 21
-32.9496
  0
LINE
  8
LAYER_1
 10
260.3981
 20
-32.9496
 11
260.3981
 21
-29.0011
  0
LINE
  8
LAYER_1
 10
260.3981
 20
-29.0011
 11
247.3683
 21
-29.0011
  0
LINE
  8
LAYER_1
 10
247.3683
 20
-29.0011
 11
247.3683
 21
-32.9496
  0
LINE
  8
LAYER_1
 10
263.0634
 20
-33.9368
 11
260.8917
 21
-33.9368
  0
LINE
  8
LAYER_1
 10
260.8917
 20
-33.9368
 11
260.8917
 21
-36.898
  0
LINE
  8
LAYER_1
 10
260.8917
 20
-36.898
 11
271.7498
 21
-36.898
  0
LINE
  8
LAYER_1
 10
271.7498
 20
-36.898
 11
271.7498
 21
-33.9368
  0
LINE
  8
LAYER_1
 10
271.7498
 20
-33.9368
 11
269.5781
 21
-33.9368
  0
LINE
  8
LAYER_1
 10
269.5781
 20
-33.9368
 11
269.5781
 21
-34.924
  0
LINE
  8
LAYER_1
 10
269.5781
 20
-34.924
 11
263.0634
 21
-34.924
  0
LINE
  8
LAYER_1
 10
263.0634
 20
-34.924
 11
263.0634
 21
-33.9368
  0
ARC
  8
LAYER_1
 10
272.7371
 20
-35.9109
 40
0.9871
 50
179.9927281
 51
269.9956629
  0
LINE
  8
LAYER_1
 10
271.7498
 20
-33.9368
 11
272.737
 21
-33.9368
  0
LINE
  8
LAYER_1
 10
272.737
 20
-33.9368
 11
272.737
 21
-36.898
  0
LINE
  8
LAYER_1
 10
271.7498
 20
-35.9112
 11
271.7498
 21
-33.9368
  0
ARC
  8
LAYER_1
 10
259.9046
 20
-35.9108
 40
0.9872
 50
269.996858
 51
359.9973385
  0
LINE
  8
LAYER_1
 10
260.8917
 20
-33.9368
 11
259.9045
 21
-33.9368
  0
LINE
  8
LAYER_1
 10
259.9045
 20
-33.9368
 11
259.9045
 21
-36.898
  0
LINE
  8
LAYER_1
 10
260.8917
 20
-35.9112
 11
260.8917
 21
-33.9368
  0
LINE
  8
LAYER_1
 10
259.9045
 20
-34.924
 11
260.8917
 21
-34.924
  0
LINE
  8
LAYER_1
 10
272.737
 20
-34.924
 11
271.7498
 21
-34.924
  0
LINE
  8
LAYER_1
 62
2
 10
216.8663
 20
123.5132
 11
290.8997
 21
123.5132
  0
LINE
  8
LAYER_1
 62
2
 10
290.8997
 20
123.5132
 11
290.8997
 21
142.4654
  0
LINE
  8
LAYER_1
 62
2
 10
290.8997
 20
142.4654
 11
216.8663
 21
142.4654
  0
LINE
  8
LAYER_1
 62
2
 10
216.8663
 20
142.4654
 11
216.8663
 21
123.5132
  0
LINE
  8
LAYER_1
 62
2
 10
216.8663
 20
39.8062
 11
290.8997
 21
39.8062
  0
LINE
  8
LAYER_1
 62
2
 10
290.8997
 20
39.8062
 11
290.8997
 21
58.7588
  0
LINE
  8
LAYER_1
 62
2
 10
290.8997
 20
58.7588
 11
216.8663
 21
58.7588
  0
LINE
  8
LAYER_1
 62
2
 10
216.8663
 20
58.7588
 11
216.8663
 21
39.8062
  0
LINE
  8
LAYER_1
 62
2
 10
269.2822
 20
-12.4179
 11
263.3593
 21
-12.4179
  0
LINE
  8
LAYER_1
 62
2
 10
244.4067
 20
-12.4179
 11
238.4842
 21
-12.4179
  0
LINE
  8
LAYER_1
 62
2
 10
219.3343
 20
-12.4179
 11
216.8663
 21
-12.4179
  0
LINE
  8
LAYER_1
 62
2
 10
216.8663
 20
-12.4179
 11
216.8663
 21
23.3157
  0
LINE
  8
LAYER_1
 62
2
 10
216.8663
 20
23.3157
 11
290.8997
 21
23.3157
  0
LINE
  8
LAYER_1
 62
2
 10
290.8997
 20
23.3157
 11
290.8997
 21
-12.4179
  0
LINE
  8
LAYER_1
 62
2
 10
290.8997
 20
-12.4179
 11
288.4321
 21
-12.4179
  0
ARC
  8
LAYER_1
 62
2
 10
284.4837
 20
5.3503
 40
3.9484
 50
0.0002481513924
 51
90.00120293
  0
LINE
  8
LAYER_1
 62
2
 10
273.2306
 20
9.2987
 11
284.4836
 21
9.2987
  0
LINE
  8
LAYER_1
 62
2
 10
288.4321
 20
5.3503
 11
288.4321
 21
-12.4179
  0
ARC
  8
LAYER_1
 62
2
 10
223.283
 20
5.3501
 40
3.9487
 50
90.0015573
 51
179.9969916
  0
LINE
  8
LAYER_1
 62
2
 10
219.3343
 20
-12.4179
 11
219.3343
 21
5.3503
  0
ARC
  8
LAYER_1
 62
2
 10
234.5359
 20
5.3502
 40
3.9485
 50
0.001182047066
 51
90.0017201
  0
LINE
  8
LAYER_1
 62
2
 10
223.2828
 20
9.2987
 11
234.5358
 21
9.2987
  0
LINE
  8
LAYER_1
 62
2
 10
238.4842
 20
5.3503
 11
238.4842
 21
-12.4179
  0
ARC
  8
LAYER_1
 62
2
 10
248.3555
 20
5.3504
 40
3.9484
 50
90.00030417
 51
180.0011469
  0
LINE
  8
LAYER_1
 62
2
 10
244.4067
 20
-12.4179
 11
244.4067
 21
5.3503
  0
ARC
  8
LAYER_1
 62
2
 10
259.4112
 20
5.3504
 40
3.9483
 50
359.9983553
 51
89.9987424
  0
LINE
  8
LAYER_1
 62
2
 10
248.3551
 20
9.2987
 11
259.4109
 21
9.2987
  0
LINE
  8
LAYER_1
 62
2
 10
263.3593
 20
5.3503
 11
263.3593
 21
-12.4179
  0
ARC
  8
LAYER_1
 62
2
 10
273.2306
 20
5.3503
 40
3.9484
 50
89.99960481
 51
180.0003952
  0
LINE
  8
LAYER_1
 62
2
 10
269.2822
 20
5.3503
 11
269.2822
 21
-12.4179
  0
LINE
  8
LAYER_1
 62
2
 10
319.9624
 20
39.8062
 11
314.0395
 21
39.8062
  0
LINE
  8
LAYER_1
 62
2
 10
314.0395
 20
39.8062
 11
314.0395
 21
58.7588
  0
LINE
  8
LAYER_1
 62
2
 10
314.0395
 20
58.7588
 11
319.9624
 21
58.7588
  0
LINE
  8
LAYER_1
 62
2
 10
319.9624
 20
58.7588
 11
319.9624
 21
44.7418
  0
LINE
  8
LAYER_1
 62
2
 10
314.0395
 20
44.7418
 11
314.0395
 21
39.8062
  0
LINE
  8
LAYER_1
 62
2
 10
314.0395
 20
39.8062
 11
349.5754
 21
39.8062
  0
LINE
  8
LAYER_1
 62
2
 10
349.5754
 20
39.8062
 11
349.5754
 21
44.7418
  0
LINE
  8
LAYER_1
 62
2
 10
349.5754
 20
44.7418
 11
319.9624
 21
44.7418
  0
LINE
  8
LAYER_1
 10
319.9624
 20
42.2738
 11
357.4722
 21
42.2738
  0
LINE
  8
LAYER_1
 10
357.4722
 20
42.2738
 11
357.4722
 21
44.7418
  0
LINE
  8
LAYER_1
 10
357.4722
 20
44.7418
 11
319.9624
 21
44.7418
  0
LINE
  8
LAYER_1
 10
319.9624
 20
44.7418
 11
319.9624
 21
42.2738
  0
LINE
  8
LAYER_1
 10
319.9624
 20
137.5301
 11
357.4722
 21
137.5301
  0
LINE
  8
LAYER_1
 10
357.4722
 20
137.5301
 11
357.4722
 21
139.9978
  0
LINE
  8
LAYER_1
 10
357.4722
 20
139.9978
 11
319.9624
 21
139.9978
  0
LINE
  8
LAYER_1
 10
319.9624
 20
139.9978
 11
319.9624
 21
137.5301
  0
LINE
  8
LAYER_1
 62
2
 10
319.9624
 20
142.4654
 11
314.0395
 21
142.4654
  0
LINE
  8
LAYER_1
 62
2
 10
314.0395
 20
142.4654
 11
314.0395
 21
123.5132
  0
LINE
  8
LAYER_1
 62
2
 10
314.0395
 20
123.5132
 11
319.9624
 21
123.5132
  0
LINE
  8
LAYER_1
 62
2
 10
319.9624
 20
123.5132
 11
319.9624
 21
137.5301
  0
LINE
  8
LAYER_1
 62
2
 10
314.0395
 20
137.5301
 11
314.0395
 21
142.4654
  0
LINE
  8
LAYER_1
 62
2
 10
314.0395
 20
142.4654
 11
349.5754
 21
142.4654
  0
LINE
  8
LAYER_1
 62
2
 10
349.5754
 20
142.4654
 11
349.5754
 21
137.5301
  0
LINE
  8
LAYER_1
 62
2
 10
349.5754
 20
137.5301
 11
319.9624
 21
137.5301
  0
LINE
  8
LAYER_1
 62
3
 10
216.2495
 20
142.4654
 11
191.3253
 21
142.4654
  0
LINE
  8
LAYER_1
 62
3
 10
216.2495
 20
39.8062
 11
191.3253
 21
39.8062
  0
LINE
  8
LAYER_1
 62
3
 10
192.5593
 20
139.9978
 11
192.5593
 21
42.2738
  0
LINE
  8
LAYER_1
 62
3
 10
192.1483
 20
139.9978
 11
192.5593
 21
142.4658
  0
LINE
  8
LAYER_1
 62
3
 10
192.5593
 20
142.4658
 11
192.9708
 21
139.9978
  0
LINE
  8
LAYER_1
 62
3
 10
192.1483
 20
42.2742
 11
192.5593
 21
39.8062
  0
LINE
  8
LAYER_1
 62
3
 10
192.5593
 20
39.8062
 11
192.9708
 21
42.2742
  0
TEXT
  8
LAYER_1
 10
191.9005
 20
88.1587
 11
191.9005
 21
88.1587
 40
3.6519
 41
0.5
 50
89.99999999
 62
3
  1
104
  0
LINE
  8
LAYER_1
 62
3
 10
216.8663
 20
39.1894
 11
216.8663
 21
31.6638
  0
LINE
  8
LAYER_1
 62
3
 10
290.8997
 20
39.1894
 11
290.8997
 21
31.6638
  0
LINE
  8
LAYER_1
 62
3
 10
219.3343
 20
32.8974
 11
288.4321
 21
32.8974
  0
LINE
  8
LAYER_1
 62
3
 10
219.3343
 20
33.3089
 11
216.8667
 21
32.8978
  0
LINE
  8
LAYER_1
 62
3
 10
216.8667
 20
32.8978
 11
219.3343
 21
32.4863
  0
LINE
  8
LAYER_1
 62
3
 10
288.4321
 20
33.3089
 11
290.9001
 21
32.8978
  0
LINE
  8
LAYER_1
 62
3
 10
290.9001
 20
32.8978
 11
288.4321
 21
32.4863
  0
TEXT
  8
LAYER_1
 10
251.9561
 20
33.5568
 11
251.9561
 21
33.5568
 40
3.6519
 41
0.5
 62
3
  1
75
  0
LINE
  8
LAYER_1
 62
3
 10
218.2239
 20
28.2509
 11
191.3253
 21
28.2509
  0
LINE
  8
LAYER_1
 62
3
 10
218.2239
 20
-36.898
 11
191.3253
 21
-36.898
  0
LINE
  8
LAYER_1
 62
3
 10
192.5593
 20
25.7833
 11
192.5593
 21
-34.4304
  0
LINE
  8
LAYER_1
 62
3
 10
192.1483
 20
25.7833
 11
192.5593
 21
28.2513
  0
LINE
  8
LAYER_1
 62
3
 10
192.5593
 20
28.2513
 11
192.9708
 21
25.7833
  0
LINE
  8
LAYER_1
 62
3
 10
192.1483
 20
-34.43
 11
192.5593
 21
-36.898
  0
LINE
  8
LAYER_1
 62
3
 10
192.5593
 20
-36.898
 11
192.9708
 21
-34.43
  0
TEXT
  8
LAYER_1
 10
191.9005
 20
-6.2251
 11
191.9005
 21
-6.2251
 40
3.6519
 41
0.5
 50
89.99999999
 62
3
  1
66
  0
TEXT
  8
LAYER_2
 10
334.7858
 20
17.3926
 11
334.7858
 21
17.3926
 40
4.2168
 41
0.5
 72
1
  1
黄色：端子カバー
  0
ENDSEC
  0
EOF
