  0
SECTION
  2
HEADER
  9
$ACADVER
  1
AC1009
  9
$LUNITS
 70
2
  9
$LUPREC
 70
4
  9
$LTSCALE
 40
1.0
  9
$EXTMIN
 10
124.874
 20
-66.6014
 30
0
  9
$EXTMAX
 10
469.2192
 20
169.592
 30
0
  0
ENDSEC
  0
SECTION
  2
TABLES
  0
TABLE
  2
LTYPE
 70
256
  0
ENDTAB
  0
TABLE
  2
LAYER
 70
4
  0
LAYER
  2
LAYER_1
 70
64
 62
7
  6
CONTINUOUS
  0
LAYER
  2
LAYER_2
 70
64
 62
7
  6
CONTINUOUS
  0
LAYER
  2
LAYER_3
 70
64
 62
7
  6
CONTINUOUS
  0
LAYER
  2
LAYER_4
 70
64
 62
7
  6
CONTINUOUS
  0
ENDTAB
  0
TABLE
  2
STYLE
 70
6
  0
STYLE
  2
STANDARD
 70
0
 40
0
 50
0
 71
0
 41
0
 42
0
  3
TXT
  4
BIGFONT
  0
ENDTAB
  0
ENDSEC
  0
SECTION
  2
BLOCKS
  0
BLOCK
  8
LAYER_1
  2
AIGNBL01030005
 70
64
 10
0
 20
0
 30
0
  3
AIGNBL01030005
  0
LINE
  8
LAYER_1
 10
351.6608
 20
-18.6827
 11
351.6608
 21
-24.6402
  0
LINE
  8
LAYER_1
 10
351.6608
 20
-24.6402
 11
352.6854
 21
-24.6402
  0
LINE
  8
LAYER_1
 10
352.6854
 20
-24.6402
 11
352.6854
 21
-24.1943
  0
LINE
  8
LAYER_1
 10
352.6854
 20
-24.1943
 11
355.3631
 21
-24.1943
  0
LINE
  8
LAYER_1
 10
355.3631
 20
-24.1943
 11
355.3631
 21
-24.6402
  0
LINE
  8
LAYER_1
 10
355.3631
 20
-24.6402
 11
356.4356
 21
-24.6402
  0
LINE
  8
LAYER_1
 10
356.4356
 20
-24.6402
 11
356.4356
 21
-18.6827
  0
LINE
  8
LAYER_1
 10
356.4356
 20
-18.6827
 11
351.6608
 21
-18.6827
  0
LINE
  8
LAYER_1
 10
355.3631
 20
-23.2015
 11
352.6854
 21
-23.2015
  0
LINE
  8
LAYER_1
 10
352.6854
 20
-23.2015
 11
352.6854
 21
-21.9114
  0
LINE
  8
LAYER_1
 10
352.6854
 20
-21.9114
 11
355.3631
 21
-21.9114
  0
LINE
  8
LAYER_1
 10
355.3631
 20
-21.9114
 11
355.3631
 21
-23.2015
  0
LINE
  8
LAYER_1
 10
355.3631
 20
-20.9388
 11
352.6854
 21
-20.9388
  0
LINE
  8
LAYER_1
 10
352.6854
 20
-20.9388
 11
352.6854
 21
-19.6756
  0
LINE
  8
LAYER_1
 10
352.6854
 20
-19.6756
 11
355.3631
 21
-19.6756
  0
LINE
  8
LAYER_1
 10
355.3631
 20
-19.6756
 11
355.3631
 21
-20.9388
  0
ENDBLK
  0
BLOCK
  8
LAYER_1
  2
AIGNBL01030006
 70
64
 10
0
 20
0
 30
0
  3
AIGNBL01030006
  0
LINE
  8
LAYER_1
 10
361.1949
 20
-20.6576
 11
363.0347
 21
-20.6576
  0
LINE
  8
LAYER_1
 10
363.0347
 20
-20.6576
 11
363.0347
 21
-19.7345
  0
LINE
  8
LAYER_1
 10
363.0347
 20
-19.7345
 11
360.6544
 21
-19.7345
  0
LINE
  8
LAYER_1
 10
360.6544
 20
-19.7345
 11
360.6544
 21
-18.5234
  0
LINE
  8
LAYER_1
 10
360.6544
 20
-18.5234
 11
359.708
 21
-18.5234
  0
LINE
  8
LAYER_1
 10
359.708
 20
-18.5234
 11
359.708
 21
-19.7345
  0
LINE
  8
LAYER_1
 10
359.708
 20
-19.7345
 11
357.3425
 21
-19.7345
  0
LINE
  8
LAYER_1
 10
357.3425
 20
-19.7345
 11
357.3425
 21
-20.6576
  0
LINE
  8
LAYER_1
 10
357.3425
 20
-20.6576
 11
359.1824
 21
-20.6576
  0
ARC
  8
LAYER_1
 10
352.8546
 20
-17.3096
 40
7.1589
 50
320.090402
 51
332.1165604
  0
ARC
  8
LAYER_1
 10
354.2211
 20
-18.4889
 40
5.3542
 50
306.7900371
 51
320.388939
  0
ARC
  8
LAYER_1
 10
355.363
 20
-19.9296
 40
3.517
 50
299.7830125
 51
305.949067
  0
ARC
  8
LAYER_1
 10
357.3634
 20
-22.9418
 40
0.2566
 50
189.0074096
 51
222.6984605
  0
ARC
  8
LAYER_1
 10
349.1372
 20
-31.2373
 40
11.4263
 50
41.87779049
 51
45.2975775
  0
ARC
  8
LAYER_1
 10
356.4824
 20
-24.3816
 40
1.3954
 50
27.02587099
 51
33.58032053
  0
ARC
  8
LAYER_1
 10
357.2054
 20
-22.7438
 40
1.1304
 50
297.3892127
 51
310.3878745
  0
ARC
  8
LAYER_1
 10
354.0201
 20
-18.4423
 40
6.4808
 50
307.1941606
 51
316.157217
  0
LINE
  8
LAYER_1
 10
358.6943
 20
-22.9314
 11
358.6943
 21
-23.6463
  0
LINE
  8
LAYER_1
 10
358.6943
 20
-23.6463
 11
359.708
 21
-23.6463
  0
LINE
  8
LAYER_1
 10
359.708
 20
-23.6463
 11
359.708
 21
-24.6876
  0
LINE
  8
LAYER_1
 10
359.708
 20
-24.6876
 11
360.6544
 21
-24.6876
  0
LINE
  8
LAYER_1
 10
360.6544
 20
-24.6876
 11
360.6544
 21
-23.6463
  0
LINE
  8
LAYER_1
 10
360.6544
 20
-23.6463
 11
361.6305
 21
-23.6463
  0
LINE
  8
LAYER_1
 10
361.6305
 20
-23.6463
 11
361.6305
 21
-22.8527
  0
ARC
  8
LAYER_1
 10
367.4883
 20
-17.4254
 40
7.9856
 50
222.815146
 51
229.3961219
  0
ARC
  8
LAYER_1
 10
363.3358
 20
-22.334
 40
1.5569
 50
227.8538365
 51
243.321749
  0
ARC
  8
LAYER_1
 10
365.3283
 20
-25.2866
 40
3.1117
 50
130.0133947
 51
149.8793337
  0
ARC
  8
LAYER_1
 10
366.7079
 20
-17.3889
 40
6.4681
 50
224.481624
 51
238.4919087
  0
ARC
  8
LAYER_1
 10
366.2472
 20
-18.041
 40
5.6842
 50
209.4847319
 51
223.0462119
  0
ARC
  8
LAYER_1
 10
368.6885
 20
-16.4658
 40
8.5864
 50
209.2217911
 51
210.6164294
  0
LINE
  8
LAYER_1
 10
359.708
 20
-22.7289
 11
358.8744
 21
-22.7289
  0
ARC
  8
LAYER_1
 10
349.8954
 20
-15.6235
 40
11.4502
 50
321.6442745
 51
327.3776932
  0
ARC
  8
LAYER_1
 10
358.7365
 20
-21.2021
 40
0.9988
 50
323.4874232
 51
346.5604038
  0
LINE
  8
LAYER_1
 10
359.708
 20
-21.4342
 11
359.708
 21
-22.7289
  0
LINE
  8
LAYER_1
 10
360.6544
 20
-22.7289
 11
360.6469
 21
-21.4287
  0
ARC
  8
LAYER_1
 10
362.6699
 20
-20.5916
 40
2.1894
 50
202.4797564
 51
213.37689
  0
ARC
  8
LAYER_1
 10
369.8576
 20
-15.9715
 40
10.7338
 50
212.8634514
 51
219.016696
  0
LINE
  8
LAYER_1
 10
361.5179
 20
-22.7289
 11
360.6544
 21
-22.7289
  0
ENDBLK
  0
BLOCK
  8
LAYER_1
  2
AIGNBL01030007
 70
64
 10
0
 20
0
 30
0
  3
AIGNBL01030007
  0
LINE
  8
LAYER_1
 10
364.3797
 20
-22.0502
 11
364.3797
 21
-24.7051
  0
LINE
  8
LAYER_1
 10
364.3797
 20
-24.7051
 11
365.2777
 21
-24.7051
  0
LINE
  8
LAYER_1
 10
365.2777
 20
-24.7051
 11
365.2777
 21
-24.5221
  0
LINE
  8
LAYER_1
 10
365.2777
 20
-24.5221
 11
368.0042
 21
-24.5221
  0
LINE
  8
LAYER_1
 10
368.0042
 20
-24.5221
 11
368.0042
 21
-24.653
  0
LINE
  8
LAYER_1
 10
368.0042
 20
-24.653
 11
368.9475
 21
-24.653
  0
LINE
  8
LAYER_1
 10
368.9475
 20
-24.653
 11
368.9475
 21
-22.0502
  0
LINE
  8
LAYER_1
 10
368.9475
 20
-22.0502
 11
364.3797
 21
-22.0502
  0
LINE
  8
LAYER_1
 10
365.2777
 20
-22.5871
 11
366.1759
 21
-22.5871
  0
LINE
  8
LAYER_1
 10
366.1759
 20
-22.5871
 11
366.1759
 21
-23.0127
  0
LINE
  8
LAYER_1
 10
366.1759
 20
-23.0127
 11
365.2777
 21
-23.0127
  0
LINE
  8
LAYER_1
 10
365.2777
 20
-23.0127
 11
365.2777
 21
-22.5871
  0
LINE
  8
LAYER_1
 10
366.1822
 20
-23.9775
 11
365.2712
 21
-23.9775
  0
LINE
  8
LAYER_1
 10
365.2712
 20
-23.9775
 11
365.2712
 21
-23.5714
  0
LINE
  8
LAYER_1
 10
365.2712
 20
-23.5714
 11
366.1822
 21
-23.5714
  0
LINE
  8
LAYER_1
 10
366.1822
 20
-23.5714
 11
366.1822
 21
-23.9775
  0
LINE
  8
LAYER_1
 10
368.0042
 20
-23.9775
 11
367.0933
 21
-23.9775
  0
LINE
  8
LAYER_1
 10
367.0933
 20
-23.9775
 11
367.0933
 21
-23.5714
  0
LINE
  8
LAYER_1
 10
367.0933
 20
-23.5714
 11
368.0042
 21
-23.5714
  0
LINE
  8
LAYER_1
 10
368.0042
 20
-23.5714
 11
368.0042
 21
-23.9775
  0
LINE
  8
LAYER_1
 10
368.0042
 20
-22.9955
 11
367.0933
 21
-22.9955
  0
LINE
  8
LAYER_1
 10
367.0933
 20
-22.9955
 11
367.0933
 21
-22.5895
  0
LINE
  8
LAYER_1
 10
367.0933
 20
-22.5895
 11
368.0042
 21
-22.5895
  0
LINE
  8
LAYER_1
 10
368.0042
 20
-22.5895
 11
368.0042
 21
-22.9955
  0
ENDBLK
  0
BLOCK
  8
LAYER_1
  2
AIGNBL01030008
 70
64
 10
0
 20
0
 30
0
  3
AIGNBL01030008
  0
LINE
  8
LAYER_1
 10
372.772
 20
-19.4737
 11
372.772
 21
-18.6171
  0
LINE
  8
LAYER_1
 10
372.772
 20
-18.6171
 11
370.123
 21
-18.6171
  0
LINE
  8
LAYER_1
 10
370.123
 20
-18.6171
 11
370.123
 21
-19.4737
  0
LINE
  8
LAYER_1
 10
370.123
 20
-19.4737
 11
370.8144
 21
-19.4737
  0
ARC
  8
LAYER_1
 10
356.4936
 20
-17.2671
 40
14.4898
 50
345.1345212
 51
351.2405475
  0
ARC
  8
LAYER_1
 10
366.8274
 20
-20.0374
 40
3.7912
 50
328.8660584
 51
345.5344938
  0
ARC
  8
LAYER_1
 10
368.4286
 20
-20.8831
 40
1.9862
 50
321.4032115
 51
325.8630795
  0
ARC
  8
LAYER_1
 10
368.3738
 20
-23.5064
 40
2.1211
 50
13.85472312
 51
40.74075759
  0
LINE
  8
LAYER_1
 10
370.4332
 20
-22.9985
 11
370.5883
 21
-22.7958
  0
LINE
  8
LAYER_1
 10
370.5883
 20
-22.7958
 11
370.5883
 21
-24.2866
  0
LINE
  8
LAYER_1
 10
370.5883
 20
-24.2866
 11
371.3958
 21
-24.2866
  0
LINE
  8
LAYER_1
 10
371.3958
 20
-24.2866
 11
371.3958
 21
-23.8159
  0
LINE
  8
LAYER_1
 10
371.3958
 20
-23.8159
 11
372.6301
 21
-23.8159
  0
LINE
  8
LAYER_1
 10
372.6301
 20
-23.8159
 11
372.6301
 21
-20.6966
  0
LINE
  8
LAYER_1
 10
372.6301
 20
-20.6966
 11
371.4669
 21
-20.6966
  0
ARC
  8
LAYER_1
 10
363.6989
 20
-18.5004
 40
8.0725
 50
344.2131719
 51
353.0750751
  0
LINE
  8
LAYER_1
 10
371.7125
 20
-19.4737
 11
372.772
 21
-19.4737
  0
LINE
  8
LAYER_1
 10
371.803
 20
-22.9919
 11
371.3958
 21
-22.9919
  0
LINE
  8
LAYER_1
 10
371.3958
 20
-22.9919
 11
371.3958
 21
-21.5204
  0
LINE
  8
LAYER_1
 10
371.3958
 20
-21.5204
 11
371.803
 21
-21.5204
  0
LINE
  8
LAYER_1
 10
371.803
 20
-21.5204
 11
371.803
 21
-22.9919
  0
ENDBLK
  0
BLOCK
  8
LAYER_1
  2
AIGNBL01030009
 70
64
 10
0
 20
0
 30
0
  3
AIGNBL01030009
  0
LINE
  8
LAYER_1
 10
375.5843
 20
-21.0627
 11
375.5843
 21
-19.4932
  0
LINE
  8
LAYER_1
 10
375.5843
 20
-19.4932
 11
376.0884
 21
-19.4932
  0
LINE
  8
LAYER_1
 10
376.0884
 20
-19.4932
 11
376.0884
 21
-18.6171
  0
LINE
  8
LAYER_1
 10
376.0884
 20
-18.6171
 11
372.89
 21
-18.6171
  0
LINE
  8
LAYER_1
 10
372.89
 20
-18.6171
 11
372.89
 21
-19.4932
  0
LINE
  8
LAYER_1
 10
372.89
 20
-19.4932
 11
373.323
 21
-19.4932
  0
LINE
  8
LAYER_1
 10
373.323
 20
-19.4932
 11
373.323
 21
-21.0627
  0
LINE
  8
LAYER_1
 10
373.323
 20
-21.0627
 11
372.7285
 21
-21.0627
  0
LINE
  8
LAYER_1
 10
372.7285
 20
-21.0627
 11
372.7285
 21
-21.9587
  0
LINE
  8
LAYER_1
 10
372.7285
 20
-21.9587
 11
373.2971
 21
-21.9587
  0
ARC
  8
LAYER_1
 10
370.5179
 20
-21.9112
 40
2.7796
 50
338.6726626
 51
359.0209934
  0
ARC
  8
LAYER_1
 10
370.2413
 20
-21.8534
 40
3.0587
 50
321.0652746
 51
339.5482703
  0
ARC
  8
LAYER_1
 10
370.471
 20
-22.0198
 40
2.7755
 50
312.3585029
 51
320.7571916
  0
ARC
  8
LAYER_1
 10
369.9128
 20
-28.2294
 40
4.8157
 50
49.01744843
 51
59.72034273
  0
ARC
  8
LAYER_1
 10
371.6288
 20
-22.7923
 40
2.3079
 50
308.6770083
 51
331.7345889
  0
ARC
  8
LAYER_1
 10
370.3348
 20
-22.0397
 40
3.8043
 50
330.9809007
 51
347.5160211
  0
ARC
  8
LAYER_1
 10
369.047
 20
-21.6624
 40
5.144
 50
346.5132457
 51
356.6977471
  0
LINE
  8
LAYER_1
 10
374.1825
 20
-21.9587
 11
374.6928
 21
-21.9587
  0
LINE
  8
LAYER_1
 10
374.6928
 20
-21.9587
 11
374.6928
 21
-24.5744
  0
LINE
  8
LAYER_1
 10
374.6928
 20
-24.5744
 11
375.5843
 21
-24.5744
  0
LINE
  8
LAYER_1
 10
375.5843
 20
-24.5744
 11
375.5843
 21
-21.9587
  0
LINE
  8
LAYER_1
 10
375.5843
 20
-21.9587
 11
376.1659
 21
-21.9587
  0
LINE
  8
LAYER_1
 10
376.1659
 20
-21.9587
 11
376.1659
 21
-21.0627
  0
LINE
  8
LAYER_1
 10
376.1659
 20
-21.0627
 11
375.5843
 21
-21.0627
  0
LINE
  8
LAYER_1
 10
374.6928
 20
-21.0627
 11
374.2017
 21
-21.0627
  0
LINE
  8
LAYER_1
 10
374.2017
 20
-21.0627
 11
374.2017
 21
-19.4932
  0
LINE
  8
LAYER_1
 10
374.2017
 20
-19.4932
 11
374.6928
 21
-19.4932
  0
LINE
  8
LAYER_1
 10
374.6928
 20
-19.4932
 11
374.6928
 21
-21.0627
  0
ENDBLK
  0
BLOCK
  8
LAYER_1
  2
AIGNBL0103000A
 70
64
 10
0
 20
0
 30
0
  3
AIGNBL0103000A
  0
ARC
  8
LAYER_1
 10
348.7749
 20
-19.7029
 40
1.9538
 50
288.5728851
 51
313.5589395
  0
ARC
  8
LAYER_1
 10
349.2926
 20
-20.3423
 40
1.1356
 50
316.8584967
 51
347.2193472
  0
ARC
  8
LAYER_1
 10
348.4589
 20
-20.1395
 40
1.9937
 50
346.8369842
 51
1.013916361
  0
ARC
  8
LAYER_1
 10
349.1937
 20
-20.1074
 40
1.2585
 50
0.1442876533
 51
45.47147913
  0
ARC
  8
LAYER_1
 10
348.6643
 20
-20.6066
 40
1.9859
 50
44.68437791
 51
67.71710381
  0
ARC
  8
LAYER_1
 10
348.4024
 20
-21.0891
 40
2.5323
 50
66.37394432
 51
86.05236678
  0
ARC
  8
LAYER_1
 10
348.5066
 20
-20.2975
 40
1.7361
 50
87.68383207
 51
89.78881595
  0
LINE
  8
LAYER_1
 10
348.513
 20
-18.5614
 11
345.5421
 21
-18.5614
  0
LINE
  8
LAYER_1
 10
345.5421
 20
-18.5614
 11
345.5421
 21
-21.8229
  0
LINE
  8
LAYER_1
 10
345.5421
 20
-21.8229
 11
347.3051
 21
-21.8229
  0
ARC
  8
LAYER_1
 10
347.331
 20
-23.4609
 40
1.6382
 50
64.35518167
 51
90.905835
  0
ARC
  8
LAYER_1
 10
347.5318
 20
-22.9615
 40
1.1016
 50
16.86565433
 51
62.52763861
  0
ARC
  8
LAYER_1
 10
347.7116
 20
-22.8924
 40
0.9097
 50
0.3657920727
 51
15.98793587
  0
LINE
  8
LAYER_1
 10
348.6212
 20
-22.8866
 11
348.6212
 21
-24.6193
  0
LINE
  8
LAYER_1
 10
348.6212
 20
-24.6193
 11
350.1657
 21
-24.6193
  0
LINE
  8
LAYER_1
 10
350.1657
 20
-24.6193
 11
350.1657
 21
-22.7905
  0
ARC
  8
LAYER_1
 10
348.1169
 20
-22.7474
 40
2.0493
 50
358.7953186
 51
12.5237444
  0
ARC
  8
LAYER_1
 10
349.1685
 20
-22.5087
 40
0.971
 50
12.22629885
 51
45.01434
  0
ARC
  8
LAYER_1
 10
348.9903
 20
-22.7785
 40
1.2894
 50
47.89284515
 51
71.60372221
  0
LINE
  8
LAYER_1
 10
348.3227
 20
-20.7712
 11
347.0847
 21
-20.7712
  0
LINE
  8
LAYER_1
 10
347.0847
 20
-20.7712
 11
347.0847
 21
-19.6173
  0
LINE
  8
LAYER_1
 10
347.0847
 20
-19.6173
 11
347.1208
 21
-19.6173
  0
LINE
  8
LAYER_1
 10
347.1208
 20
-19.6173
 11
348.3548
 21
-19.6173
  0
ARC
  8
LAYER_1
 10
348.314
 20
-20.2805
 40
0.6645
 50
46.60498432
 51
86.47787041
  0
ARC
  8
LAYER_1
 10
348.38
 20
-20.1655
 40
0.5365
 50
356.9384635
 51
43.29207093
  0
ARC
  8
LAYER_1
 10
348.3704
 20
-20.1929
 40
0.5453
 50
290.0148134
 51
359.8586292
  0
ARC
  8
LAYER_1
 10
348.194
 20
-19.8655
 40
0.9148
 50
278.085377
 51
293.3808036
  0
ENDBLK
  0
BLOCK
  8
LAYER_1
  2
AIGNBL0103000C
 70
64
 10
0
 20
0
 30
0
  3
AIGNBL0103000C
  0
LINE
  8
LAYER_1
 10
411.366
 20
-23.6956
 11
411.366
 21
-20.7218
  0
LINE
  8
LAYER_1
 10
411.366
 20
-20.7218
 11
411.6772
 21
-20.7218
  0
LINE
  8
LAYER_1
 10
411.6772
 20
-20.7218
 11
411.6772
 21
-24.2151
  0
LINE
  8
LAYER_1
 10
411.6772
 20
-24.2151
 11
411.3439
 21
-24.2151
  0
LINE
  8
LAYER_1
 10
411.3439
 20
-24.2151
 11
409.3673
 21
-21.098
  0
LINE
  8
LAYER_1
 10
409.3673
 20
-21.098
 11
409.3673
 21
-24.2151
  0
LINE
  8
LAYER_1
 10
409.3673
 20
-24.2151
 11
409.0564
 21
-24.2151
  0
LINE
  8
LAYER_1
 10
409.0564
 20
-24.2151
 11
409.0564
 21
-20.7218
  0
LINE
  8
LAYER_1
 10
409.0564
 20
-20.7218
 11
409.456
 21
-20.7218
  0
LINE
  8
LAYER_1
 10
409.456
 20
-20.7218
 11
411.366
 21
-23.6956
  0
ENDBLK
  0
BLOCK
  8
LAYER_1
  2
AIGNBL0103000D
 70
64
 10
0
 20
0
 30
0
  3
AIGNBL0103000D
  0
LINE
  8
LAYER_1
 10
412.7209
 20
-21.098
 11
412.3659
 21
-21.098
  0
LINE
  8
LAYER_1
 10
412.3659
 20
-21.098
 11
412.3659
 21
-20.7218
  0
LINE
  8
LAYER_1
 10
412.3659
 20
-20.7218
 11
412.7209
 21
-20.7218
  0
LINE
  8
LAYER_1
 10
412.7209
 20
-20.7218
 11
412.7209
 21
-21.098
  0
LINE
  8
LAYER_1
 10
412.6988
 20
-24.2151
 11
412.388
 21
-24.2151
  0
LINE
  8
LAYER_1
 10
412.388
 20
-24.2151
 11
412.388
 21
-21.7608
  0
LINE
  8
LAYER_1
 10
412.388
 20
-21.7608
 11
412.6988
 21
-21.7608
  0
LINE
  8
LAYER_1
 10
412.6988
 20
-21.7608
 11
412.6988
 21
-24.2151
  0
ENDBLK
  0
BLOCK
  8
LAYER_1
  2
AIGNBL0103000E
 70
64
 10
0
 20
0
 30
0
  3
AIGNBL0103000E
  0
LINE
  8
LAYER_1
 10
413.7204
 20
-24.2151
 11
413.4096
 21
-24.2151
  0
LINE
  8
LAYER_1
 10
413.4096
 20
-24.2151
 11
413.4096
 21
-20.7218
  0
LINE
  8
LAYER_1
 10
413.4096
 20
-20.7218
 11
413.7204
 21
-20.7218
  0
LINE
  8
LAYER_1
 10
413.7204
 20
-20.7218
 11
413.7204
 21
-22.2624
  0
ARC
  8
LAYER_1
 10
414.7395
 20
-22.8859
 40
1.1947
 50
129.0328281
 51
148.5393959
  0
ARC
  8
LAYER_1
 10
414.5469
 20
-22.6605
 40
0.8984
 50
91.65545561
 51
128.5456181
  0
ARC
  8
LAYER_1
 10
414.5839
 20
-22.9003
 40
1.1395
 50
89.86214322
 51
93.164862
  0
ARC
  8
LAYER_1
 10
414.6221
 20
-22.675
 40
0.9149
 50
55.39065972
 51
92.22294394
  0
ARC
  8
LAYER_1
 10
414.6882
 20
-22.4534
 40
0.6986
 50
7.409476354
 51
49.52322454
  0
ARC
  8
LAYER_1
 10
413.776
 20
-22.6611
 40
1.6323
 50
359.5288627
 51
10.51174506
  0
LINE
  8
LAYER_1
 10
415.4083
 20
-22.6745
 11
415.4083
 21
-24.2151
  0
LINE
  8
LAYER_1
 10
415.4083
 20
-24.2151
 11
415.0975
 21
-24.2151
  0
LINE
  8
LAYER_1
 10
415.0975
 20
-24.2151
 11
415.0975
 21
-22.7103
  0
ARC
  8
LAYER_1
 10
413.9635
 20
-22.6704
 40
1.1347
 50
357.9845323
 51
16.98964915
  0
ARC
  8
LAYER_1
 10
414.6322
 20
-22.463
 40
0.4346
 50
16.60102285
 51
48.60202645
  0
ARC
  8
LAYER_1
 10
414.549
 20
-22.6185
 40
0.6076
 50
52.41715378
 51
92.73769061
  0
ARC
  8
LAYER_1
 10
414.5204
 20
-22.7054
 40
0.6938
 50
90.03643265
 51
129.8551954
  0
ARC
  8
LAYER_1
 10
414.6534
 20
-22.9106
 40
0.937
 50
128.0571843
 51
164.2178595
  0
ARC
  8
LAYER_1
 10
414.7081
 20
-22.9026
 40
0.9877
 50
165.5281968
 51
180.2730563
  0
LINE
  8
LAYER_1
 10
413.7204
 20
-22.9073
 11
413.7204
 21
-24.2151
  0
ENDBLK
  0
BLOCK
  8
LAYER_1
  2
AIGNBL0103000F
 70
64
 10
0
 20
0
 30
0
  3
AIGNBL0103000F
  0
ARC
  8
LAYER_1
 10
417.2331
 20
-22.9466
 40
1.1858
 50
50.66048807
 51
90.17320777
  0
ARC
  8
LAYER_1
 10
417.3775
 20
-22.7714
 40
0.9588
 50
14.7589366
 51
50.69787554
  0
ARC
  8
LAYER_1
 10
416.7651
 20
-22.9532
 40
1.5974
 50
359.0746232
 51
15.46762674
  0
ARC
  8
LAYER_1
 10
416.8737
 20
-23.0171
 40
1.4891
 50
332.9296754
 51
1.46551095
  0
ARC
  8
LAYER_1
 10
417.4165
 20
-23.2436
 40
0.9038
 50
308.9611357
 51
330.0560601
  0
ARC
  8
LAYER_1
 10
417.2305
 20
-23.0221
 40
1.193
 50
269.9511589
 51
309.2151452
  0
ARC
  8
LAYER_1
 10
417.2257
 20
-23.0308
 40
1.1844
 50
230.6348894
 51
270.1844284
  0
ARC
  8
LAYER_1
 10
417.075
 20
-23.212
 40
0.9487
 50
194.5571008
 51
230.7288295
  0
ARC
  8
LAYER_1
 10
417.7573
 20
-23.008
 40
1.6605
 50
179.000404
 51
195.4530529
  0
ARC
  8
LAYER_1
 10
417.5313
 20
-22.943
 40
1.4347
 50
152.4410049
 51
181.436924
  0
ARC
  8
LAYER_1
 10
417.0478
 20
-22.741
 40
0.9137
 50
128.860566
 51
149.6458489
  0
ARC
  8
LAYER_1
 10
417.2285
 20
-22.9531
 40
1.1923
 50
89.95302455
 51
129.2276577
  0
ARC
  8
LAYER_1
 10
417.1995
 20
-22.7827
 40
0.7488
 50
129.9530716
 51
170.501807
  0
ARC
  8
LAYER_1
 10
417.9512
 20
-22.9656
 40
1.5214
 50
168.3798418
 51
180.5055652
  0
ARC
  8
LAYER_1
 10
417.6416
 20
-23.0239
 40
1.2125
 50
177.8795135
 51
209.7652959
  0
ARC
  8
LAYER_1
 10
417.1241
 20
-23.2653
 40
0.6452
 50
213.9717645
 51
231.0723404
  0
ARC
  8
LAYER_1
 10
417.2224
 20
-23.1491
 40
0.7974
 50
230.8249409
 51
270.5110491
  0
ARC
  8
LAYER_1
 10
417.2351
 20
-23.1447
 40
0.8017
 50
269.6008139
 51
309.0631962
  0
ARC
  8
LAYER_1
 10
417.261
 20
-23.1969
 40
0.7449
 50
310.0444612
 51
350.8169273
  0
ARC
  8
LAYER_1
 10
416.4377
 20
-22.995
 40
1.5914
 50
348.3690332
 51
0.5754868321
  0
ARC
  8
LAYER_1
 10
416.8676
 20
-22.9372
 40
1.1621
 50
357.9389673
 51
30.40330024
  0
ARC
  8
LAYER_1
 10
417.3249
 20
-22.7224
 40
0.6606
 50
34.40761089
 51
51.03835046
  0
ARC
  8
LAYER_1
 10
417.2352
 20
-22.8308
 40
0.8013
 50
50.92748548
 51
90.40850442
  0
ARC
  8
LAYER_1
 10
417.2243
 20
-22.8324
 40
0.8029
 50
89.63079039
 51
129.0332197
  0
ENDBLK
  0
BLOCK
  8
LAYER_1
  2
AIGNBL01030010
 70
64
 10
0
 20
0
 30
0
  3
AIGNBL01030010
  0
ARC
  8
LAYER_1
 10
420.3605
 20
-22.4371
 40
0.6524
 50
6.056198854
 51
49.63190274
  0
ARC
  8
LAYER_1
 10
419.5865
 20
-22.5971
 40
1.4411
 50
359.7752786
 51
9.138499501
  0
LINE
  8
LAYER_1
 10
421.0276
 20
-22.6028
 11
421.0276
 21
-24.2151
  0
LINE
  8
LAYER_1
 10
421.0276
 20
-24.2151
 11
420.7168
 21
-24.2151
  0
LINE
  8
LAYER_1
 10
420.7168
 20
-24.2151
 11
420.7168
 21
-22.6386
  0
ARC
  8
LAYER_1
 10
419.8571
 20
-22.6095
 40
0.8602
 50
358.0627892
 51
19.48702453
  0
ARC
  8
LAYER_1
 10
420.2604
 20
-22.4685
 40
0.4329
 50
19.69341995
 51
49.96487887
  0
ARC
  8
LAYER_1
 10
420.2051
 20
-22.5927
 40
0.5649
 50
53.77483402
 51
94.43462921
  0
ARC
  8
LAYER_1
 10
420.1618
 20
-22.7226
 40
0.6931
 50
90.03352854
 51
129.8891711
  0
ARC
  8
LAYER_1
 10
420.4192
 20
-23.0523
 40
1.1112
 50
129.1703986
 51
162.076029
  0
LINE
  8
LAYER_1
 10
419.3619
 20
-22.7103
 11
419.3619
 21
-24.2151
  0
LINE
  8
LAYER_1
 10
419.3619
 20
-24.2151
 11
419.051
 21
-24.2151
  0
LINE
  8
LAYER_1
 10
419.051
 20
-24.2151
 11
419.051
 21
-21.7608
  0
LINE
  8
LAYER_1
 10
419.051
 20
-21.7608
 11
419.3619
 21
-21.7608
  0
LINE
  8
LAYER_1
 10
419.3619
 20
-21.7608
 11
419.3619
 21
-22.2624
  0
ARC
  8
LAYER_1
 10
420.2796
 20
-22.8511
 40
1.0903
 50
128.1496285
 51
147.3199772
  0
ARC
  8
LAYER_1
 10
420.2545
 20
-22.7723
 40
1.0132
 50
94.71600563
 51
129.7843011
  0
ARC
  8
LAYER_1
 10
420.2274
 20
-22.6792
 40
0.9184
 50
89.95857338
 51
93.51287669
  0
ARC
  8
LAYER_1
 10
420.2474
 20
-22.6521
 40
0.8916
 50
53.90672978
 51
91.24072559
  0
ARC
  8
LAYER_1
 10
420.2986
 20
-22.5423
 40
0.773
 50
51.182327
 51
52.17256148
  0
ENDBLK
  0
BLOCK
  8
LAYER_1
  2
AIGNBL01030011
 70
64
 10
0
 20
0
 30
0
  3
AIGNBL01030011
  0
LINE
  8
LAYER_1
 10
424.5142
 20
-24.2151
 11
424.1367
 21
-24.2151
  0
LINE
  8
LAYER_1
 10
424.1367
 20
-24.2151
 11
422.9818
 21
-22.6028
  0
LINE
  8
LAYER_1
 10
422.9818
 20
-22.6028
 11
422.0268
 21
-22.6028
  0
LINE
  8
LAYER_1
 10
422.0268
 20
-22.6028
 11
422.0268
 21
-24.2151
  0
LINE
  8
LAYER_1
 10
422.0268
 20
-24.2151
 11
421.716
 21
-24.2151
  0
LINE
  8
LAYER_1
 10
421.716
 20
-24.2151
 11
421.716
 21
-20.7218
  0
LINE
  8
LAYER_1
 10
421.716
 20
-20.7218
 11
423.1151
 21
-20.7218
  0
ARC
  8
LAYER_1
 10
423.1637
 20
-22.4333
 40
1.7122
 50
64.78634393
 51
91.62619302
  0
ARC
  8
LAYER_1
 10
423.4676
 20
-21.6653
 40
0.8895
 50
51.15329891
 51
61.42266901
  0
ARC
  8
LAYER_1
 10
423.4993
 20
-21.6247
 40
0.8379
 50
358.0408562
 51
51.09666914
  0
ARC
  8
LAYER_1
 10
423.4544
 20
-21.6702
 40
0.8825
 50
324.0471581
 51
1.094656138
  0
ARC
  8
LAYER_1
 10
423.4853
 20
-21.6602
 40
0.8637
 50
308.7150246
 51
322.3076092
  0
ARC
  8
LAYER_1
 10
423.4079
 20
-21.5433
 40
1.0034
 50
290.1225305
 51
307.9861977
  0
ARC
  8
LAYER_1
 10
423.1373
 20
-20.7879
 40
1.8057
 50
275.6510591
 51
289.9407673
  0
LINE
  8
LAYER_1
 10
423.3151
 20
-22.5849
 11
424.5142
 21
-24.2151
  0
LINE
  8
LAYER_1
 10
422.0268
 20
-20.9905
 11
422.0268
 21
-22.3341
  0
LINE
  8
LAYER_1
 10
422.0268
 20
-22.3341
 11
423.0263
 21
-22.3341
  0
ARC
  8
LAYER_1
 10
423.0617
 20
-20.6258
 40
1.7086
 50
268.8133874
 51
283.8344155
  0
ARC
  8
LAYER_1
 10
423.2754
 20
-21.4742
 40
0.8338
 50
283.5109031
 51
307.3499878
  0
ARC
  8
LAYER_1
 10
423.4085
 20
-21.673
 40
0.5952
 50
308.7770129
 51
1.89675522
  0
ARC
  8
LAYER_1
 10
423.3916
 20
-21.6414
 40
0.6119
 50
358.8818024
 51
50.44442945
  0
ARC
  8
LAYER_1
 10
423.332
 20
-21.7489
 40
0.7331
 50
52.20637191
 51
73.15795036
  0
ARC
  8
LAYER_1
 10
423.1501
 20
-22.3779
 40
1.3879
 50
73.49402473
 51
91.4460571
  0
LINE
  8
LAYER_1
 10
423.1151
 20
-20.9905
 11
422.0268
 21
-20.9905
  0
ENDBLK
  0
BLOCK
  8
LAYER_1
  2
AIGNBL01030012
 70
64
 10
0
 20
0
 30
0
  3
AIGNBL01030012
  0
ARC
  8
LAYER_1
 10
426.3544
 20
-22.4649
 40
0.6477
 50
358.8953531
 51
51.5122055
  0
LINE
  8
LAYER_1
 10
427.002
 20
-22.4774
 11
427.002
 21
-23.6956
  0
ARC
  8
LAYER_1
 10
428.0405
 20
-23.706
 40
1.0385
 50
179.4270287
 51
209.3553955
  0
LINE
  8
LAYER_1
 10
427.1353
 20
-24.2151
 11
426.802
 21
-24.2151
  0
ARC
  8
LAYER_1
 10
427.4025
 20
-23.8331
 40
0.7117
 50
181.906482
 51
212.4607174
  0
ARC
  8
LAYER_1
 10
426.0341
 20
-23.2918
 40
0.8666
 50
307.189829
 51
319.3119411
  0
ARC
  8
LAYER_1
 10
425.9022
 20
-23.1609
 40
1.0509
 50
274.3504506
 51
308.6050919
  0
ARC
  8
LAYER_1
 10
425.8536
 20
-22.9014
 40
1.3137
 50
269.7153606
 51
275.6028137
  0
ARC
  8
LAYER_1
 10
425.8232
 20
-23.2007
 40
1.0147
 50
236.2903294
 51
271.3514804
  0
ARC
  8
LAYER_1
 10
425.7439
 20
-23.3751
 40
0.8262
 50
231.0915336
 51
234.1508653
  0
ARC
  8
LAYER_1
 10
425.5578
 20
-23.6022
 40
0.5326
 50
178.485831
 51
231.3244897
  0
ARC
  8
LAYER_1
 10
425.561
 20
-23.5924
 40
0.5357
 50
125.8271978
 51
179.5390433
  0
ARC
  8
LAYER_1
 10
426.0447
 20
-24.224
 40
1.331
 50
111.971935
 51
126.7930694
  0
ARC
  8
LAYER_1
 10
426.9585
 20
-26.4034
 40
3.6942
 50
106.0718026
 51
112.4683706
  0
ARC
  8
LAYER_1
 10
424.9024
 20
-18.9911
 40
3.9984
 50
284.9781471
 51
296.5755079
  0
ARC
  8
LAYER_1
 10
426.1561
 20
-22.5338
 40
0.5361
 50
356.4479126
 51
44.97164605
  0
ARC
  8
LAYER_1
 10
426.1181
 20
-22.6883
 40
0.6773
 50
51.96445878
 51
92.27588681
  0
ARC
  8
LAYER_1
 10
426.0817
 20
-22.6765
 40
0.665
 50
89.17736178
 51
128.3348858
  0
ARC
  8
LAYER_1
 10
426.0377
 20
-22.5949
 40
0.5739
 50
129.9435942
 51
171.8142261
  0
LINE
  8
LAYER_1
 10
425.4696
 20
-22.5132
 11
425.1142
 21
-22.5132
  0
ARC
  8
LAYER_1
 10
425.9463
 20
-22.6346
 40
0.841
 50
126.4172967
 51
171.6976854
  0
ARC
  8
LAYER_1
 10
426.0126
 20
-22.6854
 40
0.9214
 50
91.54029619
 51
127.8599821
  0
ARC
  8
LAYER_1
 10
426.0852
 20
-23.1176
 40
1.3568
 50
89.74536284
 51
94.11318416
  0
ARC
  8
LAYER_1
 10
426.1259
 20
-22.8901
 40
1.1298
 50
58.62210292
 51
91.75974267
  0
ARC
  8
LAYER_1
 10
426.273
 20
-22.5608
 40
0.7735
 50
51.21058398
 51
55.21946665
  0
ARC
  8
LAYER_1
 10
425.6202
 20
-20.7168
 40
2.3902
 50
282.4572156
 51
296.6202321
  0
ARC
  8
LAYER_1
 10
426.4544
 20
-24.7375
 40
1.7167
 50
100.6955324
 51
123.2245733
  0
ARC
  8
LAYER_1
 10
425.7367
 20
-23.6079
 40
0.3789
 50
126.0308151
 51
177.0034989
  0
ARC
  8
LAYER_1
 10
425.6734
 20
-23.5814
 40
0.3151
 50
181.2194959
 51
234.7973421
  0
ARC
  8
LAYER_1
 10
425.8251
 20
-23.3846
 40
0.5635
 50
233.7241646
 51
274.4852987
  0
ARC
  8
LAYER_1
 10
425.898
 20
-23.0793
 40
0.8676
 50
268.0972588
 51
305.545561
  0
ARC
  8
LAYER_1
 10
425.3594
 20
-22.4458
 40
1.6976
 50
307.9070572
 51
321.6748
  0
LINE
  8
LAYER_1
 10
426.6912
 20
-23.4985
 11
426.6912
 21
-22.8536
  0
ENDBLK
  0
BLOCK
  8
LAYER_1
  2
AIGNBL01030013
 70
64
 10
0
 20
0
 30
0
  3
AIGNBL01030013
  0
LINE
  8
LAYER_1
 10
428.1791
 20
-21.098
 11
427.824
 21
-21.098
  0
LINE
  8
LAYER_1
 10
427.824
 20
-21.098
 11
427.824
 21
-20.7218
  0
LINE
  8
LAYER_1
 10
427.824
 20
-20.7218
 11
428.1791
 21
-20.7218
  0
LINE
  8
LAYER_1
 10
428.1791
 20
-20.7218
 11
428.1791
 21
-21.098
  0
LINE
  8
LAYER_1
 10
428.157
 20
-24.2151
 11
427.8461
 21
-24.2151
  0
LINE
  8
LAYER_1
 10
427.8461
 20
-24.2151
 11
427.8461
 21
-21.7608
  0
LINE
  8
LAYER_1
 10
427.8461
 20
-21.7608
 11
428.157
 21
-21.7608
  0
LINE
  8
LAYER_1
 10
428.157
 20
-21.7608
 11
428.157
 21
-24.2151
  0
ENDBLK
  0
BLOCK
  8
LAYER_1
  2
AIGNBL01030014
 70
64
 10
0
 20
0
 30
0
  3
AIGNBL01030014
  0
LINE
  8
LAYER_1
 10
429.1786
 20
-22.9253
 11
430.489
 21
-21.7608
  0
LINE
  8
LAYER_1
 10
430.489
 20
-21.7608
 11
430.8886
 21
-21.7608
  0
LINE
  8
LAYER_1
 10
430.8886
 20
-21.7608
 11
429.8894
 21
-22.6745
  0
LINE
  8
LAYER_1
 10
429.8894
 20
-22.6745
 11
431.0444
 21
-24.2151
  0
LINE
  8
LAYER_1
 10
431.0444
 20
-24.2151
 11
430.6665
 21
-24.2151
  0
LINE
  8
LAYER_1
 10
430.6665
 20
-24.2151
 11
429.6673
 21
-22.8715
  0
LINE
  8
LAYER_1
 10
429.6673
 20
-22.8715
 11
429.1786
 21
-23.2835
  0
LINE
  8
LAYER_1
 10
429.1786
 20
-23.2835
 11
429.1786
 21
-24.2151
  0
LINE
  8
LAYER_1
 10
429.1786
 20
-24.2151
 11
428.8678
 21
-24.2151
  0
LINE
  8
LAYER_1
 10
428.8678
 20
-24.2151
 11
428.8678
 21
-20.7218
  0
LINE
  8
LAYER_1
 10
428.8678
 20
-20.7218
 11
429.1786
 21
-20.7218
  0
LINE
  8
LAYER_1
 10
429.1786
 20
-20.7218
 11
429.1786
 21
-22.9253
  0
ENDBLK
  0
BLOCK
  8
LAYER_1
  2
AIGNBL01030015
 70
64
 10
0
 20
0
 30
0
  3
AIGNBL01030015
  0
ARC
  8
LAYER_1
 10
433.0091
 20
-22.6638
 40
0.8777
 50
12.6118864
 51
49.76808645
  0
ARC
  8
LAYER_1
 10
431.9005
 20
-22.9868
 40
2.0315
 50
358.7054737
 51
14.67543745
  0
LINE
  8
LAYER_1
 10
433.9314
 20
-23.0327
 11
432.0656
 21
-23.0327
  0
ARC
  8
LAYER_1
 10
433.2306
 20
-23.0296
 40
1.165
 50
180.1525504
 51
212.934895
  0
ARC
  8
LAYER_1
 10
432.7406
 20
-23.2891
 40
0.6146
 50
217.4671632
 51
231.0661487
  0
ARC
  8
LAYER_1
 10
432.8581
 20
-23.1491
 40
0.7974
 50
230.8249409
 51
270.5110491
  0
ARC
  8
LAYER_1
 10
432.8707
 20
-23.1445
 40
0.8019
 50
269.6052449
 51
309.0587652
  0
ARC
  8
LAYER_1
 10
433.0162
 20
-23.3268
 40
0.5687
 50
309.2491961
 51
349.8638721
  0
LINE
  8
LAYER_1
 10
433.576
 20
-23.4269
 11
433.8868
 21
-23.4269
  0
ARC
  8
LAYER_1
 10
433.0663
 20
-23.3347
 40
0.8257
 50
314.9077558
 51
353.5891389
  0
ARC
  8
LAYER_1
 10
433.1129
 20
-23.3596
 40
0.7753
 50
308.7397602
 51
313.7625305
  0
ARC
  8
LAYER_1
 10
432.8861
 20
-23.08
 40
1.1353
 50
268.9430762
 51
308.8390436
  0
ARC
  8
LAYER_1
 10
432.8475
 20
-22.9882
 40
1.227
 50
239.2915575
 51
270.8243559
  0
ARC
  8
LAYER_1
 10
432.798
 20
-23.1157
 40
1.0923
 50
230.9757754
 51
238.1127847
  0
ARC
  8
LAYER_1
 10
432.7093
 20
-23.2342
 40
0.9445
 50
194.4673121
 51
230.6254269
  0
ARC
  8
LAYER_1
 10
433.4442
 20
-23.012
 40
1.7118
 50
178.8963074
 51
195.5256383
  0
ARC
  8
LAYER_1
 10
433.1964
 20
-22.9441
 40
1.4641
 50
152.2570094
 51
181.3661544
  0
ARC
  8
LAYER_1
 10
432.7463
 20
-22.7572
 40
0.9798
 50
128.8084293
 51
149.6793015
  0
ARC
  8
LAYER_1
 10
432.7877
 20
-22.8216
 40
1.0559
 50
94.54633015
 51
128.3661435
  0
ARC
  8
LAYER_1
 10
432.8561
 20
-23.168
 40
1.4073
 50
89.62772971
 51
96.20349867
  0
ARC
  8
LAYER_1
 10
432.8836
 20
-22.9226
 40
1.162
 50
58.69952131
 51
90.90490401
  0
ARC
  8
LAYER_1
 10
432.9404
 20
-22.7828
 40
1.0132
 50
51.14782851
 51
57.33687238
  0
ARC
  8
LAYER_1
 10
432.7047
 20
-22.7739
 40
0.8934
 50
0.636814236
 51
37.94592145
  0
ARC
  8
LAYER_1
 10
433.0077
 20
-22.5988
 40
0.5489
 50
42.97940718
 51
50.89745096
  0
ARC
  8
LAYER_1
 10
432.8892
 20
-22.7602
 40
0.749
 50
51.65335051
 51
91.83588354
  0
ARC
  8
LAYER_1
 10
432.843
 20
-22.8313
 40
0.82
 50
88.45202663
 51
126.5776357
  0
ARC
  8
LAYER_1
 10
432.8478
 20
-22.78
 40
0.7824
 50
129.0987463
 51
178.8304232
  0
LINE
  8
LAYER_1
 10
432.0656
 20
-22.764
 11
433.5981
 21
-22.764
  0
ENDBLK
  0
BLOCK
  8
LAYER_1
  2
AIGNBL01030016
 70
64
 10
0
 20
0
 30
0
  3
AIGNBL01030016
  0
ARC
  8
LAYER_1
 10
435.9298
 20
-22.4371
 40
0.6523
 50
6.057824587
 51
49.65076746
  0
ARC
  8
LAYER_1
 10
435.1558
 20
-22.5971
 40
1.4409
 50
359.7751054
 51
9.139665558
  0
LINE
  8
LAYER_1
 10
436.5967
 20
-22.6028
 11
436.5967
 21
-24.2151
  0
LINE
  8
LAYER_1
 10
436.5967
 20
-24.2151
 11
436.2858
 21
-24.2151
  0
LINE
  8
LAYER_1
 10
436.2858
 20
-24.2151
 11
436.2858
 21
-22.6386
  0
ARC
  8
LAYER_1
 10
435.4258
 20
-22.6095
 40
0.8605
 50
358.0648143
 51
19.47992018
  0
ARC
  8
LAYER_1
 10
435.8293
 20
-22.4684
 40
0.4331
 50
19.68415817
 51
49.93849285
  0
ARC
  8
LAYER_1
 10
435.774
 20
-22.5932
 40
0.5653
 50
53.79218892
 51
94.41727432
  0
ARC
  8
LAYER_1
 10
435.7308
 20
-22.7227
 40
0.6932
 50
90.02872182
 51
129.8856998
  0
ARC
  8
LAYER_1
 10
435.9889
 20
-23.0528
 40
1.1121
 50
129.1838779
 51
162.0625498
  0
LINE
  8
LAYER_1
 10
434.9309
 20
-22.7103
 11
434.9309
 21
-24.2151
  0
LINE
  8
LAYER_1
 10
434.9309
 20
-24.2151
 11
434.6201
 21
-24.2151
  0
LINE
  8
LAYER_1
 10
434.6201
 20
-24.2151
 11
434.6201
 21
-21.7608
  0
LINE
  8
LAYER_1
 10
434.6201
 20
-21.7608
 11
434.9309
 21
-21.7608
  0
LINE
  8
LAYER_1
 10
434.9309
 20
-21.7608
 11
434.9309
 21
-22.2624
  0
ARC
  8
LAYER_1
 10
435.8515
 20
-22.8537
 40
1.0941
 50
128.1836958
 51
147.2859099
  0
ARC
  8
LAYER_1
 10
435.8236
 20
-22.7728
 40
1.0137
 50
94.72376074
 51
129.776402
  0
ARC
  8
LAYER_1
 10
435.7964
 20
-22.679
 40
0.9182
 50
89.95828009
 51
93.51329337
  0
ARC
  8
LAYER_1
 10
435.8164
 20
-22.6521
 40
0.8915
 50
53.90537529
 51
91.24248329
  0
ARC
  8
LAYER_1
 10
435.8683
 20
-22.5409
 40
0.7714
 50
51.16368699
 51
52.15552028
  0
ENDBLK
  0
BLOCK
  8
LAYER_1
  2
AIGNBL01030017
 70
64
 10
0
 20
0
 30
0
  3
AIGNBL01030017
  0
LINE
  8
LAYER_1
 10
438.7287
 20
-23.7852
 11
439.7949
 21
-20.7218
  0
LINE
  8
LAYER_1
 10
439.7949
 20
-20.7218
 11
440.1724
 21
-20.7218
  0
LINE
  8
LAYER_1
 10
440.1724
 20
-20.7218
 11
438.9066
 21
-24.2151
  0
LINE
  8
LAYER_1
 10
438.9066
 20
-24.2151
 11
438.5512
 21
-24.2151
  0
LINE
  8
LAYER_1
 10
438.5512
 20
-24.2151
 11
437.2854
 21
-20.7218
  0
LINE
  8
LAYER_1
 10
437.2854
 20
-20.7218
 11
437.6629
 21
-20.7218
  0
LINE
  8
LAYER_1
 10
437.6629
 20
-20.7218
 11
438.7287
 21
-23.7852
  0
ENDBLK
  0
BLOCK
  8
LAYER_1
  2
AIGNBL01030018
 70
64
 10
0
 20
0
 30
0
  3
AIGNBL01030018
  0
ARC
  8
LAYER_1
 10
442.1375
 20
-22.6638
 40
0.8777
 50
12.6118864
 51
49.76808645
  0
ARC
  8
LAYER_1
 10
441.0289
 20
-22.9868
 40
2.0315
 50
358.7054737
 51
14.67543745
  0
LINE
  8
LAYER_1
 10
443.0598
 20
-23.0327
 11
441.194
 21
-23.0327
  0
ARC
  8
LAYER_1
 10
442.359
 20
-23.0296
 40
1.165
 50
180.1525504
 51
212.934895
  0
ARC
  8
LAYER_1
 10
441.869
 20
-23.2891
 40
0.6146
 50
217.4671632
 51
231.0661487
  0
ARC
  8
LAYER_1
 10
441.9865
 20
-23.1491
 40
0.7974
 50
230.8249409
 51
270.5110491
  0
ARC
  8
LAYER_1
 10
441.9991
 20
-23.1445
 40
0.8019
 50
269.6052449
 51
309.0587652
  0
ARC
  8
LAYER_1
 10
442.1446
 20
-23.3268
 40
0.5687
 50
309.2491961
 51
349.8638721
  0
LINE
  8
LAYER_1
 10
442.7044
 20
-23.4269
 11
443.0152
 21
-23.4269
  0
ARC
  8
LAYER_1
 10
442.1947
 20
-23.3347
 40
0.8257
 50
314.9077558
 51
353.5891389
  0
ARC
  8
LAYER_1
 10
442.2413
 20
-23.3596
 40
0.7753
 50
308.7397602
 51
313.7625305
  0
ARC
  8
LAYER_1
 10
442.0145
 20
-23.08
 40
1.1353
 50
268.9430762
 51
308.8390436
  0
ARC
  8
LAYER_1
 10
441.9759
 20
-22.9882
 40
1.227
 50
239.2915575
 51
270.8243559
  0
ARC
  8
LAYER_1
 10
441.9264
 20
-23.1157
 40
1.0923
 50
230.9757754
 51
238.1127847
  0
ARC
  8
LAYER_1
 10
441.8377
 20
-23.2342
 40
0.9445
 50
194.4673121
 51
230.6254269
  0
ARC
  8
LAYER_1
 10
442.5726
 20
-23.012
 40
1.7118
 50
178.8963074
 51
195.5256383
  0
ARC
  8
LAYER_1
 10
442.3248
 20
-22.9441
 40
1.4641
 50
152.2570094
 51
181.3661544
  0
ARC
  8
LAYER_1
 10
441.8747
 20
-22.7572
 40
0.9798
 50
128.8084293
 51
149.6793015
  0
ARC
  8
LAYER_1
 10
441.9161
 20
-22.8216
 40
1.0559
 50
94.54633015
 51
128.3661435
  0
ARC
  8
LAYER_1
 10
441.9845
 20
-23.168
 40
1.4073
 50
89.62772971
 51
96.20349867
  0
ARC
  8
LAYER_1
 10
442.012
 20
-22.9226
 40
1.162
 50
58.69952131
 51
90.90490401
  0
ARC
  8
LAYER_1
 10
442.0688
 20
-22.7828
 40
1.0132
 50
51.14782851
 51
57.33687238
  0
ARC
  8
LAYER_1
 10
441.8331
 20
-22.7739
 40
0.8934
 50
0.636814236
 51
37.94592145
  0
ARC
  8
LAYER_1
 10
442.1361
 20
-22.5988
 40
0.5489
 50
42.97940718
 51
50.89745096
  0
ARC
  8
LAYER_1
 10
442.0176
 20
-22.7602
 40
0.749
 50
51.65335051
 51
91.83588354
  0
ARC
  8
LAYER_1
 10
441.9714
 20
-22.8313
 40
0.82
 50
88.45202663
 51
126.5776357
  0
ARC
  8
LAYER_1
 10
441.9762
 20
-22.78
 40
0.7824
 50
129.0987463
 51
178.8304232
  0
LINE
  8
LAYER_1
 10
441.194
 20
-22.764
 11
442.7265
 21
-22.764
  0
ENDBLK
  0
BLOCK
  8
LAYER_1
  2
AIGNBL01030019
 70
64
 10
0
 20
0
 30
0
  3
AIGNBL01030019
  0
ARC
  8
LAYER_1
 10
445.0431
 20
-22.6274
 40
0.8378
 50
1.681662675
 51
51.05299491
  0
LINE
  8
LAYER_1
 10
445.8805
 20
-22.6028
 11
445.5472
 21
-22.6028
  0
ARC
  8
LAYER_1
 10
444.9026
 20
-22.6208
 40
0.6448
 50
1.599956973
 51
45.68640969
  0
ARC
  8
LAYER_1
 10
445.0542
 20
-22.5166
 40
0.4658
 50
50.07824544
 51
50.95455807
  0
ARC
  8
LAYER_1
 10
444.9297
 20
-22.6903
 40
0.6792
 50
52.02418043
 51
92.21616516
  0
ARC
  8
LAYER_1
 10
444.8982
 20
-22.8155
 40
0.8039
 50
89.62906034
 51
129.0069382
  0
ARC
  8
LAYER_1
 10
444.9046
 20
-22.808
 40
0.8022
 50
129.6953429
 51
169.2422479
  0
ARC
  8
LAYER_1
 10
445.5895
 20
-22.982
 40
1.5082
 50
167.6061446
 51
180.565491
  0
ARC
  8
LAYER_1
 10
445.2935
 20
-23.0418
 40
1.2129
 50
177.8795579
 51
209.756134
  0
ARC
  8
LAYER_1
 10
444.7762
 20
-23.283
 40
0.6459
 50
213.9597053
 51
231.0404803
  0
ARC
  8
LAYER_1
 10
444.8663
 20
-23.1874
 40
0.7769
 50
230.302683
 51
269.4508882
  0
ARC
  8
LAYER_1
 10
444.879
 20
-23.3289
 40
0.6357
 50
268.1898153
 51
306.6553403
  0
ARC
  8
LAYER_1
 10
444.828
 20
-23.3191
 40
0.6749
 50
309.6324237
 51
331.4085902
  0
ARC
  8
LAYER_1
 10
444.3935
 20
-23.0949
 40
1.1638
 50
331.95394
 51
352.4559225
  0
LINE
  8
LAYER_1
 10
445.5472
 20
-23.2477
 11
445.8805
 21
-23.2477
  0
ARC
  8
LAYER_1
 10
444.6968
 20
-23.1786
 40
1.1857
 50
324.474546
 51
356.6583966
  0
ARC
  8
LAYER_1
 10
445.0719
 20
-23.3925
 40
0.7574
 50
308.8650125
 51
321.1503435
  0
ARC
  8
LAYER_1
 10
444.891
 20
-23.1745
 40
1.0406
 50
269.4475231
 51
309.0911903
  0
ARC
  8
LAYER_1
 10
444.8568
 20
-22.9954
 40
1.22
 50
239.4742138
 51
271.1358593
  0
ARC
  8
LAYER_1
 10
444.7624
 20
-23.222
 40
0.9773
 50
231.0597509
 51
237.4946614
  0
ARC
  8
LAYER_1
 10
444.7851
 20
-23.1973
 40
1.0109
 50
196.201462
 51
230.939326
  0
ARC
  8
LAYER_1
 10
445.3363
 20
-23.0258
 40
1.588
 50
178.955892
 51
196.592382
  0
ARC
  8
LAYER_1
 10
445.2122
 20
-22.962
 40
1.4642
 50
152.2578244
 51
181.3644851
  0
ARC
  8
LAYER_1
 10
444.7621
 20
-22.775
 40
0.9797
 50
128.8098969
 51
149.6829014
  0
ARC
  8
LAYER_1
 10
444.867
 20
-22.9139
 40
1.1537
 50
88.19172
 51
128.5461335
  0
ARC
  8
LAYER_1
 10
444.9242
 20
-22.8498
 40
1.0892
 50
57.48337982
 51
91.09649987
  0
ARC
  8
LAYER_1
 10
444.9926
 20
-22.6916
 40
0.9195
 50
51.1229112
 51
55.77503012
  0
ENDBLK
  0
BLOCK
  8
LAYER_1
  2
AIGNBL0103001A
 70
64
 10
0
 20
0
 30
0
  3
AIGNBL0103001A
  0
LINE
  8
LAYER_1
 10
446.9467
 20
-22.0295
 11
446.5692
 21
-22.0295
  0
LINE
  8
LAYER_1
 10
446.5692
 20
-22.0295
 11
446.5692
 21
-21.7608
  0
LINE
  8
LAYER_1
 10
446.5692
 20
-21.7608
 11
446.9467
 21
-21.7608
  0
LINE
  8
LAYER_1
 10
446.9467
 20
-21.7608
 11
446.9467
 21
-21.0801
  0
LINE
  8
LAYER_1
 10
446.9467
 20
-21.0801
 11
447.2575
 21
-21.0801
  0
LINE
  8
LAYER_1
 10
447.2575
 20
-21.0801
 11
447.2575
 21
-21.7608
  0
LINE
  8
LAYER_1
 10
447.2575
 20
-21.7608
 11
447.9017
 21
-21.7608
  0
LINE
  8
LAYER_1
 10
447.9017
 20
-21.7608
 11
447.9017
 21
-22.0295
  0
LINE
  8
LAYER_1
 10
447.9017
 20
-22.0295
 11
447.2575
 21
-22.0295
  0
LINE
  8
LAYER_1
 10
447.2575
 20
-22.0295
 11
447.2575
 21
-23.7314
  0
ARC
  8
LAYER_1
 10
447.4523
 20
-23.7452
 40
0.1953
 50
175.9549756
 51
229.0018003
  0
ARC
  8
LAYER_1
 10
447.5131
 20
-23.598
 40
0.35
 50
237.3276739
 51
275.439011
  0
ARC
  8
LAYER_1
 10
447.4744
 20
-21.8988
 40
2.0489
 50
272.0111657
 51
283.3132415
  0
LINE
  8
LAYER_1
 10
447.9462
 20
-23.8926
 11
447.9462
 21
-24.1614
  0
ARC
  8
LAYER_1
 10
447.5376
 20
-22.6459
 40
1.5697
 50
268.6889408
 51
285.0880874
  0
ARC
  8
LAYER_1
 10
447.4553
 20
-23.5161
 40
0.7006
 50
237.6031931
 51
273.7942508
  0
ARC
  8
LAYER_1
 10
447.3283
 20
-23.8162
 40
0.3828
 50
175.3554851
 51
229.5709398
  0
LINE
  8
LAYER_1
 10
446.9467
 20
-23.7852
 11
446.9467
 21
-22.0295
  0
ENDBLK
  0
BLOCK
  8
LAYER_1
  2
AIGNBL0103001B
 70
64
 10
0
 20
0
 30
0
  3
AIGNBL0103001B
  0
ARC
  8
LAYER_1
 10
449.7706
 20
-22.9468
 40
1.186
 50
50.66407849
 51
90.1744078
  0
ARC
  8
LAYER_1
 10
449.9147
 20
-22.7717
 40
0.9592
 50
14.76585385
 51
50.68641275
  0
ARC
  8
LAYER_1
 10
449.3031
 20
-22.9532
 40
1.597
 50
359.0757295
 51
15.47348178
  0
ARC
  8
LAYER_1
 10
449.4114
 20
-23.017
 40
1.489
 50
332.9248548
 51
1.463570552
  0
ARC
  8
LAYER_1
 10
449.9537
 20
-23.2434
 40
0.9042
 50
308.9730079
 51
330.0558863
  0
ARC
  8
LAYER_1
 10
449.768
 20
-23.0216
 40
1.1935
 50
269.9536806
 51
309.2078331
  0
ARC
  8
LAYER_1
 10
449.7632
 20
-23.0308
 40
1.1844
 50
230.6348894
 51
270.1844284
  0
ARC
  8
LAYER_1
 10
449.6129
 20
-23.2117
 40
0.9491
 50
194.5638459
 51
230.717391
  0
ARC
  8
LAYER_1
 10
450.2943
 20
-23.0079
 40
1.6601
 50
179.0015303
 51
195.4587807
  0
ARC
  8
LAYER_1
 10
450.0686
 20
-22.9431
 40
1.4346
 50
152.436114
 51
181.4349136
  0
ARC
  8
LAYER_1
 10
449.5857
 20
-22.7412
 40
0.9141
 50
128.8724161
 51
149.6456964
  0
ARC
  8
LAYER_1
 10
449.766
 20
-22.9531
 40
1.1923
 50
89.95302455
 51
129.2276577
  0
ARC
  8
LAYER_1
 10
449.7373
 20
-22.7827
 40
0.7489
 50
129.9690508
 51
170.50432
  0
ARC
  8
LAYER_1
 10
450.4891
 20
-22.9656
 40
1.5216
 50
168.3814377
 51
180.5052229
  0
ARC
  8
LAYER_1
 10
450.1795
 20
-23.0238
 40
1.2128
 50
177.8808615
 51
209.7571183
  0
ARC
  8
LAYER_1
 10
449.6617
 20
-23.2654
 40
0.6452
 50
213.9608257
 51
231.0572481
  0
ARC
  8
LAYER_1
 10
449.7599
 20
-23.1489
 40
0.7975
 50
230.8292577
 51
270.5067322
  0
ARC
  8
LAYER_1
 10
449.7726
 20
-23.1444
 40
0.802
 50
269.6014655
 51
309.0555381
  0
ARC
  8
LAYER_1
 10
449.7982
 20
-23.1967
 40
0.7453
 50
310.0589858
 51
350.8067204
  0
ARC
  8
LAYER_1
 10
448.9761
 20
-22.995
 40
1.5906
 50
348.3621131
 51
0.5748288015
  0
ARC
  8
LAYER_1
 10
449.4052
 20
-22.9373
 40
1.1621
 50
357.9422659
 51
30.40728733
  0
ARC
  8
LAYER_1
 10
449.8621
 20
-22.7226
 40
0.661
 50
34.40395552
 51
51.02323355
  0
ARC
  8
LAYER_1
 10
449.7727
 20
-22.831
 40
0.8015
 50
50.93274761
 51
90.41024883
  0
ARC
  8
LAYER_1
 10
449.7619
 20
-22.8325
 40
0.803
 50
89.63522685
 51
129.0287832
  0
ENDBLK
  0
BLOCK
  8
LAYER_1
  2
AIGNBL0103001C
 70
64
 10
0
 20
0
 30
0
  3
AIGNBL0103001C
  0
ARC
  8
LAYER_1
 10
452.9788
 20
-23.1117
 40
1.047
 50
91.95051192
 51
126.0421698
  0
ARC
  8
LAYER_1
 10
452.9244
 20
-22.9998
 40
0.9247
 50
127.3934354
 51
128.9084137
  0
ARC
  8
LAYER_1
 10
453.1653
 20
-23.283
 40
1.2964
 50
129.3336566
 51
159.8975151
  0
ARC
  8
LAYER_1
 10
453.5012
 20
-23.4485
 40
1.6692
 50
158.5262093
 51
163.6632547
  0
LINE
  8
LAYER_1
 10
451.8994
 20
-22.979
 11
451.8994
 21
-24.2151
  0
LINE
  8
LAYER_1
 10
451.8994
 20
-24.2151
 11
451.5886
 21
-24.2151
  0
LINE
  8
LAYER_1
 10
451.5886
 20
-24.2151
 11
451.5886
 21
-21.7608
  0
LINE
  8
LAYER_1
 10
451.5886
 20
-21.7608
 11
451.8994
 21
-21.7608
  0
LINE
  8
LAYER_1
 10
451.8994
 20
-21.7608
 11
451.8994
 21
-22.4057
  0
ARC
  8
LAYER_1
 10
452.8228
 20
-22.8523
 40
1.0257
 50
126.6660176
 51
154.191822
  0
ARC
  8
LAYER_1
 10
452.9722
 20
-22.9964
 40
1.231
 50
96.7347369
 51
128.2380372
  0
ARC
  8
LAYER_1
 10
453.0721
 20
-23.414
 40
1.6582
 50
94.45866182
 51
98.47013404
  0
LINE
  8
LAYER_1
 10
452.9432
 20
-21.7608
 11
452.9432
 21
-22.0654
  0
ENDBLK
  0
BLOCK
  8
LAYER_1
  2
AIGNBL0103001D
 70
64
 10
0
 20
0
 30
0
  3
AIGNBL0103001D
  0
ARC
  8
LAYER_1
 10
457.0018
 20
-22.0835
 40
1.3704
 50
21.61418022
 51
51.67198497
  0
ARC
  8
LAYER_1
 10
456.9645
 20
-22.0727
 40
1.4013
 50
3.965228661
 51
20.64382931
  0
LINE
  8
LAYER_1
 10
458.3625
 20
-21.9758
 11
458.0071
 21
-21.9758
  0
ARC
  8
LAYER_1
 10
456.7187
 20
-22.1855
 40
1.3053
 50
9.244936017
 51
39.89846196
  0
ARC
  8
LAYER_1
 10
456.9839
 20
-22.0128
 40
0.9919
 50
42.07227079
 51
51.06597021
  0
ARC
  8
LAYER_1
 10
456.9989
 20
-21.9938
 40
0.9676
 50
51.05158269
 51
90.7949892
  0
ARC
  8
LAYER_1
 10
456.9854
 20
-22.0332
 40
1.0069
 50
89.99521346
 51
129.7637352
  0
ARC
  8
LAYER_1
 10
457.0637
 20
-22.1408
 40
1.1397
 50
129.327932
 51
161.8386962
  0
ARC
  8
LAYER_1
 10
457.8963
 20
-22.4346
 40
2.0225
 50
161.2807043
 51
181.7187803
  0
ARC
  8
LAYER_1
 10
457.9752
 20
-22.5499
 40
2.1012
 50
178.511837
 51
202.8960359
  0
ARC
  8
LAYER_1
 10
456.9199
 20
-22.9423
 40
0.9776
 50
205.7715322
 51
230.4037019
  0
ARC
  8
LAYER_1
 10
456.9059
 20
-22.9272
 40
0.9805
 50
231.5938004
 51
266.9237548
  0
ARC
  8
LAYER_1
 10
456.9577
 20
-22.6318
 40
1.2788
 50
265.3194285
 51
270.2391832
  0
ARC
  8
LAYER_1
 10
456.984
 20
-22.8212
 40
1.0896
 50
268.8940583
 51
302.5111525
  0
ARC
  8
LAYER_1
 10
457.0524
 20
-22.9798
 40
0.9195
 50
304.2263849
 51
308.8782374
  0
ARC
  8
LAYER_1
 10
457.0116
 20
-22.956
 40
0.9638
 50
309.8804575
 51
345.8002502
  0
ARC
  8
LAYER_1
 10
456.1854
 20
-22.6796
 40
1.8338
 50
343.7622191
 51
353.4314757
  0
LINE
  8
LAYER_1
 10
458.0071
 20
-22.8894
 11
458.3625
 21
-22.8894
  0
ARC
  8
LAYER_1
 10
456.5977
 20
-22.7605
 40
1.7695
 50
329.5066507
 51
355.8236719
  0
ARC
  8
LAYER_1
 10
457.2155
 20
-23.0714
 40
1.0804
 50
309.0346406
 51
327.0857395
  0
ARC
  8
LAYER_1
 10
457.0259
 20
-22.8228
 40
1.3929
 50
268.3359211
 51
308.6509953
  0
ARC
  8
LAYER_1
 10
456.9691
 20
-22.6577
 40
1.5575
 50
242.6574863
 51
270.6025838
  0
ARC
  8
LAYER_1
 10
456.9386
 20
-22.7701
 40
1.4439
 50
231.025797
 51
241.6821659
  0
ARC
  8
LAYER_1
 10
456.7966
 20
-22.9615
 40
1.2058
 50
198.8267533
 51
230.5520207
  0
ARC
  8
LAYER_1
 10
457.5437
 20
-22.662
 40
2.0099
 50
188.8832421
 51
200.0355982
  0
ARC
  8
LAYER_1
 10
458.6921
 20
-22.4815
 40
3.1725
 50
179.6026618
 51
188.9012914
  0
ARC
  8
LAYER_1
 10
457.6491
 20
-22.4284
 40
2.1297
 50
156.9967553
 51
180.8361337
  0
ARC
  8
LAYER_1
 10
457.0683
 20
-22.2281
 40
1.5173
 50
128.7135698
 51
155.3870176
  0
ARC
  8
LAYER_1
 10
457.0346
 20
-22.1522
 40
1.4372
 50
100.5839788
 51
129.5577329
  0
ARC
  8
LAYER_1
 10
456.9848
 20
-22.0263
 40
1.3045
 50
89.97137602
 51
99.4529387
  0
ARC
  8
LAYER_1
 10
457.0042
 20
-22.1466
 40
1.425
 50
61.295461
 51
90.75165687
  0
ARC
  8
LAYER_1
 10
457.0534
 20
-22.0001
 40
1.2731
 50
51.16628827
 51
60.06998139
  0
ENDBLK
  0
BLOCK
  8
LAYER_1
  2
AIGNBL0103001E
 70
64
 10
0
 20
0
 30
0
  3
AIGNBL0103001E
  0
ARC
  8
LAYER_1
 10
460.1873
 20
-22.947
 40
1.1862
 50
50.66677427
 51
90.17171201
  0
ARC
  8
LAYER_1
 10
460.3314
 20
-22.7717
 40
0.9592
 50
14.76585385
 51
50.68641275
  0
ARC
  8
LAYER_1
 10
459.7198
 20
-22.9532
 40
1.597
 50
359.0757295
 51
15.47348178
  0
ARC
  8
LAYER_1
 10
459.8281
 20
-23.017
 40
1.489
 50
332.9248548
 51
1.463570552
  0
ARC
  8
LAYER_1
 10
460.3704
 20
-23.2434
 40
0.9042
 50
308.9730079
 51
330.0558863
  0
ARC
  8
LAYER_1
 10
460.1846
 20
-23.0215
 40
1.1936
 50
269.9562788
 51
309.2052349
  0
ARC
  8
LAYER_1
 10
460.1799
 20
-23.0308
 40
1.1844
 50
230.6348894
 51
270.1844284
  0
ARC
  8
LAYER_1
 10
460.0296
 20
-23.2117
 40
0.9491
 50
194.5638459
 51
230.717391
  0
ARC
  8
LAYER_1
 10
460.711
 20
-23.0079
 40
1.6601
 50
179.0015303
 51
195.4587807
  0
ARC
  8
LAYER_1
 10
460.4853
 20
-22.9431
 40
1.4346
 50
152.436114
 51
181.4349136
  0
ARC
  8
LAYER_1
 10
460.0024
 20
-22.7412
 40
0.9141
 50
128.8724161
 51
149.6456964
  0
ARC
  8
LAYER_1
 10
460.1827
 20
-22.9531
 40
1.1923
 50
89.95302455
 51
129.2276577
  0
ARC
  8
LAYER_1
 10
460.1536
 20
-22.7825
 40
0.7485
 50
129.9545216
 51
170.5146889
  0
ARC
  8
LAYER_1
 10
460.9066
 20
-22.9656
 40
1.5225
 50
168.3885338
 51
180.5058284
  0
ARC
  8
LAYER_1
 10
460.5962
 20
-23.0239
 40
1.2129
 50
177.8776841
 51
209.7531783
  0
ARC
  8
LAYER_1
 10
460.0781
 20
-23.2655
 40
0.6448
 50
213.9644615
 51
231.0723734
  0
ARC
  8
LAYER_1
 10
460.1766
 20
-23.1491
 40
0.7974
 50
230.8249409
 51
270.5110491
  0
ARC
  8
LAYER_1
 10
460.1893
 20
-23.1448
 40
0.8016
 50
269.5985724
 51
309.0654377
  0
ARC
  8
LAYER_1
 10
460.2151
 20
-23.1967
 40
0.7452
 50
310.0430385
 51
350.8041923
  0
ARC
  8
LAYER_1
 10
459.3931
 20
-22.995
 40
1.5903
 50
348.3604548
 51
0.5752092068
  0
ARC
  8
LAYER_1
 10
459.8223
 20
-22.9373
 40
1.1618
 50
357.9409237
 51
30.41562059
  0
ARC
  8
LAYER_1
 10
460.2789
 20
-22.7226
 40
0.661
 50
34.41492789
 51
51.03830788
  0
ARC
  8
LAYER_1
 10
460.1895
 20
-22.8305
 40
0.801
 50
50.91885077
 51
90.41713913
  0
ARC
  8
LAYER_1
 10
460.1785
 20
-22.8324
 40
0.8029
 50
89.63079039
 51
129.0332197
  0
ENDBLK
  0
BLOCK
  8
LAYER_1
  2
AIGNBL0103001F
 70
64
 10
0
 20
0
 30
0
  3
AIGNBL0103001F
  0
ARC
  8
LAYER_1
 10
463.3955
 20
-23.1116
 40
1.0468
 50
91.95415936
 51
126.0445998
  0
ARC
  8
LAYER_1
 10
463.3411
 20
-22.9999
 40
0.9247
 50
127.3934949
 51
128.9083714
  0
ARC
  8
LAYER_1
 10
463.582
 20
-23.283
 40
1.2964
 50
129.3336566
 51
159.8975151
  0
ARC
  8
LAYER_1
 10
463.9179
 20
-23.4485
 40
1.6692
 50
158.5262093
 51
163.6632547
  0
LINE
  8
LAYER_1
 10
462.3161
 20
-22.979
 11
462.3161
 21
-24.2151
  0
LINE
  8
LAYER_1
 10
462.3161
 20
-24.2151
 11
462.0053
 21
-24.2151
  0
LINE
  8
LAYER_1
 10
462.0053
 20
-24.2151
 11
462.0053
 21
-21.7608
  0
LINE
  8
LAYER_1
 10
462.0053
 20
-21.7608
 11
462.3161
 21
-21.7608
  0
LINE
  8
LAYER_1
 10
462.3161
 20
-21.7608
 11
462.3161
 21
-22.4057
  0
ARC
  8
LAYER_1
 10
463.239
 20
-22.8517
 40
1.025
 50
126.6678351
 51
154.208106
  0
ARC
  8
LAYER_1
 10
463.3892
 20
-22.9972
 40
1.2319
 50
96.74353549
 51
128.2269731
  0
ARC
  8
LAYER_1
 10
463.4887
 20
-23.4135
 40
1.6577
 50
94.46061072
 51
98.47202668
  0
LINE
  8
LAYER_1
 10
463.3598
 20
-21.7608
 11
463.3598
 21
-22.0654
  0
ENDBLK
  0
BLOCK
  8
LAYER_1
  2
AIGNBL01030020
 70
64
 10
0
 20
0
 30
0
  3
AIGNBL01030020
  0
LINE
  8
LAYER_1
 10
464.3594
 20
-24.8779
 11
464.0485
 21
-24.8779
  0
LINE
  8
LAYER_1
 10
464.0485
 20
-24.8779
 11
464.0485
 21
-21.7608
  0
LINE
  8
LAYER_1
 10
464.0485
 20
-21.7608
 11
464.3594
 21
-21.7608
  0
LINE
  8
LAYER_1
 10
464.3594
 20
-21.7608
 11
464.3594
 21
-22.2266
  0
ARC
  8
LAYER_1
 10
465.2783
 20
-22.8161
 40
1.0917
 50
128.1761014
 51
147.3168645
  0
ARC
  8
LAYER_1
 10
465.1566
 20
-22.6354
 40
0.8746
 50
89.84965379
 51
129.2277939
  0
ARC
  8
LAYER_1
 10
465.176
 20
-22.7251
 40
0.9645
 50
55.40604137
 51
91.0140482
  0
ARC
  8
LAYER_1
 10
465.218
 20
-22.6281
 40
0.861
 50
51.11842627
 51
54.045517
  0
ARC
  8
LAYER_1
 10
465.1208
 20
-22.7436
 40
1.0119
 50
16.22207487
 51
50.93393694
  0
ARC
  8
LAYER_1
 10
464.5726
 20
-22.9145
 40
1.586
 50
358.9637285
 51
16.61983005
  0
ARC
  8
LAYER_1
 10
464.4681
 20
-22.9873
 40
1.6908
 50
334.5014018
 51
1.495732148
  0
ARC
  8
LAYER_1
 10
465.1621
 20
-23.2664
 40
0.9455
 50
309.1096884
 51
331.663662
  0
ARC
  8
LAYER_1
 10
465.1504
 20
-23.2479
 40
0.9673
 50
269.1970669
 51
308.9563612
  0
ARC
  8
LAYER_1
 10
465.1376
 20
-23.3318
 40
0.8833
 50
230.9727569
 51
269.9497954
  0
ARC
  8
LAYER_1
 10
465.0394
 20
-23.4135
 40
0.7584
 50
206.2791379
 51
232.8479123
  0
LINE
  8
LAYER_1
 10
464.3594
 20
-23.7493
 11
464.3594
 21
-24.8779
  0
ARC
  8
LAYER_1
 10
465.1306
 20
-23.312
 40
0.6371
 50
309.5633365
 51
332.3165664
  0
ARC
  8
LAYER_1
 10
464.8068
 20
-23.1474
 40
1.0003
 50
332.5874375
 51
348.2770634
  0
ARC
  8
LAYER_1
 10
463.9389
 20
-22.9684
 40
1.8865
 50
348.308443
 51
0.7642331344
  0
ARC
  8
LAYER_1
 10
464.3318
 20
-22.9105
 40
1.4937
 50
358.7453536
 51
14.80159161
  0
ARC
  8
LAYER_1
 10
465.0883
 20
-22.7045
 40
0.7098
 50
14.32230116
 51
48.50946212
  0
ARC
  8
LAYER_1
 10
465.1499
 20
-22.683
 40
0.6536
 50
51.31142991
 51
91.15150389
  0
ARC
  8
LAYER_1
 10
465.1293
 20
-22.7633
 40
0.7338
 50
89.41375603
 51
128.7259852
  0
ARC
  8
LAYER_1
 10
465.1797
 20
-22.8095
 40
0.8015
 50
129.4672988
 51
169.0444422
  0
ARC
  8
LAYER_1
 10
465.8002
 20
-22.9658
 40
1.4408
 50
167.6325628
 51
180.5241893
  0
ARC
  8
LAYER_1
 10
465.5679
 20
-23.0173
 40
1.2091
 50
178.1870083
 51
209.9048967
  0
ARC
  8
LAYER_1
 10
465.1266
 20
-23.2184
 40
0.7277
 50
213.5035074
 51
231.1598209
  0
ARC
  8
LAYER_1
 10
465.1185
 20
-23.2426
 40
0.7039
 50
230.4399896
 51
269.6683824
  0
ARC
  8
LAYER_1
 10
465.1243
 20
-23.2825
 40
0.664
 50
269.1481116
 51
308.364136
  0
ENDBLK
  0
BLOCK
  8
LAYER_1
  2
AIGNBL01030021
 70
64
 10
0
 20
0
 30
0
  3
AIGNBL01030021
  0
LINE
  8
LAYER_1
 10
467.2909
 20
-23.8389
 11
467.2909
 21
-24.2151
  0
LINE
  8
LAYER_1
 10
467.2909
 20
-24.2151
 11
466.8468
 21
-24.2151
  0
LINE
  8
LAYER_1
 10
466.8468
 20
-24.2151
 11
466.8468
 21
-23.8389
  0
LINE
  8
LAYER_1
 10
466.8468
 20
-23.8389
 11
467.2909
 21
-23.8389
  0
ENDBLK
  0
BLOCK
  8
LAYER_1
  2
AIGNBL01020003
 70
64
 10
0
 20
0
 30
0
  3
AIGNBL01020003
  0
LINE
  8
LAYER_1
 10
339.2705
 20
-26.6172
 11
469.2192
 21
-26.6172
  0
LINE
  8
LAYER_1
 10
339.2705
 20
-66.6014
 11
339.2705
 21
-16.6211
  0
LINE
  8
LAYER_1
 10
339.2705
 20
-16.6211
 11
469.2192
 21
-16.6211
  0
LINE
  8
LAYER_1
 10
359.2626
 20
-66.6014
 11
359.2626
 21
-26.6172
  0
LINE
  8
LAYER_1
 10
424.2369
 20
-66.6014
 11
424.2369
 21
-26.6172
  0
LINE
  8
LAYER_1
 10
404.2448
 20
-66.6014
 11
404.2448
 21
-26.6172
  0
LINE
  8
LAYER_1
 10
339.2705
 20
-36.6132
 11
469.2192
 21
-36.6132
  0
LINE
  8
LAYER_1
 10
339.2705
 20
-46.6093
 11
469.2192
 21
-46.6093
  0
LINE
  8
LAYER_1
 10
339.2705
 20
-56.6053
 11
469.2192
 21
-56.6053
  0
LINE
  8
LAYER_1
 10
469.2192
 20
-66.6014
 11
124.874
 21
-66.6014
  0
LINE
  8
LAYER_1
 10
124.874
 20
-66.6014
 11
124.874
 21
169.592
  0
LINE
  8
LAYER_1
 10
124.874
 20
169.592
 11
469.2192
 21
169.592
  0
LINE
  8
LAYER_1
 10
469.2192
 20
169.592
 11
469.2192
 21
-66.6014
  0
ENDBLK
  0
BLOCK
  8
LAYER_1
  2
AIGNBL01020004
 70
64
 10
0
 20
0
 30
0
  3
AIGNBL01020004
  0
INSERT
  8
LAYER_1
  2
AIGNBL01030005
 10
0
 20
0
 30
0
  0
INSERT
  8
LAYER_1
  2
AIGNBL01030006
 10
0
 20
0
 30
0
  0
LINE
  8
LAYER_1
 10
364.2316
 20
-18.593
 11
364.2316
 21
-19.3256
  0
LINE
  8
LAYER_1
 10
364.2316
 20
-19.3256
 11
366.1829
 21
-19.3256
  0
LINE
  8
LAYER_1
 10
366.1829
 20
-19.3256
 11
366.1829
 21
-19.6099
  0
LINE
  8
LAYER_1
 10
366.1829
 20
-19.6099
 11
363.7498
 21
-19.6099
  0
LINE
  8
LAYER_1
 10
363.7498
 20
-19.6099
 11
363.7498
 21
-21.1532
  0
LINE
  8
LAYER_1
 10
363.7498
 20
-21.1532
 11
364.5768
 21
-21.1532
  0
LINE
  8
LAYER_1
 10
364.5768
 20
-21.1532
 11
364.5768
 21
-20.3293
  0
LINE
  8
LAYER_1
 10
364.5768
 20
-20.3293
 11
366.1791
 21
-20.3293
  0
LINE
  8
LAYER_1
 10
366.1791
 20
-20.3293
 11
366.1791
 21
-21.951
  0
LINE
  8
LAYER_1
 10
366.1791
 20
-21.951
 11
367.0965
 21
-21.951
  0
LINE
  8
LAYER_1
 10
367.0965
 20
-21.951
 11
367.0965
 21
-20.3293
  0
LINE
  8
LAYER_1
 10
367.0965
 20
-20.3293
 11
368.7118
 21
-20.3293
  0
LINE
  8
LAYER_1
 10
368.7118
 20
-20.3293
 11
368.7118
 21
-21.1532
  0
LINE
  8
LAYER_1
 10
368.7118
 20
-21.1532
 11
369.5774
 21
-21.1532
  0
LINE
  8
LAYER_1
 10
369.5774
 20
-21.1532
 11
369.5774
 21
-19.6099
  0
LINE
  8
LAYER_1
 10
369.5774
 20
-19.6099
 11
367.1003
 21
-19.6099
  0
LINE
  8
LAYER_1
 10
367.1003
 20
-19.6099
 11
367.1003
 21
-19.3256
  0
LINE
  8
LAYER_1
 10
367.1003
 20
-19.3256
 11
369.0579
 21
-19.3256
  0
LINE
  8
LAYER_1
 10
369.0579
 20
-19.3256
 11
369.0579
 21
-18.593
  0
LINE
  8
LAYER_1
 10
369.0579
 20
-18.593
 11
364.2316
 21
-18.593
  0
LINE
  8
LAYER_1
 10
364.7286
 20
-21.0494
 11
365.9083
 21
-21.0494
  0
LINE
  8
LAYER_1
 10
365.9083
 20
-21.0494
 11
365.9083
 21
-20.5839
  0
LINE
  8
LAYER_1
 10
365.9083
 20
-20.5839
 11
364.7286
 21
-20.5839
  0
LINE
  8
LAYER_1
 10
364.7286
 20
-20.5839
 11
364.7286
 21
-21.0494
  0
LINE
  8
LAYER_1
 10
364.5863
 20
-21.7545
 11
365.9082
 21
-21.7545
  0
LINE
  8
LAYER_1
 10
365.9082
 20
-21.7545
 11
365.9082
 21
-21.2892
  0
LINE
  8
LAYER_1
 10
365.9082
 20
-21.2892
 11
364.5863
 21
-21.2892
  0
LINE
  8
LAYER_1
 10
364.5863
 20
-21.2892
 11
364.5863
 21
-21.7545
  0
LINE
  8
LAYER_1
 10
367.3672
 20
-21.0494
 11
368.5469
 21
-21.0494
  0
LINE
  8
LAYER_1
 10
368.5469
 20
-21.0494
 11
368.5469
 21
-20.5839
  0
LINE
  8
LAYER_1
 10
368.5469
 20
-20.5839
 11
367.3672
 21
-20.5839
  0
LINE
  8
LAYER_1
 10
367.3672
 20
-20.5839
 11
367.3672
 21
-21.0494
  0
LINE
  8
LAYER_1
 10
367.3672
 20
-21.7545
 11
368.6955
 21
-21.7545
  0
LINE
  8
LAYER_1
 10
368.6955
 20
-21.7545
 11
368.6955
 21
-21.2892
  0
LINE
  8
LAYER_1
 10
368.6955
 20
-21.2892
 11
367.3672
 21
-21.2892
  0
LINE
  8
LAYER_1
 10
367.3672
 20
-21.2892
 11
367.3672
 21
-21.7545
  0
INSERT
  8
LAYER_1
  2
AIGNBL01030007
 10
0
 20
0
 30
0
  0
INSERT
  8
LAYER_1
  2
AIGNBL01030008
 10
0
 20
0
 30
0
  0
INSERT
  8
LAYER_1
  2
AIGNBL01030009
 10
0
 20
0
 30
0
  0
LINE
  8
LAYER_1
 10
341.8942
 20
-18.5614
 11
343.4346
 21
-18.5614
  0
LINE
  8
LAYER_1
 10
343.4346
 20
-18.5614
 11
345.5421
 21
-23.0789
  0
LINE
  8
LAYER_1
 10
345.5421
 20
-23.0789
 11
345.5421
 21
-22.3097
  0
LINE
  8
LAYER_1
 10
345.5421
 20
-22.3097
 11
347.0847
 21
-22.3097
  0
LINE
  8
LAYER_1
 10
347.0847
 20
-22.3097
 11
347.0847
 21
-24.6193
  0
LINE
  8
LAYER_1
 10
347.0847
 20
-24.6193
 11
344.7769
 21
-24.6193
  0
LINE
  8
LAYER_1
 10
344.7769
 20
-24.6193
 11
343.4307
 21
-21.7969
  0
LINE
  8
LAYER_1
 10
343.4307
 20
-21.7969
 11
343.4307
 21
-24.6193
  0
LINE
  8
LAYER_1
 10
343.4307
 20
-24.6193
 11
341.8942
 21
-24.6193
  0
LINE
  8
LAYER_1
 10
341.8942
 20
-24.6193
 11
341.8942
 21
-18.5614
  0
INSERT
  8
LAYER_1
  2
AIGNBL0103000A
 10
0
 20
0
 30
0
  0
ARC
  8
LAYER_1
 10
395.6228
 20
-22.2421
 40
1.991
 50
311.8536983
 51
336.66565
  0
ARC
  8
LAYER_1
 10
395.2143
 20
-22.0387
 40
2.4468
 50
336.0820229
 51
355.050887
  0
LINE
  8
LAYER_1
 10
397.652
 20
-22.2498
 11
397.652
 21
-19.0493
  0
LINE
  8
LAYER_1
 10
397.652
 20
-19.0493
 11
396.4658
 21
-19.0493
  0
LINE
  8
LAYER_1
 10
396.4658
 20
-19.0493
 11
396.4658
 21
-21.9151
  0
ARC
  8
LAYER_1
 10
394.9478
 20
-21.874
 40
1.5185
 50
331.8956217
 51
358.4504934
  0
ARC
  8
LAYER_1
 10
395.7367
 20
-22.2196
 40
0.6633
 50
317.1782762
 51
326.1116703
  0
ARC
  8
LAYER_1
 10
394.7907
 20
-21.265
 40
2.0068
 50
296.3435913
 51
315.5475613
  0
LINE
  8
LAYER_1
 10
395.6812
 20
-23.0634
 11
395.6812
 21
-24.2581
  0
ARC
  8
LAYER_1
 10
395.7315
 20
-23.1228
 40
1.1364
 50
267.460987
 51
280.8278078
  0
ARC
  8
LAYER_1
 10
395.6077
 20
-22.387
 40
1.8825
 50
280.3227292
 51
303.5087591
  0
ARC
  8
LAYER_1
 10
395.3215
 20
-21.8982
 40
2.4483
 50
302.7778523
 51
311.7357705
  0
ARC
  8
LAYER_1
 10
383.8582
 20
-21.2369
 40
1.9121
 50
200.4586691
 51
212.6743406
  0
ARC
  8
LAYER_1
 10
360.8299
 20
-29.6321
 40
22.5988
 50
19.99339328
 51
22.95988574
  0
ARC
  8
LAYER_1
 10
378.6335
 20
-22.195
 40
3.306
 50
24.64219126
 51
41.47959493
  0
ARC
  8
LAYER_1
 10
379.7074
 20
-21.3145
 40
1.9189
 50
43.02136381
 51
66.4525374
  0
ARC
  8
LAYER_1
 10
379.7452
 20
-21.2722
 40
1.8651
 50
66.99773131
 51
74.27463074
  0
ARC
  8
LAYER_1
 10
379.3948
 20
-22.5663
 40
3.2057
 50
74.51389392
 51
94.05361784
  0
ARC
  8
LAYER_1
 10
379.436
 20
-23.458
 40
4.0982
 50
93.74752603
 51
109.4964459
  0
ARC
  8
LAYER_1
 10
379.3155
 20
-23.2494
 40
3.8616
 50
108.8443826
 51
117.7785401
  0
ARC
  8
LAYER_1
 10
368.4808
 20
-19.7127
 40
9.0358
 50
353.3545297
 51
359.2384651
  0
ARC
  8
LAYER_1
 10
374.5967
 20
-20.478
 40
2.873
 50
340.8545036
 51
354.3986112
  0
ARC
  8
LAYER_1
 10
375.9845
 20
-20.8638
 40
1.4382
 50
308.1960555
 51
337.240372
  0
ARC
  8
LAYER_1
 10
376.186
 20
-21.1609
 40
1.0804
 50
298.9411123
 51
309.5405453
  0
LINE
  8
LAYER_1
 10
376.7088
 20
-22.1064
 11
376.7088
 21
-23.3788
  0
ARC
  8
LAYER_1
 10
376.133
 20
-20.8091
 40
2.6334
 50
282.629217
 51
311.7889792
  0
ARC
  8
LAYER_1
 10
376.7481
 20
-21.591
 40
1.6417
 50
313.9680024
 51
325.0993696
  0
ARC
  8
LAYER_1
 10
376.075
 20
-21.1667
 40
2.4368
 50
325.9722368
 51
337.2435268
  0
ARC
  8
LAYER_1
 10
374.4452
 20
-20.4759
 40
4.207
 50
337.1535495
 51
344.91421
  0
ARC
  8
LAYER_1
 10
372.5495
 20
-19.9463
 40
6.1753
 50
344.7481064
 51
353.2474184
  0
ARC
  8
LAYER_1
 10
379.476
 20
-22.45
 40
1.947
 50
90.61781687
 51
114.0708883
  0
ARC
  8
LAYER_1
 10
379.4502
 20
-21.5938
 40
1.0907
 50
61.474306
 51
89.74539799
  0
ARC
  8
LAYER_1
 10
379.5976
 20
-21.2581
 40
0.7259
 50
38.2714468
 51
59.04055946
  0
ARC
  8
LAYER_1
 10
378.9476
 20
-21.7619
 40
1.5482
 50
25.3011504
 51
38.01183044
  0
ARC
  8
LAYER_1
 10
374.0025
 20
-24.0904
 40
7.0141
 50
19.69622915
 51
25.23323144
  0
ARC
  8
LAYER_1
 10
386.9461
 20
-19.5396
 40
6.7064
 50
199.0304142
 51
214.1619839
  0
ARC
  8
LAYER_1
 10
385.1883
 20
-20.5955
 40
4.6604
 50
215.5556146
 51
216.3864829
  0
ARC
  8
LAYER_1
 10
383.6855
 20
-21.6697
 40
2.8135
 50
216.9324038
 51
237.9526107
  0
ARC
  8
LAYER_1
 10
383.2601
 20
-22.3143
 40
2.0414
 50
238.4737585
 51
260.7134162
  0
ARC
  8
LAYER_1
 10
383.0587
 20
-23.1943
 40
1.1418
 50
263.5627283
 51
265.8887812
  0
LINE
  8
LAYER_1
 10
382.9768
 20
-24.3332
 11
382.9768
 21
-22.9742
  0
ARC
  8
LAYER_1
 10
383.3434
 20
-22.147
 40
0.9048
 50
229.9708589
 51
246.0997112
  0
ARC
  8
LAYER_1
 10
384.4169
 20
-20.8366
 40
2.5987
 50
213.4542661
 51
230.4296508
  0
LINE
  8
LAYER_1
 10
382.0901
 20
-19.8796
 11
381.4745
 21
-19.8796
  0
LINE
  8
LAYER_1
 10
381.4745
 20
-19.8796
 11
381.3155
 21
-18.8814
  0
LINE
  8
LAYER_1
 10
381.3155
 20
-18.8814
 11
381.9318
 21
-18.8814
  0
LINE
  8
LAYER_1
 10
381.9318
 20
-18.8814
 11
382.0901
 21
-19.8796
  0
LINE
  8
LAYER_1
 10
383.0188
 20
-19.8796
 11
382.4029
 21
-19.8796
  0
LINE
  8
LAYER_1
 10
382.4029
 20
-19.8796
 11
382.2442
 21
-18.8814
  0
LINE
  8
LAYER_1
 10
382.2442
 20
-18.8814
 11
382.8606
 21
-18.8814
  0
LINE
  8
LAYER_1
 10
382.8606
 20
-18.8814
 11
383.0188
 21
-19.8796
  0
ARC
  8
LAYER_1
 10
383.3452
 20
-19.5626
 40
1.2598
 50
294.8462392
 51
325.7593989
  0
ARC
  8
LAYER_1
 10
383.5868
 20
-20.0818
 40
0.6873
 50
280.6862667
 51
294.7597554
  0
LINE
  8
LAYER_1
 10
383.7142
 20
-20.7571
 11
383.7142
 21
-22.0072
  0
ARC
  8
LAYER_1
 10
383.3879
 20
-19.5706
 40
2.4583
 50
277.6270469
 51
307.9992312
  0
ARC
  8
LAYER_1
 10
383.7857
 20
-20.2045
 40
1.7156
 50
310.5659115
 51
312.159519
  0
ARC
  8
LAYER_1
 10
383.3126
 20
-19.7505
 40
2.3702
 50
313.2688841
 51
336.1288754
  0
ARC
  8
LAYER_1
 10
382.549
 20
-19.2963
 40
3.254
 50
334.2571503
 51
342.7179381
  0
LINE
  8
LAYER_1
 10
385.6561
 20
-20.263
 11
388.0832
 21
-20.263
  0
ARC
  8
LAYER_1
 10
384.0183
 20
-20.476
 40
4.0705
 50
346.9025011
 51
2.999941785
  0
ARC
  8
LAYER_1
 10
385.3231
 20
-20.7848
 40
2.7296
 50
327.7013818
 51
347.0097259
  0
ARC
  8
LAYER_1
 10
386.118
 20
-21.2401
 40
1.8149
 50
312.9843281
 51
326.4412197
  0
ARC
  8
LAYER_1
 10
386.162
 20
-21.2473
 40
1.7799
 50
298.6772297
 51
312.1042011
  0
ARC
  8
LAYER_1
 10
385.719
 20
-20.4337
 40
2.7063
 50
288.7192833
 51
298.64049
  0
ARC
  8
LAYER_1
 10
385.0665
 20
-18.4569
 40
4.7879
 50
273.6020975
 51
288.52267
  0
ARC
  8
LAYER_1
 10
384.7612
 20
-16.1994
 40
7.062
 50
268.3271717
 51
274.9240462
  0
LINE
  8
LAYER_1
 10
384.555
 20
-23.2584
 11
384.555
 21
-24.3879
  0
ARC
  8
LAYER_1
 10
384.9661
 20
-16.1363
 40
8.2618
 50
267.1475499
 51
278.4142478
  0
ARC
  8
LAYER_1
 10
385.3877
 20
-18.8538
 40
5.5119
 50
278.2131806
 51
291.6024907
  0
ARC
  8
LAYER_1
 10
386.3117
 20
-21.293
 40
2.9041
 50
292.3703177
 51
310.8518436
  0
ARC
  8
LAYER_1
 10
386.898
 20
-22.0381
 40
1.9575
 50
312.1363704
 51
321.4360617
  0
ARC
  8
LAYER_1
 10
386.3493
 20
-21.2741
 40
2.8742
 50
316.3403134
 51
335.9447601
  0
ARC
  8
LAYER_1
 10
384.9732
 20
-20.6215
 40
4.3969
 50
335.488256
 51
350.554217
  0
ARC
  8
LAYER_1
 10
382.3156
 20
-20.0996
 40
7.1046
 50
349.9195385
 51
2.135290941
  0
ARC
  8
LAYER_1
 10
382.3137
 20
-20.0083
 40
7.1036
 50
1.398744845
 51
7.163066818
  0
LINE
  8
LAYER_1
 10
389.3619
 20
-19.1225
 11
384.6757
 21
-19.1225
  0
ARC
  8
LAYER_1
 10
379.5567
 20
-18.5724
 40
5.1485
 50
346.1208209
 51
353.8665991
  0
ARC
  8
LAYER_1
 10
382.5401
 20
-19.3399
 40
2.0683
 50
333.2294573
 51
346.9363389
  0
ARC
  8
LAYER_1
 10
377.3708
 20
-106.144
 40
86.7721
 50
78.78700631
 51
80.56640675
  0
LINE
  8
LAYER_1
 10
391.5931
 20
-20.5454
 11
391.5931
 21
-18.9096
  0
LINE
  8
LAYER_1
 10
391.5931
 20
-18.9096
 11
390.2958
 21
-18.9096
  0
LINE
  8
LAYER_1
 10
390.2958
 20
-18.9096
 11
390.2958
 21
-24.3878
  0
LINE
  8
LAYER_1
 10
390.2958
 20
-24.3878
 11
391.5931
 21
-24.3878
  0
LINE
  8
LAYER_1
 10
391.5931
 20
-24.3878
 11
391.5931
 21
-21.7936
  0
ARC
  8
LAYER_1
 10
391.8122
 20
-24.3619
 40
2.5777
 50
85.26912846
 51
94.87697352
  0
ARC
  8
LAYER_1
 10
391.5474
 20
-28.0073
 40
6.2326
 50
76.32160786
 51
85.60637667
  0
ARC
  8
LAYER_1
 10
382.6865
 20
-65.0935
 40
44.3625
 50
73.58294073
 51
76.52865465
  0
LINE
  8
LAYER_1
 10
395.2246
 20
-22.5396
 11
395.2246
 21
-21.2884
  0
ARC
  8
LAYER_1
 10
392.0121
 20
-31.4196
 40
10.6283
 50
72.40665783
 51
77.87678181
  0
ARC
  8
LAYER_1
 10
398.8888
 20
-20.9171
 40
3.2368
 50
288.2682375
 51
307.5749128
  0
ARC
  8
LAYER_1
 10
398.4053
 20
-19.5973
 40
4.6418
 50
274.0145895
 51
288.8290898
  0
ARC
  8
LAYER_1
 10
398.4053
 20
-20.3924
 40
3.8491
 50
268.360011
 51
274.8439918
  0
LINE
  8
LAYER_1
 10
398.2951
 20
-24.2399
 11
398.2951
 21
-18.8434
  0
LINE
  8
LAYER_1
 10
398.2951
 20
-18.8434
 11
399.5838
 21
-18.8434
  0
LINE
  8
LAYER_1
 10
399.5838
 20
-18.8434
 11
399.5838
 21
-22.8383
  0
ARC
  8
LAYER_1
 10
399.4956
 20
-22.1335
 40
0.7103
 50
277.1314049
 51
295.958207
  0
ARC
  8
LAYER_1
 10
399.2786
 20
-21.686
 40
1.2076
 50
295.9193969
 51
325.4807177
  0
ARC
  8
LAYER_1
 10
398.9134
 20
-21.3577
 40
1.6958
 50
323.3344126
 51
327.8455613
  0
ARC
  8
LAYER_1
 10
399.1503
 20
-21.5329
 40
1.4022
 50
328.753104
 51
343.5635435
  0
ARC
  8
LAYER_1
 10
397.9377
 20
-21.1696
 40
2.6681
 50
343.4495362
 51
352.9514753
  0
ARC
  8
LAYER_1
 10
395.8698
 20
-20.9074
 40
4.7525
 50
352.8742823
 51
4.069265984
  0
LINE
  8
LAYER_1
 10
400.6103
 20
-20.5702
 11
401.7958
 21
-20.5702
  0
ARC
  8
LAYER_1
 10
396.0506
 20
-20.8034
 40
5.75
 50
348.7691617
 51
2.324459127
  0
ARC
  8
LAYER_1
 10
398.1468
 20
-21.2257
 40
3.6116
 50
332.2799632
 51
348.8629354
  0
ARC
  8
LAYER_1
 10
399.6246
 20
-21.96
 40
1.9623
 50
309.1184749
 51
331.1898301
  0
ENDBLK
  0
BLOCK
  8
LAYER_1
  2
AIGNBL0102000B
 70
64
 10
0
 20
0
 30
0
  3
AIGNBL0102000B
  0
INSERT
  8
LAYER_1
  2
AIGNBL0103000C
 10
0
 20
0
 30
0
  0
INSERT
  8
LAYER_1
  2
AIGNBL0103000D
 10
0
 20
0
 30
0
  0
INSERT
  8
LAYER_1
  2
AIGNBL0103000E
 10
0
 20
0
 30
0
  0
INSERT
  8
LAYER_1
  2
AIGNBL0103000F
 10
0
 20
0
 30
0
  0
INSERT
  8
LAYER_1
  2
AIGNBL01030010
 10
0
 20
0
 30
0
  0
INSERT
  8
LAYER_1
  2
AIGNBL01030011
 10
0
 20
0
 30
0
  0
INSERT
  8
LAYER_1
  2
AIGNBL01030012
 10
0
 20
0
 30
0
  0
INSERT
  8
LAYER_1
  2
AIGNBL01030013
 10
0
 20
0
 30
0
  0
INSERT
  8
LAYER_1
  2
AIGNBL01030014
 10
0
 20
0
 30
0
  0
INSERT
  8
LAYER_1
  2
AIGNBL01030015
 10
0
 20
0
 30
0
  0
INSERT
  8
LAYER_1
  2
AIGNBL01030016
 10
0
 20
0
 30
0
  0
INSERT
  8
LAYER_1
  2
AIGNBL01030017
 10
0
 20
0
 30
0
  0
INSERT
  8
LAYER_1
  2
AIGNBL01030018
 10
0
 20
0
 30
0
  0
INSERT
  8
LAYER_1
  2
AIGNBL01030019
 10
0
 20
0
 30
0
  0
INSERT
  8
LAYER_1
  2
AIGNBL0103001A
 10
0
 20
0
 30
0
  0
INSERT
  8
LAYER_1
  2
AIGNBL0103001B
 10
0
 20
0
 30
0
  0
INSERT
  8
LAYER_1
  2
AIGNBL0103001C
 10
0
 20
0
 30
0
  0
INSERT
  8
LAYER_1
  2
AIGNBL0103001D
 10
0
 20
0
 30
0
  0
INSERT
  8
LAYER_1
  2
AIGNBL0103001E
 10
0
 20
0
 30
0
  0
INSERT
  8
LAYER_1
  2
AIGNBL0103001F
 10
0
 20
0
 30
0
  0
INSERT
  8
LAYER_1
  2
AIGNBL01030020
 10
0
 20
0
 30
0
  0
INSERT
  8
LAYER_1
  2
AIGNBL01030021
 10
0
 20
0
 30
0
  0
ENDBLK
  0
BLOCK
  8
LAYER_1
  2
AIGNBL01010002
 70
64
 10
0
 20
0
 30
0
  3
AIGNBL01010002
  0
INSERT
  8
LAYER_1
  2
AIGNBL01020003
 10
0
 20
0
 30
0
  0
TEXT
  8
LAYER_1
 10
348.9088
 20
-30.5741
 11
348.9088
 21
-30.5741
 40
3.1044
 41
0.5
 72
1
  1
品名
  0
TEXT
  8
LAYER_1
 10
348.9088
 20
-35.2308
 11
348.9088
 21
-35.2308
 40
3.1044
 41
0.5
 72
1
  1
PRODUCT
  0
TEXT
  8
LAYER_1
 10
414.219
 20
-30.5741
 11
414.219
 21
-30.5741
 40
3.1044
 41
0.5
 72
1
  1
型式
  0
TEXT
  8
LAYER_1
 10
414.219
 20
-35.2308
 11
414.219
 21
-35.2308
 40
3.1044
 41
0.5
 72
1
  1
TYPE
  0
TEXT
  8
LAYER_1
 10
414.219
 20
-40.4516
 11
414.219
 21
-40.4516
 40
3.1044
 41
0.5
 72
1
  1
単位
  0
TEXT
  8
LAYER_1
 10
414.219
 20
-45.1084
 11
414.219
 21
-45.1084
 40
3.1044
 41
0.5
 72
1
  1
UNIT
  0
TEXT
  8
LAYER_1
 10
414.219
 20
-60.5799
 11
414.219
 21
-60.5799
 40
3.4815
 41
0.5
 72
1
  1
設計
  0
TEXT
  8
LAYER_1
 10
414.2191
 20
-65.802
 11
414.2191
 21
-65.802
 40
3.4815
 41
0.5
 72
1
  1
DESIGNED
  0
TEXT
  8
LAYER_1
 10
349.219
 20
-40.4517
 11
349.219
 21
-40.4517
 40
3.1044
 41
0.5
 72
1
  1
寸法
  0
TEXT
  8
LAYER_1
 10
349.219
 20
-45.1085
 11
349.219
 21
-45.1085
 40
3.1044
 41
0.5
 72
1
  1
SIZE
  0
TEXT
  8
LAYER_1
 10
349.219
 20
-60.5801
 11
349.219
 21
-60.5801
 40
3.1044
 41
0.5
 72
1
  1
材質
  0
TEXT
  8
LAYER_1
 10
349.219
 20
-65.2368
 11
349.219
 21
-65.2368
 40
3.1044
 41
0.5
 72
1
  1
MATERIAL
  0
TEXT
  8
LAYER_1
 10
349.7268
 20
-50.452
 11
349.7268
 21
-50.452
 40
3.1044
 41
0.5
 72
1
  1
ネジ
  0
TEXT
  8
LAYER_1
 10
349.219
 20
-55.1087
 11
349.219
 21
-55.1087
 40
3.1044
 41
0.5
 72
1
  1
SCREW
  0
TEXT
  8
LAYER_1
 10
413.9088
 20
-50.4519
 11
413.9088
 21
-50.4519
 40
3.1044
 41
0.5
 72
1
  1
日付
  0
TEXT
  8
LAYER_1
 10
413.9088
 20
-55.1086
 11
413.9088
 21
-55.1086
 40
3.1044
 41
0.5
 72
1
  1
DATE
  0
TEXT
  8
LAYER_1
 10
380.3578
 20
-43.2231
 11
380.3578
 21
-43.2231
 40
3.6689
 41
0.5
 72
1
  1
W65×H71×D35.4
  0
TEXT
  8
LAYER_1
 10
446.7193
 20
-43.2231
 11
446.7193
 21
-43.2231
 40
3.6689
 41
0.5
 72
1
  1
mm
  0
TEXT
  8
LAYER_1
 10
446.7193
 20
-33.2218
 11
446.7193
 21
-33.2218
 40
3.6689
 41
0.5
 72
1
  1
NRAT-NP
  0
TEXT
  8
LAYER_1
 10
446.7193
 20
-53.2231
 11
446.7193
 21
-53.2231
 40
3.6689
 41
0.5
 72
1
  1
2017.09.16
  0
TEXT
  8
LAYER_1
 10
446.719
 20
-63.2231
 11
446.719
 21
-63.2231
 40
3.6689
 41
0.5
 72
1
  1
戸森 幹二
  0
TEXT
  8
LAYER_1
 10
382.9196
 20
-63.2231
 11
382.9196
 21
-63.2231
 40
3.6689
 41
0.5
 72
1
  1
アルミ
  0
TEXT
  8
LAYER_1
 10
381.7193
 20
-30.8515
 11
381.7193
 21
-30.8515
 40
3.1044
 41
0.5
 72
1
  1
同軸回線用
  0
TEXT
  8
LAYER_1
 10
384.0613
 20
-35.5083
 11
384.0613
 21
-35.5083
 40
3.1044
 41
0.5
 72
1
  1
避雷器　(N型コネクタ)
  0
TEXT
  8
LAYER_1
 10
382.9699
 20
-53.1353
 11
382.9699
 21
-53.1353
 40
3.1044
 41
0.5
 72
1
  1
アース端子　M6
  0
INSERT
  8
LAYER_1
  2
AIGNBL01020004
 10
0
 20
0
 30
0
  0
INSERT
  8
LAYER_1
  2
AIGNBL0102000B
 10
0
 20
0
 30
0
  0
ENDBLK
  0
BLOCK
  8
LAYER_1
  2
AIGNBL01010022
 70
64
 10
0
 20
0
 30
0
  3
AIGNBL01010022
  0
ENDBLK
  0
BLOCK
  8
LAYER_1
  2
AIGNBL01010023
 70
64
 10
0
 20
0
 30
0
  3
AIGNBL01010023
  0
LINE
  8
LAYER_1
 62
3
 10
264.3426
 20
47.4361
 11
230.502
 21
47.4361
  0
ENDBLK
  0
BLOCK
  8
LAYER_1
  2
AIGNBL01010024
 70
64
 10
0
 20
0
 30
0
  3
AIGNBL01010024
  0
LINE
  8
LAYER_1
 62
3
 10
264.3426
 20
118.4361
 11
230.502
 21
118.4361
  0
ENDBLK
  0
BLOCK
  8
LAYER_1
  2
AIGNBL01010025
 70
64
 10
0
 20
0
 30
0
  3
AIGNBL01010025
  0
LINE
  8
LAYER_1
 62
3
 10
231.752
 20
49.9361
 11
231.752
 21
115.9361
  0
ENDBLK
  0
BLOCK
  8
LAYER_1
  2
AIGNBL01010026
 70
64
 10
0
 20
0
 30
0
  3
AIGNBL01010026
  0
LINE
  8
LAYER_1
 62
3
 10
231.3354
 20
49.9361
 11
231.752
 21
47.4361
  0
LINE
  8
LAYER_1
 62
3
 10
231.752
 20
47.4361
 11
232.1687
 21
49.9361
  0
LINE
  8
LAYER_1
 62
3
 10
232.1687
 20
49.9361
 11
231.3354
 21
49.9361
  0
ENDBLK
  0
BLOCK
  8
LAYER_1
  2
AIGNBL01010027
 70
64
 10
0
 20
0
 30
0
  3
AIGNBL01010027
  0
LINE
  8
LAYER_1
 62
3
 10
231.3354
 20
115.9361
 11
231.752
 21
118.4361
  0
LINE
  8
LAYER_1
 62
3
 10
231.752
 20
118.4361
 11
232.1687
 21
115.9361
  0
LINE
  8
LAYER_1
 62
3
 10
232.1687
 20
115.9361
 11
231.3354
 21
115.9361
  0
ENDBLK
  0
BLOCK
  8
LAYER_1
  2
AIGNBL01010028
 70
64
 10
0
 20
0
 30
0
  3
AIGNBL01010028
  0
TEXT
  8
LAYER_1
 10
231.1269
 20
81.2336
 11
231.1269
 21
81.2336
 40
3.7421
 41
0.5
 50
89.99999999
 62
3
  1
71
  0
ENDBLK
  0
BLOCK
  8
LAYER_1
  2
AIGNBL01010029
 70
64
 10
0
 20
0
 30
0
  3
AIGNBL01010029
  0
ENDBLK
  0
BLOCK
  8
LAYER_1
  2
AIGNBL0101002A
 70
64
 10
0
 20
0
 30
0
  3
AIGNBL0101002A
  0
LINE
  8
LAYER_1
 62
3
 10
248.3426
 20
73.2674
 11
248.3426
 21
32.6836
  0
ENDBLK
  0
BLOCK
  8
LAYER_1
  2
AIGNBL0101002B
 70
64
 10
0
 20
0
 30
0
  3
AIGNBL0101002B
  0
LINE
  8
LAYER_1
 62
3
 10
313.3426
 20
73.2674
 11
313.3426
 21
32.6836
  0
ENDBLK
  0
BLOCK
  8
LAYER_1
  2
AIGNBL0101002C
 70
64
 10
0
 20
0
 30
0
  3
AIGNBL0101002C
  0
LINE
  8
LAYER_1
 62
3
 10
250.8426
 20
33.9336
 11
310.8426
 21
33.9336
  0
ENDBLK
  0
BLOCK
  8
LAYER_1
  2
AIGNBL0101002D
 70
64
 10
0
 20
0
 30
0
  3
AIGNBL0101002D
  0
LINE
  8
LAYER_1
 62
3
 10
250.8426
 20
34.3503
 11
248.3426
 21
33.9336
  0
LINE
  8
LAYER_1
 62
3
 10
248.3426
 20
33.9336
 11
250.8426
 21
33.5169
  0
LINE
  8
LAYER_1
 62
3
 10
250.8426
 20
33.5169
 11
250.8426
 21
34.3503
  0
ENDBLK
  0
BLOCK
  8
LAYER_1
  2
AIGNBL0101002E
 70
64
 10
0
 20
0
 30
0
  3
AIGNBL0101002E
  0
LINE
  8
LAYER_1
 62
3
 10
310.8426
 20
34.3503
 11
313.3426
 21
33.9336
  0
LINE
  8
LAYER_1
 62
3
 10
313.3426
 20
33.9336
 11
310.8426
 21
33.5169
  0
LINE
  8
LAYER_1
 62
3
 10
310.8426
 20
33.5169
 11
310.8426
 21
34.3503
  0
ENDBLK
  0
BLOCK
  8
LAYER_1
  2
AIGNBL0101002F
 70
64
 10
0
 20
0
 30
0
  3
AIGNBL0101002F
  0
TEXT
  8
LAYER_1
 10
278.9076
 20
34.6013
 11
278.9076
 21
34.6013
 40
3.7421
 41
0.5
 62
3
  1
65
  0
ENDBLK
  0
BLOCK
  8
LAYER_1
  2
AIGNBL01010030
 70
64
 10
0
 20
0
 30
0
  3
AIGNBL01010030
  0
ENDBLK
  0
BLOCK
  8
LAYER_1
  2
AIGNBL01010031
 70
64
 10
0
 20
0
 30
0
  3
AIGNBL01010031
  0
LINE
  8
LAYER_1
 62
3
 10
247.2675
 20
19.4094
 11
231.1269
 21
19.4094
  0
ENDBLK
  0
BLOCK
  8
LAYER_1
  2
AIGNBL01010032
 70
64
 10
0
 20
0
 30
0
  3
AIGNBL01010032
  0
LINE
  8
LAYER_1
 62
3
 10
247.2675
 20
-15.9906
 11
231.1269
 21
-15.9906
  0
ENDBLK
  0
BLOCK
  8
LAYER_1
  2
AIGNBL01010033
 70
64
 10
0
 20
0
 30
0
  3
AIGNBL01010033
  0
LINE
  8
LAYER_1
 62
3
 10
232.3769
 20
16.9094
 11
232.3769
 21
-13.4906
  0
ENDBLK
  0
BLOCK
  8
LAYER_1
  2
AIGNBL01010034
 70
64
 10
0
 20
0
 30
0
  3
AIGNBL01010034
  0
LINE
  8
LAYER_1
 62
3
 10
231.9603
 20
16.9094
 11
232.3769
 21
19.4094
  0
LINE
  8
LAYER_1
 62
3
 10
232.3769
 20
19.4094
 11
232.7936
 21
16.9094
  0
LINE
  8
LAYER_1
 62
3
 10
232.7936
 20
16.9094
 11
231.9603
 21
16.9094
  0
ENDBLK
  0
BLOCK
  8
LAYER_1
  2
AIGNBL01010035
 70
64
 10
0
 20
0
 30
0
  3
AIGNBL01010035
  0
LINE
  8
LAYER_1
 62
3
 10
231.9603
 20
-13.4906
 11
232.3769
 21
-15.9906
  0
LINE
  8
LAYER_1
 62
3
 10
232.3769
 20
-15.9906
 11
232.7936
 21
-13.4906
  0
LINE
  8
LAYER_1
 62
3
 10
232.7936
 20
-13.4906
 11
231.9603
 21
-13.4906
  0
ENDBLK
  0
BLOCK
  8
LAYER_1
  2
AIGNBL01010036
 70
64
 10
0
 20
0
 30
0
  3
AIGNBL01010036
  0
TEXT
  8
LAYER_1
 10
231.2583
 20
-1.6753
 11
231.2583
 21
-1.6753
 40
3.7421
 41
0.5
 50
89.99999999
 62
3
  1
35,4
  0
ENDBLK
  0
ENDSEC
  0
SECTION
  2
ENTITIES
  0
INSERT
  8
LAYER_1
  2
AIGNBL01010002
 10
0
 20
0
 30
0
  0
LINE
  8
LAYER_1
 10
259.3426
 20
99.5361
 11
302.3426
 21
99.5361
  0
LINE
  8
LAYER_1
 10
302.3426
 20
99.5361
 11
302.3426
 21
74.5361
  0
LINE
  8
LAYER_1
 10
302.3426
 20
74.5361
 11
259.3426
 21
74.5361
  0
LINE
  8
LAYER_1
 10
259.3426
 20
74.5361
 11
259.3426
 21
99.5361
  0
LINE
  8
LAYER_1
 10
261.7426
 20
99.5361
 11
261.7426
 21
74.5361
  0
LINE
  8
LAYER_1
 10
299.9426
 20
99.5361
 11
299.9426
 21
74.5361
  0
LINE
  8
LAYER_1
 10
313.3426
 20
90.0361
 11
312.7426
 21
89.4361
  0
LINE
  8
LAYER_1
 10
312.7426
 20
89.4361
 11
308.7426
 21
89.4361
  0
ARC
  8
LAYER_1
 10
308.7426
 20
87.0361
 40
2.4
 50
90.00005735
 51
179.9999426
  0
ARC
  8
LAYER_1
 10
308.7426
 20
87.0361
 40
2.4
 50
179.9997195
 51
270.0002805
  0
LINE
  8
LAYER_1
 10
308.7426
 20
84.6361
 11
312.7426
 21
84.6361
  0
LINE
  8
LAYER_1
 10
312.7426
 20
84.6361
 11
313.3426
 21
84.0361
  0
LINE
  8
LAYER_1
 10
313.3426
 20
84.0361
 11
313.3426
 21
74.5361
  0
LINE
  8
LAYER_1
 10
313.3426
 20
74.5361
 11
302.3426
 21
74.5361
  0
LINE
  8
LAYER_1
 10
302.3426
 20
74.5361
 11
302.3426
 21
99.5361
  0
LINE
  8
LAYER_1
 10
302.3426
 20
99.5361
 11
313.3426
 21
99.5361
  0
LINE
  8
LAYER_1
 10
313.3426
 20
99.5361
 11
313.3426
 21
90.0361
  0
LINE
  8
LAYER_1
 10
248.3426
 20
90.0361
 11
248.9426
 21
89.4361
  0
LINE
  8
LAYER_1
 10
248.9426
 20
89.4361
 11
252.9426
 21
89.4361
  0
ARC
  8
LAYER_1
 10
252.9426
 20
87.0361
 40
2.4
 50
0.0002804478066
 51
89.99971954
  0
ARC
  8
LAYER_1
 10
252.9426
 20
87.0361
 40
2.4
 50
269.9999427
 51
5.72922647e-005
  0
LINE
  8
LAYER_1
 10
252.9426
 20
84.6361
 11
248.9426
 21
84.6361
  0
LINE
  8
LAYER_1
 10
248.9426
 20
84.6361
 11
248.3426
 21
84.0361
  0
LINE
  8
LAYER_1
 10
248.3426
 20
84.0361
 11
248.3426
 21
74.5361
  0
LINE
  8
LAYER_1
 10
248.3426
 20
74.5361
 11
259.3426
 21
74.5361
  0
LINE
  8
LAYER_1
 10
259.3426
 20
74.5361
 11
259.3426
 21
99.5361
  0
LINE
  8
LAYER_1
 10
259.3426
 20
99.5361
 11
248.3426
 21
99.5361
  0
LINE
  8
LAYER_1
 10
248.3426
 20
99.5361
 11
248.3426
 21
90.0361
  0
LINE
  8
LAYER_1
 10
263.3426
 20
99.5361
 11
288.5426
 21
99.5361
  0
LINE
  8
LAYER_1
 10
288.5426
 20
99.5361
 11
288.5426
 21
101.6361
  0
LINE
  8
LAYER_1
 10
288.5426
 20
101.6361
 11
263.3426
 21
101.6361
  0
LINE
  8
LAYER_1
 10
263.3426
 20
101.6361
 11
263.3426
 21
99.5361
  0
LINE
  8
LAYER_1
 10
263.3426
 20
72.4361
 11
288.5426
 21
72.4361
  0
LINE
  8
LAYER_1
 10
288.5426
 20
72.4361
 11
288.5426
 21
74.5361
  0
LINE
  8
LAYER_1
 10
288.5426
 20
74.5361
 11
263.3426
 21
74.5361
  0
LINE
  8
LAYER_1
 10
263.3426
 20
74.5361
 11
263.3426
 21
72.4361
  0
LINE
  8
LAYER_1
 10
267.2426
 20
69.4361
 11
267.2426
 21
64.4361
  0
LINE
  8
LAYER_1
 10
267.2426
 20
64.4361
 11
284.6426
 21
64.4361
  0
LINE
  8
LAYER_1
 10
284.6426
 20
64.4361
 11
284.6426
 21
69.4361
  0
LINE
  8
LAYER_1
 10
285.8426
 20
47.4361
 11
266.0426
 21
47.4361
  0
LINE
  8
LAYER_1
 10
266.0426
 20
47.4361
 11
266.0426
 21
52.4361
  0
LINE
  8
LAYER_1
 10
266.0426
 20
52.4361
 11
285.8426
 21
52.4361
  0
LINE
  8
LAYER_1
 10
285.8426
 20
52.4361
 11
285.8426
 21
47.4361
  0
LINE
  8
LAYER_1
 10
265.4426
 20
52.4361
 11
286.4426
 21
52.4361
  0
LINE
  8
LAYER_1
 10
286.4426
 20
52.4361
 11
286.4426
 21
62.4361
  0
LINE
  8
LAYER_1
 10
286.4426
 20
62.4361
 11
265.4426
 21
62.4361
  0
LINE
  8
LAYER_1
 10
265.4426
 20
62.4361
 11
265.4426
 21
52.4361
  0
LINE
  8
LAYER_1
 10
266.0426
 20
62.4361
 11
285.8426
 21
62.4361
  0
LINE
  8
LAYER_1
 10
285.8426
 20
62.4361
 11
285.8426
 21
64.4361
  0
LINE
  8
LAYER_1
 10
285.8426
 20
64.4361
 11
266.0426
 21
64.4361
  0
LINE
  8
LAYER_1
 10
266.0426
 20
64.4361
 11
266.0426
 21
62.4361
  0
LINE
  8
LAYER_1
 10
265.4426
 20
52.4361
 11
269.166
 21
62.4361
  0
LINE
  8
LAYER_1
 10
278.7192
 20
62.4361
 11
282.4426
 21
52.4361
  0
LINE
  8
LAYER_1
 10
282.4426
 20
52.4361
 11
286.166
 21
62.4361
  0
LINE
  8
LAYER_1
 10
277.7192
 20
62.4361
 11
281.4426
 21
52.4361
  0
LINE
  8
LAYER_1
 10
281.4426
 20
52.4361
 11
285.166
 21
62.4361
  0
LINE
  8
LAYER_1
 10
276.7192
 20
62.4361
 11
280.4426
 21
52.4361
  0
LINE
  8
LAYER_1
 10
280.4426
 20
52.4361
 11
284.166
 21
62.4361
  0
LINE
  8
LAYER_1
 10
275.7192
 20
62.4361
 11
279.4426
 21
52.4361
  0
LINE
  8
LAYER_1
 10
279.4426
 20
52.4361
 11
283.166
 21
62.4361
  0
LINE
  8
LAYER_1
 10
274.7192
 20
62.4361
 11
278.4426
 21
52.4361
  0
LINE
  8
LAYER_1
 10
278.4426
 20
52.4361
 11
282.166
 21
62.4361
  0
LINE
  8
LAYER_1
 10
273.7192
 20
62.4361
 11
277.4426
 21
52.4361
  0
LINE
  8
LAYER_1
 10
277.4426
 20
52.4361
 11
281.166
 21
62.4361
  0
LINE
  8
LAYER_1
 10
272.7192
 20
62.4361
 11
276.4426
 21
52.4361
  0
LINE
  8
LAYER_1
 10
276.4426
 20
52.4361
 11
280.166
 21
62.4361
  0
LINE
  8
LAYER_1
 10
271.7192
 20
62.4361
 11
275.4426
 21
52.4361
  0
LINE
  8
LAYER_1
 10
275.4426
 20
52.4361
 11
279.166
 21
62.4361
  0
LINE
  8
LAYER_1
 10
270.7192
 20
62.4361
 11
274.4426
 21
52.4361
  0
LINE
  8
LAYER_1
 10
274.4426
 20
52.4361
 11
278.166
 21
62.4361
  0
LINE
  8
LAYER_1
 10
269.7192
 20
62.4361
 11
273.4426
 21
52.4361
  0
LINE
  8
LAYER_1
 10
273.4426
 20
52.4361
 11
277.166
 21
62.4361
  0
LINE
  8
LAYER_1
 10
268.7192
 20
62.4361
 11
272.4426
 21
52.4361
  0
LINE
  8
LAYER_1
 10
272.4426
 20
52.4361
 11
276.166
 21
62.4361
  0
LINE
  8
LAYER_1
 10
267.7192
 20
62.4361
 11
271.4426
 21
52.4361
  0
LINE
  8
LAYER_1
 10
271.4426
 20
52.4361
 11
275.166
 21
62.4361
  0
LINE
  8
LAYER_1
 10
266.7192
 20
62.4361
 11
270.4426
 21
52.4361
  0
LINE
  8
LAYER_1
 10
270.4426
 20
52.4361
 11
274.166
 21
62.4361
  0
LINE
  8
LAYER_1
 10
265.7192
 20
62.4361
 11
269.4426
 21
52.4361
  0
LINE
  8
LAYER_1
 10
269.4426
 20
52.4361
 11
273.166
 21
62.4361
  0
LINE
  8
LAYER_1
 10
272.166
 20
62.4361
 11
268.4426
 21
52.4361
  0
LINE
  8
LAYER_1
 10
268.4426
 20
52.4361
 11
265.4426
 21
60.4932
  0
LINE
  8
LAYER_1
 10
265.4426
 20
60.4932
 11
266.166
 21
62.4361
  0
LINE
  8
LAYER_1
 10
286.4426
 20
52.4361
 11
282.7192
 21
62.4361
  0
LINE
  8
LAYER_1
 10
283.7192
 20
62.4361
 11
286.4426
 21
55.1218
  0
LINE
  8
LAYER_1
 10
286.4426
 20
55.1218
 11
285.4426
 21
52.4361
  0
LINE
  8
LAYER_1
 10
285.4426
 20
52.4361
 11
281.7192
 21
62.4361
  0
LINE
  8
LAYER_1
 10
267.166
 20
62.4361
 11
265.4426
 21
57.8075
  0
LINE
  8
LAYER_1
 10
265.4426
 20
57.8075
 11
267.4426
 21
52.4361
  0
LINE
  8
LAYER_1
 10
267.4426
 20
52.4361
 11
271.166
 21
62.4361
  0
LINE
  8
LAYER_1
 10
268.166
 20
62.4361
 11
265.4426
 21
55.1218
  0
LINE
  8
LAYER_1
 10
265.4426
 20
55.1218
 11
266.4426
 21
52.4361
  0
LINE
  8
LAYER_1
 10
266.4426
 20
52.4361
 11
270.166
 21
62.4361
  0
LINE
  8
LAYER_1
 10
284.7192
 20
62.4361
 11
286.4426
 21
57.8075
  0
LINE
  8
LAYER_1
 10
286.4426
 20
57.8075
 11
284.4426
 21
52.4361
  0
LINE
  8
LAYER_1
 10
284.4426
 20
52.4361
 11
280.7192
 21
62.4361
  0
LINE
  8
LAYER_1
 10
269.5426
 20
110.0361
 11
282.3426
 21
110.0361
  0
LINE
  8
LAYER_1
 10
282.3426
 20
110.0361
 11
282.3426
 21
111.5361
  0
LINE
  8
LAYER_1
 10
282.3426
 20
111.5361
 11
269.5426
 21
111.5361
  0
LINE
  8
LAYER_1
 10
269.5426
 20
111.5361
 11
269.5426
 21
110.0361
  0
LINE
  8
LAYER_1
 10
269.5426
 20
116.9361
 11
282.3426
 21
116.9361
  0
LINE
  8
LAYER_1
 10
282.3426
 20
116.9361
 11
282.3426
 21
118.4361
  0
LINE
  8
LAYER_1
 10
282.3426
 20
118.4361
 11
269.5426
 21
118.4361
  0
LINE
  8
LAYER_1
 10
269.5426
 20
118.4361
 11
269.5426
 21
116.9361
  0
LINE
  8
LAYER_1
 10
268.0426
 20
116.9361
 11
283.8426
 21
116.9361
  0
LINE
  8
LAYER_1
 10
283.8426
 20
116.9361
 11
283.8426
 21
111.5361
  0
LINE
  8
LAYER_1
 10
283.8426
 20
111.5361
 11
268.0426
 21
111.5361
  0
LINE
  8
LAYER_1
 10
268.0426
 20
111.5361
 11
268.0426
 21
116.9361
  0
LINE
  8
LAYER_1
 10
283.8426
 20
104.6361
 11
283.8426
 21
110.0361
  0
LINE
  8
LAYER_1
 10
283.8426
 20
110.0361
 11
268.0426
 21
110.0361
  0
LINE
  8
LAYER_1
 10
268.0426
 20
110.0361
 11
268.0426
 21
104.6361
  0
LINE
  8
LAYER_1
 10
268.0426
 20
111.5361
 11
283.8426
 21
112.9735
  0
LINE
  8
LAYER_1
 10
268.0426
 20
112.5361
 11
283.8426
 21
113.9735
  0
LINE
  8
LAYER_1
 10
268.0426
 20
113.5361
 11
283.8426
 21
114.9735
  0
LINE
  8
LAYER_1
 10
268.0426
 20
114.5361
 11
283.8426
 21
115.9735
  0
LINE
  8
LAYER_1
 10
268.0426
 20
115.5361
 11
283.4309
 21
116.9361
  0
LINE
  8
LAYER_1
 10
268.0426
 20
116.5361
 11
272.4393
 21
116.9361
  0
LINE
  8
LAYER_1
 10
279.0343
 20
111.5361
 11
283.8426
 21
111.9735
  0
LINE
  8
LAYER_1
 10
264.3426
 20
101.6361
 11
269.7426
 21
101.6361
  0
LINE
  8
LAYER_1
 10
269.7426
 20
101.6361
 11
269.7426
 21
102.1361
  0
LINE
  8
LAYER_1
 10
269.7426
 20
102.1361
 11
264.3426
 21
102.1361
  0
LINE
  8
LAYER_1
 10
264.3426
 20
102.1361
 11
264.3426
 21
101.6361
  0
LINE
  8
LAYER_1
 10
264.8426
 20
102.1361
 11
269.2426
 21
102.1361
  0
ARC
  8
LAYER_1
 10
269.2426
 20
102.6361
 40
0.5
 50
269.9997249
 51
0.0002751597065
  0
LINE
  8
LAYER_1
 10
269.7426
 20
102.6361
 11
269.7426
 21
103.1361
  0
ARC
  8
LAYER_1
 10
268.2426
 20
103.1361
 40
1.5
 50
0.0004487457831
 51
89.99955124
  0
LINE
  8
LAYER_1
 10
268.2426
 20
104.6361
 11
265.8426
 21
104.6361
  0
ARC
  8
LAYER_1
 10
265.8426
 20
103.1361
 40
1.5
 50
90.00009173
 51
179.9999082
  0
LINE
  8
LAYER_1
 10
264.3426
 20
103.1361
 11
264.3426
 21
102.6361
  0
ARC
  8
LAYER_1
 10
264.8426
 20
102.6361
 40
0.5
 50
179.9986537
 51
270.0013463
  0
LINE
  8
LAYER_1
 10
282.1426
 20
101.6361
 11
287.5426
 21
101.6361
  0
LINE
  8
LAYER_1
 10
287.5426
 20
101.6361
 11
287.5426
 21
102.1361
  0
LINE
  8
LAYER_1
 10
287.5426
 20
102.1361
 11
282.1426
 21
102.1361
  0
LINE
  8
LAYER_1
 10
282.1426
 20
102.1361
 11
282.1426
 21
101.6361
  0
LINE
  8
LAYER_1
 10
282.6426
 20
102.1361
 11
287.0426
 21
102.1361
  0
ARC
  8
LAYER_1
 10
287.0426
 20
102.6361
 40
0.5
 50
269.9997249
 51
0.0002751597318
  0
LINE
  8
LAYER_1
 10
287.5426
 20
102.6361
 11
287.5426
 21
103.1361
  0
ARC
  8
LAYER_1
 10
286.0426
 20
103.1361
 40
1.5
 50
0.0004487457747
 51
89.99955124
  0
LINE
  8
LAYER_1
 10
286.0426
 20
104.6361
 11
283.6426
 21
104.6361
  0
ARC
  8
LAYER_1
 10
283.6426
 20
103.1361
 40
1.5
 50
90.00009173
 51
179.9999082
  0
LINE
  8
LAYER_1
 10
282.1426
 20
103.1361
 11
282.1426
 21
102.6361
  0
ARC
  8
LAYER_1
 10
282.6426
 20
102.6361
 40
0.5
 50
179.9986537
 51
270.0013463
  0
LINE
  8
LAYER_1
 10
268.0426
 20
101.6361
 11
283.8426
 21
101.6361
  0
LINE
  8
LAYER_1
 10
287.5426
 20
72.4361
 11
282.1426
 21
72.4361
  0
LINE
  8
LAYER_1
 10
282.1426
 20
72.4361
 11
282.1426
 21
71.9361
  0
LINE
  8
LAYER_1
 10
282.1426
 20
71.9361
 11
287.5426
 21
71.9361
  0
LINE
  8
LAYER_1
 10
287.5426
 20
71.9361
 11
287.5426
 21
72.4361
  0
LINE
  8
LAYER_1
 10
287.0426
 20
71.9361
 11
282.6426
 21
71.9361
  0
ARC
  8
LAYER_1
 10
282.6426
 20
71.4361
 40
0.5
 50
90.00027521
 51
179.9997248
  0
LINE
  8
LAYER_1
 10
282.1426
 20
71.4361
 11
282.1426
 21
70.9361
  0
ARC
  8
LAYER_1
 10
283.6426
 20
70.9361
 40
1.5
 50
179.9995512
 51
270.0004488
  0
LINE
  8
LAYER_1
 10
283.6426
 20
69.4361
 11
286.0426
 21
69.4361
  0
ARC
  8
LAYER_1
 10
286.0426
 20
70.9361
 40
1.5
 50
269.9999083
 51
9.173453122e-005
  0
LINE
  8
LAYER_1
 10
287.5426
 20
70.9361
 11
287.5426
 21
71.4361
  0
ARC
  8
LAYER_1
 10
287.0426
 20
71.4361
 40
0.5
 50
0.00134619375
 51
89.99865379
  0
LINE
  8
LAYER_1
 10
269.7426
 20
72.4361
 11
264.3426
 21
72.4361
  0
LINE
  8
LAYER_1
 10
264.3426
 20
72.4361
 11
264.3426
 21
71.9361
  0
LINE
  8
LAYER_1
 10
264.3426
 20
71.9361
 11
269.7426
 21
71.9361
  0
LINE
  8
LAYER_1
 10
269.7426
 20
71.9361
 11
269.7426
 21
72.4361
  0
LINE
  8
LAYER_1
 10
269.2426
 20
71.9361
 11
264.8426
 21
71.9361
  0
ARC
  8
LAYER_1
 10
264.8426
 20
71.4361
 40
0.5
 50
90.00027521
 51
179.9997248
  0
LINE
  8
LAYER_1
 10
264.3426
 20
71.4361
 11
264.3426
 21
70.9361
  0
ARC
  8
LAYER_1
 10
265.8426
 20
70.9361
 40
1.5
 50
179.9995512
 51
270.0004488
  0
LINE
  8
LAYER_1
 10
265.8426
 20
69.4361
 11
268.2426
 21
69.4361
  0
ARC
  8
LAYER_1
 10
268.2426
 20
70.9361
 40
1.5
 50
269.9999083
 51
9.17345228e-005
  0
LINE
  8
LAYER_1
 10
269.7426
 20
70.9361
 11
269.7426
 21
71.4361
  0
ARC
  8
LAYER_1
 10
269.2426
 20
71.4361
 40
0.5
 50
0.001346193775
 51
89.99865379
  0
CIRCLE
  8
LAYER_1
 10
293.3426
 20
87.0361
 40
5
  0
CIRCLE
  8
LAYER_1
 10
293.3426
 20
87.0361
 40
6
  0
LINE
  8
LAYER_1
 10
292.7426
 20
86.4361
 11
292.7426
 21
84.0361
  0
LINE
  8
LAYER_1
 10
292.7426
 20
84.0361
 11
293.9426
 21
84.0361
  0
LINE
  8
LAYER_1
 10
293.9426
 20
84.0361
 11
293.9426
 21
86.4361
  0
LINE
  8
LAYER_1
 10
293.9426
 20
86.4361
 11
296.3426
 21
86.4361
  0
LINE
  8
LAYER_1
 10
296.3426
 20
86.4361
 11
296.3426
 21
87.6361
  0
LINE
  8
LAYER_1
 10
296.3426
 20
87.6361
 11
293.9426
 21
87.6361
  0
LINE
  8
LAYER_1
 10
293.9426
 20
87.6361
 11
293.9426
 21
90.0361
  0
LINE
  8
LAYER_1
 10
293.9426
 20
90.0361
 11
292.7426
 21
90.0361
  0
LINE
  8
LAYER_1
 10
292.7426
 20
90.0361
 11
292.7426
 21
87.6361
  0
LINE
  8
LAYER_1
 10
292.7426
 20
87.6361
 11
290.3426
 21
87.6361
  0
LINE
  8
LAYER_1
 10
290.3426
 20
87.6361
 11
290.3426
 21
86.4361
  0
LINE
  8
LAYER_1
 10
290.3426
 20
86.4361
 11
292.7426
 21
86.4361
  0
CIRCLE
  8
LAYER_1
 10
293.3426
 20
87.0361
 40
6.5
  0
LINE
  8
LAYER_1
 10
285.7192
 20
62.4361
 11
286.4426
 21
60.4932
  0
LINE
  8
LAYER_1
 10
286.4426
 20
60.4932
 11
283.4426
 21
52.4361
  0
LINE
  8
LAYER_1
 10
283.4426
 20
52.4361
 11
279.7192
 21
62.4361
  0
ARC
  8
LAYER_1
 10
267.0793
 20
8.5057
 40
2.6633
 50
347.7032245
 51
0.07923426491
  0
ARC
  8
LAYER_1
 10
267.0426
 20
8.5094
 40
2.7
 50
0.0001099327737
 51
89.99989006
  0
ARC
  8
LAYER_1
 10
267.0426
 20
8.5094
 40
2.7
 50
89.99991158
 51
180.0000884
  0
ARC
  8
LAYER_1
 10
267.0426
 20
8.5094
 40
2.7
 50
179.9998901
 51
270.0001099
  0
ARC
  8
LAYER_1
 10
267.0463
 20
8.4747
 40
2.6653
 50
269.9206147
 51
281.6388659
  0
ARC
  8
LAYER_1
 10
284.839
 20
8.4753
 40
2.6659
 50
258.362507
 51
270.0780125
  0
ARC
  8
LAYER_1
 10
284.8426
 20
8.5094
 40
2.7
 50
270.0000884
 51
359.9999116
  0
ARC
  8
LAYER_1
 10
284.8426
 20
8.5094
 40
2.7
 50
0.0001099329052
 51
89.99989006
  0
ARC
  8
LAYER_1
 10
284.8426
 20
8.5094
 40
2.7
 50
89.99991158
 51
180.0000884
  0
ARC
  8
LAYER_1
 10
284.8126
 20
8.506
 40
2.67
 50
179.9264686
 51
192.2712275
  0
ARC
  8
LAYER_1
 10
284.8118
 20
-9.4871
 40
2.6692
 50
167.7271136
 51
180.0751903
  0
ARC
  8
LAYER_1
 10
284.8426
 20
-9.4906
 40
2.7
 50
179.9998901
 51
270.0001099
  0
ARC
  8
LAYER_1
 10
284.8426
 20
-9.4906
 40
2.7
 50
270.0000884
 51
359.9999116
  0
ARC
  8
LAYER_1
 10
284.8426
 20
-9.4906
 40
2.7
 50
0.0001099329026
 51
89.99989006
  0
ARC
  8
LAYER_1
 10
284.8389
 20
-9.4559
 40
2.6653
 50
89.92061465
 51
101.6388659
  0
ARC
  8
LAYER_1
 10
267.0462
 20
-9.4565
 40
2.6659
 50
78.36250695
 51
90.07801244
  0
ARC
  8
LAYER_1
 10
267.0426
 20
-9.4906
 40
2.7
 50
89.99991158
 51
180.0000884
  0
ARC
  8
LAYER_1
 10
267.0426
 20
-9.4906
 40
2.7
 50
179.9998901
 51
270.0001099
  0
ARC
  8
LAYER_1
 10
267.0426
 20
-9.4906
 40
2.7
 50
270.0000884
 51
359.9999116
  0
ARC
  8
LAYER_1
 10
267.0792
 20
-9.4869
 40
2.6634
 50
359.9210082
 51
12.29653299
  0
LINE
  8
LAYER_1
 10
265.8426
 20
-13.0906
 11
286.0426
 21
-13.0906
  0
ARC
  8
LAYER_1
 10
286.0426
 20
-10.5906
 40
2.5
 50
270.0000955
 51
359.9999045
  0
LINE
  8
LAYER_1
 10
288.5426
 20
-10.5906
 11
288.5426
 21
9.6094
  0
ARC
  8
LAYER_1
 10
286.0426
 20
9.6094
 40
2.5
 50
0.0001187201006
 51
89.99988127
  0
LINE
  8
LAYER_1
 10
286.0426
 20
12.1094
 11
265.8426
 21
12.1094
  0
ARC
  8
LAYER_1
 10
265.8426
 20
9.6094
 40
2.5
 50
89.9999045
 51
180.0000955
  0
LINE
  8
LAYER_1
 10
263.3426
 20
9.6094
 11
263.3426
 21
-10.5906
  0
ARC
  8
LAYER_1
 10
265.8426
 20
-10.5906
 40
2.5
 50
179.9998812
 51
270.0001188
  0
LINE
  8
LAYER_1
 10
265.1426
 20
-12.9906
 11
248.3426
 21
-12.9906
  0
LINE
  8
LAYER_1
 10
248.3426
 20
-12.9906
 11
248.3426
 21
-15.9906
  0
LINE
  8
LAYER_1
 10
248.3426
 20
-15.9906
 11
313.3426
 21
-15.9906
  0
LINE
  8
LAYER_1
 10
313.3426
 20
-15.9906
 11
313.3426
 21
-12.9906
  0
LINE
  8
LAYER_1
 10
313.3426
 20
-12.9906
 11
286.7426
 21
-12.9906
  0
LINE
  8
LAYER_1
 10
302.3426
 20
-12.9906
 11
302.3426
 21
9.6094
  0
LINE
  8
LAYER_1
 10
302.3426
 20
9.6094
 11
299.9426
 21
12.0094
  0
LINE
  8
LAYER_1
 10
299.9426
 20
12.0094
 11
286.7426
 21
12.0094
  0
LINE
  8
LAYER_1
 10
259.3426
 20
-12.9906
 11
259.3426
 21
9.6094
  0
LINE
  8
LAYER_1
 10
259.3426
 20
9.6094
 11
261.7426
 21
12.0094
  0
LINE
  8
LAYER_1
 10
261.7426
 20
12.0094
 11
265.1426
 21
12.0094
  0
CIRCLE
  8
LAYER_1
 10
275.9426
 20
-0.4906
 40
9.9
  0
CIRCLE
  8
LAYER_1
 10
275.9426
 20
-0.4906
 40
10.5
  0
CIRCLE
  8
LAYER_1
 10
275.9426
 20
-0.4906
 40
8.1
  0
CIRCLE
  8
LAYER_1
 10
275.9426
 20
-0.4906
 40
4.1
  0
CIRCLE
  8
LAYER_1
 10
275.9426
 20
-0.4906
 40
3.4
  0
CIRCLE
  8
LAYER_1
 10
275.9426
 20
-0.4906
 40
1.3
  0
CIRCLE
  8
LAYER_1
 10
275.9426
 20
-0.4906
 40
0.8
  0
LINE
  8
LAYER_1
 10
275.1426
 20
-0.4906
 11
276.7426
 21
-0.4906
  0
LINE
  8
LAYER_1
 10
275.9426
 20
0.3094
 11
275.9426
 21
-1.2906
  0
LINE
  8
LAYER_1
 10
284.4426
 20
8.1094
 11
284.4426
 21
6.9094
  0
LINE
  8
LAYER_1
 10
284.4426
 20
6.9094
 11
285.2426
 21
6.9094
  0
LINE
  8
LAYER_1
 10
285.2426
 20
6.9094
 11
285.2426
 21
8.1094
  0
LINE
  8
LAYER_1
 10
285.2426
 20
8.1094
 11
286.4426
 21
8.1094
  0
LINE
  8
LAYER_1
 10
286.4426
 20
8.1094
 11
286.4426
 21
8.9094
  0
LINE
  8
LAYER_1
 10
286.4426
 20
8.9094
 11
285.2426
 21
8.9094
  0
LINE
  8
LAYER_1
 10
285.2426
 20
8.9094
 11
285.2426
 21
10.1094
  0
LINE
  8
LAYER_1
 10
285.2426
 20
10.1094
 11
284.4426
 21
10.1094
  0
LINE
  8
LAYER_1
 10
284.4426
 20
10.1094
 11
284.4426
 21
8.9094
  0
LINE
  8
LAYER_1
 10
284.4426
 20
8.9094
 11
283.2426
 21
8.9094
  0
LINE
  8
LAYER_1
 10
283.2426
 20
8.9094
 11
283.2426
 21
8.1094
  0
LINE
  8
LAYER_1
 10
283.2426
 20
8.1094
 11
284.4426
 21
8.1094
  0
LINE
  8
LAYER_1
 10
266.6426
 20
8.1094
 11
266.6426
 21
6.9094
  0
LINE
  8
LAYER_1
 10
266.6426
 20
6.9094
 11
267.4426
 21
6.9094
  0
LINE
  8
LAYER_1
 10
267.4426
 20
6.9094
 11
267.4426
 21
8.1094
  0
LINE
  8
LAYER_1
 10
267.4426
 20
8.1094
 11
268.6426
 21
8.1094
  0
LINE
  8
LAYER_1
 10
268.6426
 20
8.1094
 11
268.6426
 21
8.9094
  0
LINE
  8
LAYER_1
 10
268.6426
 20
8.9094
 11
267.4426
 21
8.9094
  0
LINE
  8
LAYER_1
 10
267.4426
 20
8.9094
 11
267.4426
 21
10.1094
  0
LINE
  8
LAYER_1
 10
267.4426
 20
10.1094
 11
266.6426
 21
10.1094
  0
LINE
  8
LAYER_1
 10
266.6426
 20
10.1094
 11
266.6426
 21
8.9094
  0
LINE
  8
LAYER_1
 10
266.6426
 20
8.9094
 11
265.4426
 21
8.9094
  0
LINE
  8
LAYER_1
 10
265.4426
 20
8.9094
 11
265.4426
 21
8.1094
  0
LINE
  8
LAYER_1
 10
265.4426
 20
8.1094
 11
266.6426
 21
8.1094
  0
LINE
  8
LAYER_1
 10
284.4426
 20
-9.8906
 11
284.4426
 21
-11.0906
  0
LINE
  8
LAYER_1
 10
284.4426
 20
-11.0906
 11
285.2426
 21
-11.0906
  0
LINE
  8
LAYER_1
 10
285.2426
 20
-11.0906
 11
285.2426
 21
-9.8906
  0
LINE
  8
LAYER_1
 10
285.2426
 20
-9.8906
 11
286.4426
 21
-9.8906
  0
LINE
  8
LAYER_1
 10
286.4426
 20
-9.8906
 11
286.4426
 21
-9.0906
  0
LINE
  8
LAYER_1
 10
286.4426
 20
-9.0906
 11
285.2426
 21
-9.0906
  0
LINE
  8
LAYER_1
 10
285.2426
 20
-9.0906
 11
285.2426
 21
-7.8906
  0
LINE
  8
LAYER_1
 10
285.2426
 20
-7.8906
 11
284.4426
 21
-7.8906
  0
LINE
  8
LAYER_1
 10
284.4426
 20
-7.8906
 11
284.4426
 21
-9.0906
  0
LINE
  8
LAYER_1
 10
284.4426
 20
-9.0906
 11
283.2426
 21
-9.0906
  0
LINE
  8
LAYER_1
 10
283.2426
 20
-9.0906
 11
283.2426
 21
-9.8906
  0
LINE
  8
LAYER_1
 10
283.2426
 20
-9.8906
 11
284.4426
 21
-9.8906
  0
LINE
  8
LAYER_1
 10
266.6426
 20
-9.8906
 11
266.6426
 21
-11.0906
  0
LINE
  8
LAYER_1
 10
266.6426
 20
-11.0906
 11
267.4426
 21
-11.0906
  0
LINE
  8
LAYER_1
 10
267.4426
 20
-11.0906
 11
267.4426
 21
-9.8906
  0
LINE
  8
LAYER_1
 10
267.4426
 20
-9.8906
 11
268.6426
 21
-9.8906
  0
LINE
  8
LAYER_1
 10
268.6426
 20
-9.8906
 11
268.6426
 21
-9.0906
  0
LINE
  8
LAYER_1
 10
268.6426
 20
-9.0906
 11
267.4426
 21
-9.0906
  0
LINE
  8
LAYER_1
 10
267.4426
 20
-9.0906
 11
267.4426
 21
-7.8906
  0
LINE
  8
LAYER_1
 10
267.4426
 20
-7.8906
 11
266.6426
 21
-7.8906
  0
LINE
  8
LAYER_1
 10
266.6426
 20
-7.8906
 11
266.6426
 21
-9.0906
  0
LINE
  8
LAYER_1
 10
266.6426
 20
-9.0906
 11
265.4426
 21
-9.0906
  0
LINE
  8
LAYER_1
 10
265.4426
 20
-9.0906
 11
265.4426
 21
-9.8906
  0
LINE
  8
LAYER_1
 10
265.4426
 20
-9.8906
 11
266.6426
 21
-9.8906
  0
LINE
  8
LAYER_1
 10
287.3426
 20
12.0094
 11
299.3426
 21
12.0094
  0
LINE
  8
LAYER_1
 10
299.3426
 20
12.0094
 11
299.3426
 21
13.6094
  0
LINE
  8
LAYER_1
 10
299.3426
 20
13.6094
 11
287.3426
 21
13.6094
  0
LINE
  8
LAYER_1
 10
287.3426
 20
13.6094
 11
287.3426
 21
12.0094
  0
LINE
  8
LAYER_1
 10
290.3426
 20
13.6094
 11
296.3426
 21
13.6094
  0
LINE
  8
LAYER_1
 10
296.3426
 20
13.6094
 11
296.3426
 21
15.6094
  0
LINE
  8
LAYER_1
 10
296.3426
 20
15.6094
 11
290.3426
 21
15.6094
  0
LINE
  8
LAYER_1
 10
290.3426
 20
15.6094
 11
290.3426
 21
13.6094
  0
LINE
  8
LAYER_1
 10
297.8426
 20
15.6094
 11
288.8426
 21
15.6094
  0
ARC
  8
LAYER_1
 10
290.5985
 20
17.1124
 40
2.3113
 50
180.0014583
 51
220.5623474
  0
ARC
  8
LAYER_1
 10
290.5985
 20
17.1123
 40
2.3113
 50
96.35597807
 51
180.0009117
  0
LINE
  8
LAYER_1
 10
290.3426
 20
19.4094
 11
296.3426
 21
19.4094
  0
ARC
  8
LAYER_1
 10
296.0867
 20
17.1123
 40
2.3113
 50
359.9993186
 51
83.64379163
  0
ARC
  8
LAYER_1
 10
296.0867
 20
17.1124
 40
2.3113
 50
319.4378034
 51
359.998391
  0
LINE
  8
LAYER_1
 10
340.8924
 20
99.5361
 11
365.8924
 21
99.5361
  0
LINE
  8
LAYER_1
 10
365.8924
 20
99.5361
 11
365.8924
 21
74.5361
  0
LINE
  8
LAYER_1
 10
365.8924
 20
74.5361
 11
340.8924
 21
74.5361
  0
LINE
  8
LAYER_1
 10
340.8924
 20
74.5361
 11
340.8924
 21
99.5361
  0
LINE
  8
LAYER_1
 10
365.8924
 20
99.5361
 11
368.8924
 21
99.5361
  0
LINE
  8
LAYER_1
 10
368.8924
 20
99.5361
 11
368.8924
 21
74.5361
  0
LINE
  8
LAYER_1
 10
368.8924
 20
74.5361
 11
365.8924
 21
74.5361
  0
LINE
  8
LAYER_1
 10
365.8924
 20
74.5361
 11
365.8924
 21
99.5361
  0
LINE
  8
LAYER_1
 10
365.8924
 20
89.4361
 11
368.8924
 21
89.4361
  0
LINE
  8
LAYER_1
 10
365.8924
 20
84.6361
 11
368.8924
 21
84.6361
  0
LINE
  8
LAYER_1
 10
365.8924
 20
84.0361
 11
368.8924
 21
84.0361
  0
LINE
  8
LAYER_1
 10
365.8924
 20
90.0361
 11
368.8924
 21
90.0361
  0
LINE
  8
LAYER_1
 10
340.7924
 20
72.4361
 11
365.9924
 21
72.4361
  0
LINE
  8
LAYER_1
 10
365.9924
 20
72.4361
 11
365.9924
 21
74.5361
  0
LINE
  8
LAYER_1
 10
365.9924
 20
74.5361
 11
340.7924
 21
74.5361
  0
LINE
  8
LAYER_1
 10
340.7924
 20
74.5361
 11
340.7924
 21
72.4361
  0
LINE
  8
LAYER_1
 10
344.6924
 20
69.4361
 11
344.6924
 21
64.4361
  0
LINE
  8
LAYER_1
 10
344.6924
 20
64.4361
 11
362.0924
 21
64.4361
  0
LINE
  8
LAYER_1
 10
362.0924
 20
64.4361
 11
362.0924
 21
69.4361
  0
LINE
  8
LAYER_1
 10
363.2924
 20
47.4361
 11
343.4924
 21
47.4361
  0
LINE
  8
LAYER_1
 10
343.4924
 20
47.4361
 11
343.4924
 21
52.4361
  0
LINE
  8
LAYER_1
 10
343.4924
 20
52.4361
 11
363.2924
 21
52.4361
  0
LINE
  8
LAYER_1
 10
363.2924
 20
52.4361
 11
363.2924
 21
47.4361
  0
LINE
  8
LAYER_1
 10
342.8924
 20
52.4361
 11
363.8924
 21
52.4361
  0
LINE
  8
LAYER_1
 10
363.8924
 20
52.4361
 11
363.8924
 21
62.4361
  0
LINE
  8
LAYER_1
 10
363.8924
 20
62.4361
 11
342.8924
 21
62.4361
  0
LINE
  8
LAYER_1
 10
342.8924
 20
62.4361
 11
342.8924
 21
52.4361
  0
LINE
  8
LAYER_1
 10
343.4924
 20
62.4361
 11
363.2924
 21
62.4361
  0
LINE
  8
LAYER_1
 10
363.2924
 20
62.4361
 11
363.2924
 21
64.4361
  0
LINE
  8
LAYER_1
 10
363.2924
 20
64.4361
 11
343.4924
 21
64.4361
  0
LINE
  8
LAYER_1
 10
343.4924
 20
64.4361
 11
343.4924
 21
62.4361
  0
LINE
  8
LAYER_1
 10
342.8924
 20
52.4361
 11
346.6158
 21
62.4361
  0
LINE
  8
LAYER_1
 10
356.1689
 20
62.4361
 11
359.8924
 21
52.4361
  0
LINE
  8
LAYER_1
 10
359.8924
 20
52.4361
 11
363.6158
 21
62.4361
  0
LINE
  8
LAYER_1
 10
355.1689
 20
62.4361
 11
358.8924
 21
52.4361
  0
LINE
  8
LAYER_1
 10
358.8924
 20
52.4361
 11
362.6158
 21
62.4361
  0
LINE
  8
LAYER_1
 10
354.1689
 20
62.4361
 11
357.8924
 21
52.4361
  0
LINE
  8
LAYER_1
 10
357.8924
 20
52.4361
 11
361.6158
 21
62.4361
  0
LINE
  8
LAYER_1
 10
353.1689
 20
62.4361
 11
356.8924
 21
52.4361
  0
LINE
  8
LAYER_1
 10
356.8924
 20
52.4361
 11
360.6158
 21
62.4361
  0
LINE
  8
LAYER_1
 10
352.1689
 20
62.4361
 11
355.8924
 21
52.4361
  0
LINE
  8
LAYER_1
 10
355.8924
 20
52.4361
 11
359.6158
 21
62.4361
  0
LINE
  8
LAYER_1
 10
351.1689
 20
62.4361
 11
354.8924
 21
52.4361
  0
LINE
  8
LAYER_1
 10
354.8924
 20
52.4361
 11
358.6158
 21
62.4361
  0
LINE
  8
LAYER_1
 10
350.1689
 20
62.4361
 11
353.8924
 21
52.4361
  0
LINE
  8
LAYER_1
 10
353.8924
 20
52.4361
 11
357.6158
 21
62.4361
  0
LINE
  8
LAYER_1
 10
349.1689
 20
62.4361
 11
352.8924
 21
52.4361
  0
LINE
  8
LAYER_1
 10
352.8924
 20
52.4361
 11
356.6158
 21
62.4361
  0
LINE
  8
LAYER_1
 10
348.1689
 20
62.4361
 11
351.8924
 21
52.4361
  0
LINE
  8
LAYER_1
 10
351.8924
 20
52.4361
 11
355.6158
 21
62.4361
  0
LINE
  8
LAYER_1
 10
347.1689
 20
62.4361
 11
350.8924
 21
52.4361
  0
LINE
  8
LAYER_1
 10
350.8924
 20
52.4361
 11
354.6158
 21
62.4361
  0
LINE
  8
LAYER_1
 10
346.1689
 20
62.4361
 11
349.8924
 21
52.4361
  0
LINE
  8
LAYER_1
 10
349.8924
 20
52.4361
 11
353.6158
 21
62.4361
  0
LINE
  8
LAYER_1
 10
345.1689
 20
62.4361
 11
348.8924
 21
52.4361
  0
LINE
  8
LAYER_1
 10
348.8924
 20
52.4361
 11
352.6158
 21
62.4361
  0
LINE
  8
LAYER_1
 10
344.1689
 20
62.4361
 11
347.8924
 21
52.4361
  0
LINE
  8
LAYER_1
 10
347.8924
 20
52.4361
 11
351.6158
 21
62.4361
  0
LINE
  8
LAYER_1
 10
343.1689
 20
62.4361
 11
346.8924
 21
52.4361
  0
LINE
  8
LAYER_1
 10
346.8924
 20
52.4361
 11
350.6158
 21
62.4361
  0
LINE
  8
LAYER_1
 10
349.6158
 20
62.4361
 11
345.8924
 21
52.4361
  0
LINE
  8
LAYER_1
 10
345.8924
 20
52.4361
 11
342.8924
 21
60.4932
  0
LINE
  8
LAYER_1
 10
342.8924
 20
60.4932
 11
343.6158
 21
62.4361
  0
LINE
  8
LAYER_1
 10
363.8924
 20
52.4361
 11
360.1689
 21
62.4361
  0
LINE
  8
LAYER_1
 10
361.1689
 20
62.4361
 11
363.8924
 21
55.1218
  0
LINE
  8
LAYER_1
 10
363.8924
 20
55.1218
 11
362.8924
 21
52.4361
  0
LINE
  8
LAYER_1
 10
362.8924
 20
52.4361
 11
359.1689
 21
62.4361
  0
LINE
  8
LAYER_1
 10
362.1689
 20
62.4361
 11
363.8924
 21
57.8075
  0
LINE
  8
LAYER_1
 10
363.8924
 20
57.8075
 11
361.8924
 21
52.4361
  0
LINE
  8
LAYER_1
 10
361.8924
 20
52.4361
 11
358.1689
 21
62.4361
  0
LINE
  8
LAYER_1
 10
344.6158
 20
62.4361
 11
342.8924
 21
57.8075
  0
LINE
  8
LAYER_1
 10
342.8924
 20
57.8075
 11
344.8924
 21
52.4361
  0
LINE
  8
LAYER_1
 10
344.8924
 20
52.4361
 11
348.6158
 21
62.4361
  0
LINE
  8
LAYER_1
 10
345.6158
 20
62.4361
 11
342.8924
 21
55.1218
  0
LINE
  8
LAYER_1
 10
342.8924
 20
55.1218
 11
343.8924
 21
52.4361
  0
LINE
  8
LAYER_1
 10
343.8924
 20
52.4361
 11
347.6158
 21
62.4361
  0
LINE
  8
LAYER_1
 10
364.9924
 20
72.4361
 11
359.5924
 21
72.4361
  0
LINE
  8
LAYER_1
 10
359.5924
 20
72.4361
 11
359.5924
 21
71.9361
  0
LINE
  8
LAYER_1
 10
359.5924
 20
71.9361
 11
364.9924
 21
71.9361
  0
LINE
  8
LAYER_1
 10
364.9924
 20
71.9361
 11
364.9924
 21
72.4361
  0
LINE
  8
LAYER_1
 10
364.4924
 20
71.9361
 11
360.0924
 21
71.9361
  0
ARC
  8
LAYER_1
 10
360.0924
 20
71.4361
 40
0.5
 50
89.99838608
 51
180.0016139
  0
LINE
  8
LAYER_1
 10
359.5924
 20
71.4361
 11
359.5924
 21
70.9361
  0
ARC
  8
LAYER_1
 10
361.0924
 20
70.9361
 40
1.5
 50
179.9989214
 51
270.0010785
  0
LINE
  8
LAYER_1
 10
361.0924
 20
69.4361
 11
363.4924
 21
69.4361
  0
ARC
  8
LAYER_1
 10
363.4924
 20
70.9361
 40
1.5
 50
270.000538
 51
359.999462
  0
LINE
  8
LAYER_1
 10
364.9924
 20
70.9361
 11
364.9924
 21
71.4361
  0
ARC
  8
LAYER_1
 10
364.4924
 20
71.4361
 40
0.5
 50
0.003235324395
 51
89.99676466
  0
LINE
  8
LAYER_1
 10
347.1924
 20
72.4361
 11
341.7924
 21
72.4361
  0
LINE
  8
LAYER_1
 10
341.7924
 20
72.4361
 11
341.7924
 21
71.9361
  0
LINE
  8
LAYER_1
 10
341.7924
 20
71.9361
 11
347.1924
 21
71.9361
  0
LINE
  8
LAYER_1
 10
347.1924
 20
71.9361
 11
347.1924
 21
72.4361
  0
LINE
  8
LAYER_1
 10
346.6924
 20
71.9361
 11
342.2924
 21
71.9361
  0
ARC
  8
LAYER_1
 10
342.2924
 20
71.4361
 40
0.5
 50
89.99838608
 51
180.0016139
  0
LINE
  8
LAYER_1
 10
341.7924
 20
71.4361
 11
341.7924
 21
70.9361
  0
ARC
  8
LAYER_1
 10
343.2924
 20
70.9361
 40
1.5
 50
179.9989214
 51
270.0010785
  0
LINE
  8
LAYER_1
 10
343.2924
 20
69.4361
 11
345.6924
 21
69.4361
  0
ARC
  8
LAYER_1
 10
345.6924
 20
70.9361
 40
1.5
 50
270.000538
 51
359.999462
  0
LINE
  8
LAYER_1
 10
347.1924
 20
70.9361
 11
347.1924
 21
71.4361
  0
ARC
  8
LAYER_1
 10
346.6924
 20
71.4361
 40
0.5
 50
0.003235324422
 51
89.99676466
  0
LINE
  8
LAYER_1
 10
363.1689
 20
62.4361
 11
363.8924
 21
60.4932
  0
LINE
  8
LAYER_1
 10
363.8924
 20
60.4932
 11
360.8924
 21
52.4361
  0
LINE
  8
LAYER_1
 10
360.8924
 20
52.4361
 11
357.1689
 21
62.4361
  0
LINE
  8
LAYER_1
 10
340.7924
 20
99.5361
 11
365.9924
 21
99.5361
  0
LINE
  8
LAYER_1
 10
365.9924
 20
99.5361
 11
365.9924
 21
101.6361
  0
LINE
  8
LAYER_1
 10
365.9924
 20
101.6361
 11
340.7924
 21
101.6361
  0
LINE
  8
LAYER_1
 10
340.7924
 20
101.6361
 11
340.7924
 21
99.5361
  0
LINE
  8
LAYER_1
 10
347.0924
 20
110.0361
 11
359.8924
 21
110.0361
  0
LINE
  8
LAYER_1
 10
359.8924
 20
110.0361
 11
359.8924
 21
111.5361
  0
LINE
  8
LAYER_1
 10
359.8924
 20
111.5361
 11
347.0924
 21
111.5361
  0
LINE
  8
LAYER_1
 10
347.0924
 20
111.5361
 11
347.0924
 21
110.0361
  0
LINE
  8
LAYER_1
 10
347.0924
 20
116.9361
 11
359.8924
 21
116.9361
  0
LINE
  8
LAYER_1
 10
359.8924
 20
116.9361
 11
359.8924
 21
118.4361
  0
LINE
  8
LAYER_1
 10
359.8924
 20
118.4361
 11
347.0924
 21
118.4361
  0
LINE
  8
LAYER_1
 10
347.0924
 20
118.4361
 11
347.0924
 21
116.9361
  0
LINE
  8
LAYER_1
 10
345.5924
 20
116.9361
 11
361.3924
 21
116.9361
  0
LINE
  8
LAYER_1
 10
361.3924
 20
116.9361
 11
361.3924
 21
111.5361
  0
LINE
  8
LAYER_1
 10
361.3924
 20
111.5361
 11
345.5924
 21
111.5361
  0
LINE
  8
LAYER_1
 10
345.5924
 20
111.5361
 11
345.5924
 21
116.9361
  0
LINE
  8
LAYER_1
 10
361.2924
 20
104.6361
 11
361.2924
 21
110.0361
  0
LINE
  8
LAYER_1
 10
361.2924
 20
110.0361
 11
345.4924
 21
110.0361
  0
LINE
  8
LAYER_1
 10
345.4924
 20
110.0361
 11
345.4924
 21
104.6361
  0
LINE
  8
LAYER_1
 10
345.4924
 20
101.6361
 11
361.2924
 21
101.6361
  0
LINE
  8
LAYER_1
 10
345.5924
 20
111.5361
 11
361.3924
 21
112.9735
  0
LINE
  8
LAYER_1
 10
345.5924
 20
112.5361
 11
361.3924
 21
113.9735
  0
LINE
  8
LAYER_1
 10
345.5924
 20
113.5361
 11
361.3924
 21
114.9735
  0
LINE
  8
LAYER_1
 10
345.5924
 20
114.5361
 11
361.3924
 21
115.9735
  0
LINE
  8
LAYER_1
 10
345.5924
 20
115.5361
 11
360.9807
 21
116.9361
  0
LINE
  8
LAYER_1
 10
345.5924
 20
116.5361
 11
349.989
 21
116.9361
  0
LINE
  8
LAYER_1
 10
356.584
 20
111.5361
 11
361.3924
 21
111.9735
  0
LINE
  8
LAYER_1
 10
341.7924
 20
101.6361
 11
347.1924
 21
101.6361
  0
LINE
  8
LAYER_1
 10
347.1924
 20
101.6361
 11
347.1924
 21
102.1361
  0
LINE
  8
LAYER_1
 10
347.1924
 20
102.1361
 11
341.7924
 21
102.1361
  0
LINE
  8
LAYER_1
 10
341.7924
 20
102.1361
 11
341.7924
 21
101.6361
  0
LINE
  8
LAYER_1
 10
342.2924
 20
102.1361
 11
346.6924
 21
102.1361
  0
ARC
  8
LAYER_1
 10
346.6924
 20
102.6361
 40
0.5
 50
270.0016142
 51
359.9983858
  0
LINE
  8
LAYER_1
 10
347.1924
 20
102.6361
 11
347.1924
 21
103.1361
  0
ARC
  8
LAYER_1
 10
345.6924
 20
103.1361
 40
1.5
 50
0.001078479809
 51
89.99892151
  0
LINE
  8
LAYER_1
 10
345.6924
 20
104.6361
 11
343.2924
 21
104.6361
  0
ARC
  8
LAYER_1
 10
343.2924
 20
103.1361
 40
1.5
 50
89.999462
 51
180.000538
  0
LINE
  8
LAYER_1
 10
341.7924
 20
103.1361
 11
341.7924
 21
102.6361
  0
ARC
  8
LAYER_1
 10
342.2924
 20
102.6361
 40
0.5
 50
179.9967644
 51
270.0032356
  0
LINE
  8
LAYER_1
 10
359.5924
 20
101.6361
 11
364.9924
 21
101.6361
  0
LINE
  8
LAYER_1
 10
364.9924
 20
101.6361
 11
364.9924
 21
102.1361
  0
LINE
  8
LAYER_1
 10
364.9924
 20
102.1361
 11
359.5924
 21
102.1361
  0
LINE
  8
LAYER_1
 10
359.5924
 20
102.1361
 11
359.5924
 21
101.6361
  0
LINE
  8
LAYER_1
 10
360.0924
 20
102.1361
 11
364.4924
 21
102.1361
  0
ARC
  8
LAYER_1
 10
364.4924
 20
102.6361
 40
0.5
 50
270.0016142
 51
359.9983858
  0
LINE
  8
LAYER_1
 10
364.9924
 20
102.6361
 11
364.9924
 21
103.1361
  0
ARC
  8
LAYER_1
 10
363.4924
 20
103.1361
 40
1.5
 50
0.001078479751
 51
89.99892151
  0
LINE
  8
LAYER_1
 10
363.4924
 20
104.6361
 11
361.0924
 21
104.6361
  0
ARC
  8
LAYER_1
 10
361.0924
 20
103.1361
 40
1.5
 50
89.999462
 51
180.000538
  0
LINE
  8
LAYER_1
 10
359.5924
 20
103.1361
 11
359.5924
 21
102.6361
  0
ARC
  8
LAYER_1
 10
360.0924
 20
102.6361
 40
0.5
 50
179.9967644
 51
270.0032356
  0
LINE
  8
LAYER_1
 10
340.8924
 20
81.0361
 11
340.8924
 21
93.0361
  0
LINE
  8
LAYER_1
 10
340.8924
 20
93.0361
 11
339.2924
 21
93.0361
  0
LINE
  8
LAYER_1
 10
339.2924
 20
93.0361
 11
339.2924
 21
81.0361
  0
LINE
  8
LAYER_1
 10
339.2924
 20
81.0361
 11
340.8924
 21
81.0361
  0
LINE
  8
LAYER_1
 10
339.2924
 20
84.0361
 11
339.2924
 21
90.0361
  0
LINE
  8
LAYER_1
 10
339.2924
 20
90.0361
 11
337.2924
 21
90.0361
  0
LINE
  8
LAYER_1
 10
337.2924
 20
90.0361
 11
337.2924
 21
84.0361
  0
LINE
  8
LAYER_1
 10
337.2924
 20
84.0361
 11
339.2924
 21
84.0361
  0
LINE
  8
LAYER_1
 10
337.2924
 20
82.5361
 11
337.2924
 21
91.5361
  0
ARC
  8
LAYER_1
 10
335.7894
 20
89.7802
 40
2.3113
 50
49.43797115
 51
90.00070218
  0
ARC
  8
LAYER_1
 10
335.7895
 20
89.7802
 40
2.3113
 50
90.00137911
 51
173.6442101
  0
LINE
  8
LAYER_1
 10
333.4924
 20
90.0361
 11
333.4924
 21
84.0361
  0
ARC
  8
LAYER_1
 10
335.7894
 20
84.2919
 40
2.3112
 50
186.3554413
 51
269.9989695
  0
ARC
  8
LAYER_1
 10
335.7894
 20
84.292
 40
2.3113
 50
269.9990697
 51
310.562257
  0
INSERT
  8
LAYER_1
  2
AIGNBL01010022
 10
0
 20
0
 30
0
  0
INSERT
  8
LAYER_1
  2
AIGNBL01010023
 10
0
 20
0
 30
0
  0
INSERT
  8
LAYER_1
  2
AIGNBL01010024
 10
0
 20
0
 30
0
  0
INSERT
  8
LAYER_1
  2
AIGNBL01010025
 10
0
 20
0
 30
0
  0
INSERT
  8
LAYER_1
  2
AIGNBL01010026
 10
0
 20
0
 30
0
  0
INSERT
  8
LAYER_1
  2
AIGNBL01010027
 10
0
 20
0
 30
0
  0
INSERT
  8
LAYER_1
  2
AIGNBL01010028
 10
0
 20
0
 30
0
  0
INSERT
  8
LAYER_1
  2
AIGNBL01010029
 10
0
 20
0
 30
0
  0
INSERT
  8
LAYER_1
  2
AIGNBL0101002A
 10
0
 20
0
 30
0
  0
INSERT
  8
LAYER_1
  2
AIGNBL0101002B
 10
0
 20
0
 30
0
  0
INSERT
  8
LAYER_1
  2
AIGNBL0101002C
 10
0
 20
0
 30
0
  0
INSERT
  8
LAYER_1
  2
AIGNBL0101002D
 10
0
 20
0
 30
0
  0
INSERT
  8
LAYER_1
  2
AIGNBL0101002E
 10
0
 20
0
 30
0
  0
INSERT
  8
LAYER_1
  2
AIGNBL0101002F
 10
0
 20
0
 30
0
  0
INSERT
  8
LAYER_1
  2
AIGNBL01010030
 10
0
 20
0
 30
0
  0
INSERT
  8
LAYER_1
  2
AIGNBL01010031
 10
0
 20
0
 30
0
  0
INSERT
  8
LAYER_1
  2
AIGNBL01010032
 10
0
 20
0
 30
0
  0
INSERT
  8
LAYER_1
  2
AIGNBL01010033
 10
0
 20
0
 30
0
  0
INSERT
  8
LAYER_1
  2
AIGNBL01010034
 10
0
 20
0
 30
0
  0
INSERT
  8
LAYER_1
  2
AIGNBL01010035
 10
0
 20
0
 30
0
  0
INSERT
  8
LAYER_1
  2
AIGNBL01010036
 10
0
 20
0
 30
0
  0
ENDSEC
  0
EOF
