  0
SECTION
  2
HEADER
  9
$ACADVER
  1
AC1009
  9
$LUNITS
 70
2
  9
$LUPREC
 70
4
  9
$LTSCALE
 40
1.0
  9
$EXTMIN
 10
124.874
 20
-66.6014
 30
0
  9
$EXTMAX
 10
469.2192
 20
169.592
 30
0
  0
ENDSEC
  0
SECTION
  2
TABLES
  0
TABLE
  2
LTYPE
 70
256
  0
ENDTAB
  0
TABLE
  2
LAYER
 70
4
  0
LAYER
  2
LAYER_1
 70
64
 62
7
  6
CONTINUOUS
  0
LAYER
  2
LAYER_2
 70
64
 62
7
  6
CONTINUOUS
  0
LAYER
  2
LAYER_3
 70
64
 62
7
  6
CONTINUOUS
  0
LAYER
  2
LAYER_4
 70
64
 62
7
  6
CONTINUOUS
  0
ENDTAB
  0
TABLE
  2
STYLE
 70
6
  0
STYLE
  2
STANDARD
 70
0
 40
0
 50
0
 71
0
 41
0
 42
0
  3
TXT
  4
BIGFONT
  0
ENDTAB
  0
ENDSEC
  0
SECTION
  2
BLOCKS
  0
BLOCK
  8
LAYER_1
  2
AIGNBL01030005
 70
64
 10
0
 20
0
 30
0
  3
AIGNBL01030005
  0
LINE
  8
LAYER_1
 10
351.6608
 20
-18.6827
 11
351.6608
 21
-24.6402
  0
LINE
  8
LAYER_1
 10
351.6608
 20
-24.6402
 11
352.6854
 21
-24.6402
  0
LINE
  8
LAYER_1
 10
352.6854
 20
-24.6402
 11
352.6854
 21
-24.1943
  0
LINE
  8
LAYER_1
 10
352.6854
 20
-24.1943
 11
355.3631
 21
-24.1943
  0
LINE
  8
LAYER_1
 10
355.3631
 20
-24.1943
 11
355.3631
 21
-24.6402
  0
LINE
  8
LAYER_1
 10
355.3631
 20
-24.6402
 11
356.4356
 21
-24.6402
  0
LINE
  8
LAYER_1
 10
356.4356
 20
-24.6402
 11
356.4356
 21
-18.6827
  0
LINE
  8
LAYER_1
 10
356.4356
 20
-18.6827
 11
351.6608
 21
-18.6827
  0
LINE
  8
LAYER_1
 10
355.3631
 20
-23.2015
 11
352.6854
 21
-23.2015
  0
LINE
  8
LAYER_1
 10
352.6854
 20
-23.2015
 11
352.6854
 21
-21.9114
  0
LINE
  8
LAYER_1
 10
352.6854
 20
-21.9114
 11
355.3631
 21
-21.9114
  0
LINE
  8
LAYER_1
 10
355.3631
 20
-21.9114
 11
355.3631
 21
-23.2015
  0
LINE
  8
LAYER_1
 10
355.3631
 20
-20.9388
 11
352.6854
 21
-20.9388
  0
LINE
  8
LAYER_1
 10
352.6854
 20
-20.9388
 11
352.6854
 21
-19.6756
  0
LINE
  8
LAYER_1
 10
352.6854
 20
-19.6756
 11
355.3631
 21
-19.6756
  0
LINE
  8
LAYER_1
 10
355.3631
 20
-19.6756
 11
355.3631
 21
-20.9388
  0
ENDBLK
  0
BLOCK
  8
LAYER_1
  2
AIGNBL01030006
 70
64
 10
0
 20
0
 30
0
  3
AIGNBL01030006
  0
LINE
  8
LAYER_1
 10
361.1949
 20
-20.6576
 11
363.0347
 21
-20.6576
  0
LINE
  8
LAYER_1
 10
363.0347
 20
-20.6576
 11
363.0347
 21
-19.7345
  0
LINE
  8
LAYER_1
 10
363.0347
 20
-19.7345
 11
360.6544
 21
-19.7345
  0
LINE
  8
LAYER_1
 10
360.6544
 20
-19.7345
 11
360.6544
 21
-18.5234
  0
LINE
  8
LAYER_1
 10
360.6544
 20
-18.5234
 11
359.708
 21
-18.5234
  0
LINE
  8
LAYER_1
 10
359.708
 20
-18.5234
 11
359.708
 21
-19.7345
  0
LINE
  8
LAYER_1
 10
359.708
 20
-19.7345
 11
357.3425
 21
-19.7345
  0
LINE
  8
LAYER_1
 10
357.3425
 20
-19.7345
 11
357.3425
 21
-20.6576
  0
LINE
  8
LAYER_1
 10
357.3425
 20
-20.6576
 11
359.1824
 21
-20.6576
  0
ARC
  8
LAYER_1
 10
352.8546
 20
-17.3096
 40
7.1589
 50
320.090402
 51
332.1165604
  0
ARC
  8
LAYER_1
 10
354.2211
 20
-18.4889
 40
5.3542
 50
306.7900371
 51
320.388939
  0
ARC
  8
LAYER_1
 10
355.363
 20
-19.9296
 40
3.517
 50
299.7830125
 51
305.949067
  0
ARC
  8
LAYER_1
 10
357.3634
 20
-22.9418
 40
0.2566
 50
189.0074096
 51
222.6984605
  0
ARC
  8
LAYER_1
 10
349.1372
 20
-31.2373
 40
11.4263
 50
41.87779049
 51
45.2975775
  0
ARC
  8
LAYER_1
 10
356.4824
 20
-24.3816
 40
1.3954
 50
27.02587099
 51
33.58032053
  0
ARC
  8
LAYER_1
 10
357.2054
 20
-22.7438
 40
1.1304
 50
297.3892127
 51
310.3878745
  0
ARC
  8
LAYER_1
 10
354.0201
 20
-18.4423
 40
6.4808
 50
307.1941606
 51
316.157217
  0
LINE
  8
LAYER_1
 10
358.6943
 20
-22.9314
 11
358.6943
 21
-23.6463
  0
LINE
  8
LAYER_1
 10
358.6943
 20
-23.6463
 11
359.708
 21
-23.6463
  0
LINE
  8
LAYER_1
 10
359.708
 20
-23.6463
 11
359.708
 21
-24.6876
  0
LINE
  8
LAYER_1
 10
359.708
 20
-24.6876
 11
360.6544
 21
-24.6876
  0
LINE
  8
LAYER_1
 10
360.6544
 20
-24.6876
 11
360.6544
 21
-23.6463
  0
LINE
  8
LAYER_1
 10
360.6544
 20
-23.6463
 11
361.6305
 21
-23.6463
  0
LINE
  8
LAYER_1
 10
361.6305
 20
-23.6463
 11
361.6305
 21
-22.8527
  0
ARC
  8
LAYER_1
 10
367.4883
 20
-17.4254
 40
7.9856
 50
222.815146
 51
229.3961219
  0
ARC
  8
LAYER_1
 10
363.3358
 20
-22.334
 40
1.5569
 50
227.8538365
 51
243.321749
  0
ARC
  8
LAYER_1
 10
365.3283
 20
-25.2866
 40
3.1117
 50
130.0133947
 51
149.8793337
  0
ARC
  8
LAYER_1
 10
366.7079
 20
-17.3889
 40
6.4681
 50
224.481624
 51
238.4919087
  0
ARC
  8
LAYER_1
 10
366.2472
 20
-18.041
 40
5.6842
 50
209.4847319
 51
223.0462119
  0
ARC
  8
LAYER_1
 10
368.6885
 20
-16.4658
 40
8.5864
 50
209.2217911
 51
210.6164294
  0
LINE
  8
LAYER_1
 10
359.708
 20
-22.7289
 11
358.8744
 21
-22.7289
  0
ARC
  8
LAYER_1
 10
349.8954
 20
-15.6235
 40
11.4502
 50
321.6442745
 51
327.3776932
  0
ARC
  8
LAYER_1
 10
358.7365
 20
-21.2021
 40
0.9988
 50
323.4874232
 51
346.5604038
  0
LINE
  8
LAYER_1
 10
359.708
 20
-21.4342
 11
359.708
 21
-22.7289
  0
LINE
  8
LAYER_1
 10
360.6544
 20
-22.7289
 11
360.6469
 21
-21.4287
  0
ARC
  8
LAYER_1
 10
362.6699
 20
-20.5916
 40
2.1894
 50
202.4797564
 51
213.37689
  0
ARC
  8
LAYER_1
 10
369.8576
 20
-15.9715
 40
10.7338
 50
212.8634514
 51
219.016696
  0
LINE
  8
LAYER_1
 10
361.5179
 20
-22.7289
 11
360.6544
 21
-22.7289
  0
ENDBLK
  0
BLOCK
  8
LAYER_1
  2
AIGNBL01030007
 70
64
 10
0
 20
0
 30
0
  3
AIGNBL01030007
  0
LINE
  8
LAYER_1
 10
364.3797
 20
-22.0502
 11
364.3797
 21
-24.7051
  0
LINE
  8
LAYER_1
 10
364.3797
 20
-24.7051
 11
365.2777
 21
-24.7051
  0
LINE
  8
LAYER_1
 10
365.2777
 20
-24.7051
 11
365.2777
 21
-24.5221
  0
LINE
  8
LAYER_1
 10
365.2777
 20
-24.5221
 11
368.0042
 21
-24.5221
  0
LINE
  8
LAYER_1
 10
368.0042
 20
-24.5221
 11
368.0042
 21
-24.653
  0
LINE
  8
LAYER_1
 10
368.0042
 20
-24.653
 11
368.9475
 21
-24.653
  0
LINE
  8
LAYER_1
 10
368.9475
 20
-24.653
 11
368.9475
 21
-22.0502
  0
LINE
  8
LAYER_1
 10
368.9475
 20
-22.0502
 11
364.3797
 21
-22.0502
  0
LINE
  8
LAYER_1
 10
365.2777
 20
-22.5871
 11
366.1759
 21
-22.5871
  0
LINE
  8
LAYER_1
 10
366.1759
 20
-22.5871
 11
366.1759
 21
-23.0127
  0
LINE
  8
LAYER_1
 10
366.1759
 20
-23.0127
 11
365.2777
 21
-23.0127
  0
LINE
  8
LAYER_1
 10
365.2777
 20
-23.0127
 11
365.2777
 21
-22.5871
  0
LINE
  8
LAYER_1
 10
366.1822
 20
-23.9775
 11
365.2712
 21
-23.9775
  0
LINE
  8
LAYER_1
 10
365.2712
 20
-23.9775
 11
365.2712
 21
-23.5714
  0
LINE
  8
LAYER_1
 10
365.2712
 20
-23.5714
 11
366.1822
 21
-23.5714
  0
LINE
  8
LAYER_1
 10
366.1822
 20
-23.5714
 11
366.1822
 21
-23.9775
  0
LINE
  8
LAYER_1
 10
368.0042
 20
-23.9775
 11
367.0933
 21
-23.9775
  0
LINE
  8
LAYER_1
 10
367.0933
 20
-23.9775
 11
367.0933
 21
-23.5714
  0
LINE
  8
LAYER_1
 10
367.0933
 20
-23.5714
 11
368.0042
 21
-23.5714
  0
LINE
  8
LAYER_1
 10
368.0042
 20
-23.5714
 11
368.0042
 21
-23.9775
  0
LINE
  8
LAYER_1
 10
368.0042
 20
-22.9955
 11
367.0933
 21
-22.9955
  0
LINE
  8
LAYER_1
 10
367.0933
 20
-22.9955
 11
367.0933
 21
-22.5895
  0
LINE
  8
LAYER_1
 10
367.0933
 20
-22.5895
 11
368.0042
 21
-22.5895
  0
LINE
  8
LAYER_1
 10
368.0042
 20
-22.5895
 11
368.0042
 21
-22.9955
  0
ENDBLK
  0
BLOCK
  8
LAYER_1
  2
AIGNBL01030008
 70
64
 10
0
 20
0
 30
0
  3
AIGNBL01030008
  0
LINE
  8
LAYER_1
 10
372.772
 20
-19.4737
 11
372.772
 21
-18.6171
  0
LINE
  8
LAYER_1
 10
372.772
 20
-18.6171
 11
370.123
 21
-18.6171
  0
LINE
  8
LAYER_1
 10
370.123
 20
-18.6171
 11
370.123
 21
-19.4737
  0
LINE
  8
LAYER_1
 10
370.123
 20
-19.4737
 11
370.8144
 21
-19.4737
  0
ARC
  8
LAYER_1
 10
356.4936
 20
-17.2671
 40
14.4898
 50
345.1345212
 51
351.2405475
  0
ARC
  8
LAYER_1
 10
366.8274
 20
-20.0374
 40
3.7912
 50
328.8660584
 51
345.5344938
  0
ARC
  8
LAYER_1
 10
368.4286
 20
-20.8831
 40
1.9862
 50
321.4032115
 51
325.8630795
  0
ARC
  8
LAYER_1
 10
368.3738
 20
-23.5064
 40
2.1211
 50
13.85472312
 51
40.74075759
  0
LINE
  8
LAYER_1
 10
370.4332
 20
-22.9985
 11
370.5883
 21
-22.7958
  0
LINE
  8
LAYER_1
 10
370.5883
 20
-22.7958
 11
370.5883
 21
-24.2866
  0
LINE
  8
LAYER_1
 10
370.5883
 20
-24.2866
 11
371.3958
 21
-24.2866
  0
LINE
  8
LAYER_1
 10
371.3958
 20
-24.2866
 11
371.3958
 21
-23.8159
  0
LINE
  8
LAYER_1
 10
371.3958
 20
-23.8159
 11
372.6301
 21
-23.8159
  0
LINE
  8
LAYER_1
 10
372.6301
 20
-23.8159
 11
372.6301
 21
-20.6966
  0
LINE
  8
LAYER_1
 10
372.6301
 20
-20.6966
 11
371.4669
 21
-20.6966
  0
ARC
  8
LAYER_1
 10
363.6989
 20
-18.5004
 40
8.0725
 50
344.2131719
 51
353.0750751
  0
LINE
  8
LAYER_1
 10
371.7125
 20
-19.4737
 11
372.772
 21
-19.4737
  0
LINE
  8
LAYER_1
 10
371.803
 20
-22.9919
 11
371.3958
 21
-22.9919
  0
LINE
  8
LAYER_1
 10
371.3958
 20
-22.9919
 11
371.3958
 21
-21.5204
  0
LINE
  8
LAYER_1
 10
371.3958
 20
-21.5204
 11
371.803
 21
-21.5204
  0
LINE
  8
LAYER_1
 10
371.803
 20
-21.5204
 11
371.803
 21
-22.9919
  0
ENDBLK
  0
BLOCK
  8
LAYER_1
  2
AIGNBL01030009
 70
64
 10
0
 20
0
 30
0
  3
AIGNBL01030009
  0
LINE
  8
LAYER_1
 10
375.5843
 20
-21.0627
 11
375.5843
 21
-19.4932
  0
LINE
  8
LAYER_1
 10
375.5843
 20
-19.4932
 11
376.0884
 21
-19.4932
  0
LINE
  8
LAYER_1
 10
376.0884
 20
-19.4932
 11
376.0884
 21
-18.6171
  0
LINE
  8
LAYER_1
 10
376.0884
 20
-18.6171
 11
372.89
 21
-18.6171
  0
LINE
  8
LAYER_1
 10
372.89
 20
-18.6171
 11
372.89
 21
-19.4932
  0
LINE
  8
LAYER_1
 10
372.89
 20
-19.4932
 11
373.323
 21
-19.4932
  0
LINE
  8
LAYER_1
 10
373.323
 20
-19.4932
 11
373.323
 21
-21.0627
  0
LINE
  8
LAYER_1
 10
373.323
 20
-21.0627
 11
372.7285
 21
-21.0627
  0
LINE
  8
LAYER_1
 10
372.7285
 20
-21.0627
 11
372.7285
 21
-21.9587
  0
LINE
  8
LAYER_1
 10
372.7285
 20
-21.9587
 11
373.2971
 21
-21.9587
  0
ARC
  8
LAYER_1
 10
370.5179
 20
-21.9112
 40
2.7796
 50
338.6726626
 51
359.0209934
  0
ARC
  8
LAYER_1
 10
370.2413
 20
-21.8534
 40
3.0587
 50
321.0652746
 51
339.5482703
  0
ARC
  8
LAYER_1
 10
370.471
 20
-22.0198
 40
2.7755
 50
312.3585029
 51
320.7571916
  0
ARC
  8
LAYER_1
 10
369.9128
 20
-28.2294
 40
4.8157
 50
49.01744843
 51
59.72034273
  0
ARC
  8
LAYER_1
 10
371.6288
 20
-22.7923
 40
2.3079
 50
308.6770083
 51
331.7345889
  0
ARC
  8
LAYER_1
 10
370.3348
 20
-22.0397
 40
3.8043
 50
330.9809007
 51
347.5160211
  0
ARC
  8
LAYER_1
 10
369.047
 20
-21.6624
 40
5.144
 50
346.5132457
 51
356.6977471
  0
LINE
  8
LAYER_1
 10
374.1825
 20
-21.9587
 11
374.6928
 21
-21.9587
  0
LINE
  8
LAYER_1
 10
374.6928
 20
-21.9587
 11
374.6928
 21
-24.5744
  0
LINE
  8
LAYER_1
 10
374.6928
 20
-24.5744
 11
375.5843
 21
-24.5744
  0
LINE
  8
LAYER_1
 10
375.5843
 20
-24.5744
 11
375.5843
 21
-21.9587
  0
LINE
  8
LAYER_1
 10
375.5843
 20
-21.9587
 11
376.1659
 21
-21.9587
  0
LINE
  8
LAYER_1
 10
376.1659
 20
-21.9587
 11
376.1659
 21
-21.0627
  0
LINE
  8
LAYER_1
 10
376.1659
 20
-21.0627
 11
375.5843
 21
-21.0627
  0
LINE
  8
LAYER_1
 10
374.6928
 20
-21.0627
 11
374.2017
 21
-21.0627
  0
LINE
  8
LAYER_1
 10
374.2017
 20
-21.0627
 11
374.2017
 21
-19.4932
  0
LINE
  8
LAYER_1
 10
374.2017
 20
-19.4932
 11
374.6928
 21
-19.4932
  0
LINE
  8
LAYER_1
 10
374.6928
 20
-19.4932
 11
374.6928
 21
-21.0627
  0
ENDBLK
  0
BLOCK
  8
LAYER_1
  2
AIGNBL0103000A
 70
64
 10
0
 20
0
 30
0
  3
AIGNBL0103000A
  0
ARC
  8
LAYER_1
 10
348.7749
 20
-19.7029
 40
1.9538
 50
288.5728851
 51
313.5589395
  0
ARC
  8
LAYER_1
 10
349.2926
 20
-20.3423
 40
1.1356
 50
316.8584967
 51
347.2193472
  0
ARC
  8
LAYER_1
 10
348.4589
 20
-20.1395
 40
1.9937
 50
346.8369842
 51
1.013916361
  0
ARC
  8
LAYER_1
 10
349.1937
 20
-20.1074
 40
1.2585
 50
0.1442876533
 51
45.47147913
  0
ARC
  8
LAYER_1
 10
348.6643
 20
-20.6066
 40
1.9859
 50
44.68437791
 51
67.71710381
  0
ARC
  8
LAYER_1
 10
348.4024
 20
-21.0891
 40
2.5323
 50
66.37394432
 51
86.05236678
  0
ARC
  8
LAYER_1
 10
348.5066
 20
-20.2975
 40
1.7361
 50
87.68383207
 51
89.78881595
  0
LINE
  8
LAYER_1
 10
348.513
 20
-18.5614
 11
345.5421
 21
-18.5614
  0
LINE
  8
LAYER_1
 10
345.5421
 20
-18.5614
 11
345.5421
 21
-21.8229
  0
LINE
  8
LAYER_1
 10
345.5421
 20
-21.8229
 11
347.3051
 21
-21.8229
  0
ARC
  8
LAYER_1
 10
347.331
 20
-23.4609
 40
1.6382
 50
64.35518167
 51
90.905835
  0
ARC
  8
LAYER_1
 10
347.5318
 20
-22.9615
 40
1.1016
 50
16.86565433
 51
62.52763861
  0
ARC
  8
LAYER_1
 10
347.7116
 20
-22.8924
 40
0.9097
 50
0.3657920727
 51
15.98793587
  0
LINE
  8
LAYER_1
 10
348.6212
 20
-22.8866
 11
348.6212
 21
-24.6193
  0
LINE
  8
LAYER_1
 10
348.6212
 20
-24.6193
 11
350.1657
 21
-24.6193
  0
LINE
  8
LAYER_1
 10
350.1657
 20
-24.6193
 11
350.1657
 21
-22.7905
  0
ARC
  8
LAYER_1
 10
348.1169
 20
-22.7474
 40
2.0493
 50
358.7953186
 51
12.5237444
  0
ARC
  8
LAYER_1
 10
349.1685
 20
-22.5087
 40
0.971
 50
12.22629885
 51
45.01434
  0
ARC
  8
LAYER_1
 10
348.9903
 20
-22.7785
 40
1.2894
 50
47.89284515
 51
71.60372221
  0
LINE
  8
LAYER_1
 10
348.3227
 20
-20.7712
 11
347.0847
 21
-20.7712
  0
LINE
  8
LAYER_1
 10
347.0847
 20
-20.7712
 11
347.0847
 21
-19.6173
  0
LINE
  8
LAYER_1
 10
347.0847
 20
-19.6173
 11
347.1208
 21
-19.6173
  0
LINE
  8
LAYER_1
 10
347.1208
 20
-19.6173
 11
348.3548
 21
-19.6173
  0
ARC
  8
LAYER_1
 10
348.314
 20
-20.2805
 40
0.6645
 50
46.60498432
 51
86.47787041
  0
ARC
  8
LAYER_1
 10
348.38
 20
-20.1655
 40
0.5365
 50
356.9384635
 51
43.29207093
  0
ARC
  8
LAYER_1
 10
348.3704
 20
-20.1929
 40
0.5453
 50
290.0148134
 51
359.8586292
  0
ARC
  8
LAYER_1
 10
348.194
 20
-19.8655
 40
0.9148
 50
278.085377
 51
293.3808036
  0
ENDBLK
  0
BLOCK
  8
LAYER_1
  2
AIGNBL0103000C
 70
64
 10
0
 20
0
 30
0
  3
AIGNBL0103000C
  0
LINE
  8
LAYER_1
 10
411.3587
 20
-23.705
 11
411.3587
 21
-20.7312
  0
LINE
  8
LAYER_1
 10
411.3587
 20
-20.7312
 11
411.6699
 21
-20.7312
  0
LINE
  8
LAYER_1
 10
411.6699
 20
-20.7312
 11
411.6699
 21
-24.2245
  0
LINE
  8
LAYER_1
 10
411.6699
 20
-24.2245
 11
411.3366
 21
-24.2245
  0
LINE
  8
LAYER_1
 10
411.3366
 20
-24.2245
 11
409.36
 21
-21.1074
  0
LINE
  8
LAYER_1
 10
409.36
 20
-21.1074
 11
409.36
 21
-24.2245
  0
LINE
  8
LAYER_1
 10
409.36
 20
-24.2245
 11
409.0492
 21
-24.2245
  0
LINE
  8
LAYER_1
 10
409.0492
 20
-24.2245
 11
409.0492
 21
-20.7312
  0
LINE
  8
LAYER_1
 10
409.0492
 20
-20.7312
 11
409.4487
 21
-20.7312
  0
LINE
  8
LAYER_1
 10
409.4487
 20
-20.7312
 11
411.3587
 21
-23.705
  0
ENDBLK
  0
BLOCK
  8
LAYER_1
  2
AIGNBL0103000D
 70
64
 10
0
 20
0
 30
0
  3
AIGNBL0103000D
  0
LINE
  8
LAYER_1
 10
412.7136
 20
-21.1074
 11
412.3586
 21
-21.1074
  0
LINE
  8
LAYER_1
 10
412.3586
 20
-21.1074
 11
412.3586
 21
-20.7312
  0
LINE
  8
LAYER_1
 10
412.3586
 20
-20.7312
 11
412.7136
 21
-20.7312
  0
LINE
  8
LAYER_1
 10
412.7136
 20
-20.7312
 11
412.7136
 21
-21.1074
  0
LINE
  8
LAYER_1
 10
412.6915
 20
-24.2245
 11
412.3807
 21
-24.2245
  0
LINE
  8
LAYER_1
 10
412.3807
 20
-24.2245
 11
412.3807
 21
-21.7702
  0
LINE
  8
LAYER_1
 10
412.3807
 20
-21.7702
 11
412.6915
 21
-21.7702
  0
LINE
  8
LAYER_1
 10
412.6915
 20
-21.7702
 11
412.6915
 21
-24.2245
  0
ENDBLK
  0
BLOCK
  8
LAYER_1
  2
AIGNBL0103000E
 70
64
 10
0
 20
0
 30
0
  3
AIGNBL0103000E
  0
LINE
  8
LAYER_1
 10
413.7132
 20
-24.2245
 11
413.4023
 21
-24.2245
  0
LINE
  8
LAYER_1
 10
413.4023
 20
-24.2245
 11
413.4023
 21
-20.7312
  0
LINE
  8
LAYER_1
 10
413.4023
 20
-20.7312
 11
413.7132
 21
-20.7312
  0
LINE
  8
LAYER_1
 10
413.7132
 20
-20.7312
 11
413.7132
 21
-22.2719
  0
ARC
  8
LAYER_1
 10
414.732
 20
-22.8946
 40
1.1941
 50
129.0472343
 51
148.564937
  0
ARC
  8
LAYER_1
 10
414.5397
 20
-22.6703
 40
0.8988
 50
91.65940168
 51
128.536351
  0
ARC
  8
LAYER_1
 10
414.5766
 20
-22.9101
 40
1.1399
 50
89.86158847
 51
93.16434886
  0
ARC
  8
LAYER_1
 10
414.6149
 20
-22.6836
 40
0.9141
 50
55.36538414
 51
92.22365013
  0
ARC
  8
LAYER_1
 10
414.6818
 20
-22.4625
 40
0.6977
 50
7.392823027
 51
49.55460188
  0
ARC
  8
LAYER_1
 10
413.7678
 20
-22.6705
 40
1.6332
 50
359.5282561
 51
10.50481292
  0
LINE
  8
LAYER_1
 10
415.401
 20
-22.6839
 11
415.401
 21
-24.2245
  0
LINE
  8
LAYER_1
 10
415.401
 20
-24.2245
 11
415.0902
 21
-24.2245
  0
LINE
  8
LAYER_1
 10
415.0902
 20
-24.2245
 11
415.0902
 21
-22.7197
  0
ARC
  8
LAYER_1
 10
413.956
 20
-22.6797
 40
1.1349
 50
357.9805338
 51
16.98234035
  0
ARC
  8
LAYER_1
 10
414.6258
 20
-22.4721
 40
0.4337
 50
16.59160651
 51
48.64931069
  0
ARC
  8
LAYER_1
 10
414.5418
 20
-22.6278
 40
0.6074
 50
52.41132045
 51
92.74352394
  0
ARC
  8
LAYER_1
 10
414.513
 20
-22.7142
 40
0.6931
 50
90.02415888
 51
129.8757432
  0
ARC
  8
LAYER_1
 10
414.6452
 20
-22.9195
 40
0.9359
 50
128.0316219
 51
164.2335047
  0
ARC
  8
LAYER_1
 10
414.7018
 20
-22.9121
 40
0.9886
 50
165.5387618
 51
180.2743268
  0
LINE
  8
LAYER_1
 10
413.7132
 20
-22.9168
 11
413.7132
 21
-24.2245
  0
ENDBLK
  0
BLOCK
  8
LAYER_1
  2
AIGNBL0103000F
 70
64
 10
0
 20
0
 30
0
  3
AIGNBL0103000F
  0
ARC
  8
LAYER_1
 10
417.2258
 20
-22.956
 40
1.1858
 50
50.65213458
 51
90.1728864
  0
ARC
  8
LAYER_1
 10
417.3703
 20
-22.7809
 40
0.9587
 50
14.76355825
 51
50.69855756
  0
ARC
  8
LAYER_1
 10
416.7584
 20
-22.9626
 40
1.5969
 50
359.0755011
 51
15.47390009
  0
ARC
  8
LAYER_1
 10
416.8666
 20
-23.0264
 40
1.489
 50
332.9248548
 51
1.463570552
  0
ARC
  8
LAYER_1
 10
417.4089
 20
-23.2528
 40
0.9042
 50
308.9730079
 51
330.0558863
  0
ARC
  8
LAYER_1
 10
417.2234
 20
-23.0316
 40
1.1929
 50
269.9434886
 51
309.2180251
  0
ARC
  8
LAYER_1
 10
417.2183
 20
-23.0405
 40
1.184
 50
230.6294792
 51
270.1898386
  0
ARC
  8
LAYER_1
 10
417.0681
 20
-23.2211
 40
0.9491
 50
194.5638459
 51
230.717391
  0
ARC
  8
LAYER_1
 10
417.7495
 20
-23.0173
 40
1.6601
 50
179.0015303
 51
195.4587807
  0
ARC
  8
LAYER_1
 10
417.5237
 20
-22.9525
 40
1.4344
 50
152.4345343
 51
181.4354742
  0
ARC
  8
LAYER_1
 10
417.0404
 20
-22.7504
 40
0.9135
 50
128.8594004
 51
149.6424325
  0
ARC
  8
LAYER_1
 10
417.2212
 20
-22.962
 40
1.1918
 50
89.95079209
 51
129.243361
  0
ARC
  8
LAYER_1
 10
417.1921
 20
-22.7919
 40
0.7485
 50
129.9545216
 51
170.5146889
  0
ARC
  8
LAYER_1
 10
417.9451
 20
-22.975
 40
1.5225
 50
168.3885338
 51
180.5058284
  0
ARC
  8
LAYER_1
 10
417.6348
 20
-23.0333
 40
1.2129
 50
177.8763812
 51
209.7521938
  0
ARC
  8
LAYER_1
 10
417.1172
 20
-23.2746
 40
0.6455
 50
213.9633399
 51
231.0556063
  0
ARC
  8
LAYER_1
 10
417.2151
 20
-23.158
 40
0.7978
 50
230.8483722
 51
270.5075942
  0
ARC
  8
LAYER_1
 10
417.2278
 20
-23.1538
 40
0.802
 50
269.600767
 51
309.0432666
  0
ARC
  8
LAYER_1
 10
417.2499
 20
-23.2035
 40
0.7496
 50
310.1250546
 51
351.1971443
  0
ARC
  8
LAYER_1
 10
416.417
 20
-23.0034
 40
1.6049
 50
348.6851655
 51
0.5346466607
  0
ARC
  8
LAYER_1
 10
416.8608
 20
-22.9467
 40
1.1618
 50
357.9409237
 51
30.41562059
  0
ARC
  8
LAYER_1
 10
417.3174
 20
-22.732
 40
0.661
 50
34.41492789
 51
51.03830788
  0
ARC
  8
LAYER_1
 10
417.2282
 20
-22.8398
 40
0.8008
 50
50.9244318
 51
90.43153459
  0
ARC
  8
LAYER_1
 10
417.2169
 20
-22.8419
 40
0.8029
 50
89.62325414
 51
129.0207794
  0
ENDBLK
  0
BLOCK
  8
LAYER_1
  2
AIGNBL01030010
 70
64
 10
0
 20
0
 30
0
  3
AIGNBL01030010
  0
ARC
  8
LAYER_1
 10
420.3535
 20
-22.4465
 40
0.6523
 50
6.057824587
 51
49.65076746
  0
ARC
  8
LAYER_1
 10
419.5795
 20
-22.6065
 40
1.4409
 50
359.7751054
 51
9.139665558
  0
LINE
  8
LAYER_1
 10
421.0204
 20
-22.6122
 11
421.0204
 21
-24.2245
  0
LINE
  8
LAYER_1
 10
421.0204
 20
-24.2245
 11
420.7095
 21
-24.2245
  0
LINE
  8
LAYER_1
 10
420.7095
 20
-24.2245
 11
420.7095
 21
-22.6481
  0
ARC
  8
LAYER_1
 10
419.8493
 20
-22.619
 40
0.8607
 50
358.0623492
 51
19.47829625
  0
ARC
  8
LAYER_1
 10
420.2534
 20
-22.4777
 40
0.4326
 50
19.68098657
 51
49.96332949
  0
ARC
  8
LAYER_1
 10
420.1979
 20
-22.602
 40
0.5647
 50
53.76649242
 51
94.44297082
  0
ARC
  8
LAYER_1
 10
420.1544
 20
-22.7323
 40
0.6933
 50
90.01935744
 51
129.8722706
  0
ARC
  8
LAYER_1
 10
420.4126
 20
-23.0622
 40
1.1121
 50
129.1838779
 51
162.0625498
  0
LINE
  8
LAYER_1
 10
419.3546
 20
-22.7197
 11
419.3546
 21
-24.2245
  0
LINE
  8
LAYER_1
 10
419.3546
 20
-24.2245
 11
419.0438
 21
-24.2245
  0
LINE
  8
LAYER_1
 10
419.0438
 20
-24.2245
 11
419.0438
 21
-21.7702
  0
LINE
  8
LAYER_1
 10
419.0438
 20
-21.7702
 11
419.3546
 21
-21.7702
  0
LINE
  8
LAYER_1
 10
419.3546
 20
-21.7702
 11
419.3546
 21
-22.2719
  0
ARC
  8
LAYER_1
 10
420.2757
 20
-22.8634
 40
1.0947
 50
128.1972663
 51
147.2935614
  0
ARC
  8
LAYER_1
 10
420.2473
 20
-22.7822
 40
1.0137
 50
94.72376074
 51
129.776402
  0
ARC
  8
LAYER_1
 10
420.2201
 20
-22.6884
 40
0.9182
 50
89.95828009
 51
93.51329337
  0
ARC
  8
LAYER_1
 10
420.2401
 20
-22.6615
 40
0.8915
 50
53.90537529
 51
91.24248329
  0
ARC
  8
LAYER_1
 10
420.292
 20
-22.5503
 40
0.7714
 50
51.16368699
 51
52.15552028
  0
ENDBLK
  0
BLOCK
  8
LAYER_1
  2
AIGNBL01030011
 70
64
 10
0
 20
0
 30
0
  3
AIGNBL01030011
  0
LINE
  8
LAYER_1
 10
424.507
 20
-24.2245
 11
424.1295
 21
-24.2245
  0
LINE
  8
LAYER_1
 10
424.1295
 20
-24.2245
 11
422.9745
 21
-22.6122
  0
LINE
  8
LAYER_1
 10
422.9745
 20
-22.6122
 11
422.0195
 21
-22.6122
  0
LINE
  8
LAYER_1
 10
422.0195
 20
-22.6122
 11
422.0195
 21
-24.2245
  0
LINE
  8
LAYER_1
 10
422.0195
 20
-24.2245
 11
421.7087
 21
-24.2245
  0
LINE
  8
LAYER_1
 10
421.7087
 20
-24.2245
 11
421.7087
 21
-20.7312
  0
LINE
  8
LAYER_1
 10
421.7087
 20
-20.7312
 11
423.1078
 21
-20.7312
  0
ARC
  8
LAYER_1
 10
423.1564
 20
-22.4427
 40
1.7122
 50
64.78634393
 51
91.62619302
  0
ARC
  8
LAYER_1
 10
423.4603
 20
-21.6747
 40
0.8895
 50
51.15329891
 51
61.42266901
  0
ARC
  8
LAYER_1
 10
423.4923
 20
-21.6339
 40
0.8376
 50
358.0228083
 51
51.10835206
  0
ARC
  8
LAYER_1
 10
423.4473
 20
-21.6797
 40
0.8823
 50
324.0475498
 51
1.096638045
  0
ARC
  8
LAYER_1
 10
423.4785
 20
-21.6698
 40
0.8632
 50
308.7011907
 51
322.3035235
  0
ARC
  8
LAYER_1
 10
423.4006
 20
-21.5527
 40
1.0033
 50
290.1258472
 51
307.9890184
  0
ARC
  8
LAYER_1
 10
423.1302
 20
-20.7978
 40
1.8052
 50
275.6475351
 51
289.9423501
  0
LINE
  8
LAYER_1
 10
423.3078
 20
-22.5943
 11
424.507
 21
-24.2245
  0
LINE
  8
LAYER_1
 10
422.0195
 20
-20.9999
 11
422.0195
 21
-22.3435
  0
LINE
  8
LAYER_1
 10
422.0195
 20
-22.3435
 11
423.0191
 21
-22.3435
  0
ARC
  8
LAYER_1
 10
423.0545
 20
-20.6344
 40
1.7094
 50
268.8117583
 51
283.8243539
  0
ARC
  8
LAYER_1
 10
423.2683
 20
-21.4834
 40
0.834
 50
283.5030587
 51
307.3374518
  0
ARC
  8
LAYER_1
 10
423.401
 20
-21.6824
 40
0.5955
 50
308.80277
 51
1.890565161
  0
ARC
  8
LAYER_1
 10
423.3843
 20
-21.6508
 40
0.6119
 50
358.8758829
 51
50.43078194
  0
ARC
  8
LAYER_1
 10
423.3242
 20
-21.7595
 40
0.7343
 50
52.21990913
 51
73.14509507
  0
ARC
  8
LAYER_1
 10
423.1427
 20
-22.3867
 40
1.3872
 50
73.48179927
 51
91.44333806
  0
LINE
  8
LAYER_1
 10
423.1078
 20
-20.9999
 11
422.0195
 21
-20.9999
  0
ENDBLK
  0
BLOCK
  8
LAYER_1
  2
AIGNBL01030012
 70
64
 10
0
 20
0
 30
0
  3
AIGNBL01030012
  0
ARC
  8
LAYER_1
 10
426.347
 20
-22.4744
 40
0.6478
 50
358.8998549
 51
51.50770369
  0
LINE
  8
LAYER_1
 10
426.9947
 20
-22.4868
 11
426.9947
 21
-23.705
  0
ARC
  8
LAYER_1
 10
428.0323
 20
-23.7154
 40
1.0376
 50
179.4235989
 51
209.3795198
  0
LINE
  8
LAYER_1
 10
427.1281
 20
-24.2245
 11
426.7948
 21
-24.2245
  0
ARC
  8
LAYER_1
 10
427.3948
 20
-23.8425
 40
0.7113
 50
181.9118457
 51
212.4845419
  0
ARC
  8
LAYER_1
 10
426.0337
 20
-23.3086
 40
0.8565
 50
307.1178262
 51
319.3839439
  0
ARC
  8
LAYER_1
 10
425.895
 20
-23.1708
 40
1.0505
 50
274.342736
 51
308.613264
  0
ARC
  8
LAYER_1
 10
425.8463
 20
-22.9105
 40
1.314
 50
269.7157622
 51
275.6021462
  0
ARC
  8
LAYER_1
 10
425.8157
 20
-23.2103
 40
1.0145
 50
236.2968859
 51
271.3584788
  0
ARC
  8
LAYER_1
 10
425.7358
 20
-23.3861
 40
0.8245
 50
231.0747791
 51
234.1395455
  0
ARC
  8
LAYER_1
 10
425.5506
 20
-23.6116
 40
0.5327
 50
178.4884988
 51
231.3335658
  0
ARC
  8
LAYER_1
 10
425.5535
 20
-23.6018
 40
0.5354
 50
125.8132499
 51
179.5421234
  0
ARC
  8
LAYER_1
 10
426.0376
 20
-24.2334
 40
1.3311
 50
111.9751422
 51
126.8013201
  0
ARC
  8
LAYER_1
 10
426.9509
 20
-26.4116
 40
3.6929
 50
106.0714701
 51
112.4703746
  0
ARC
  8
LAYER_1
 10
424.8968
 20
-19.0052
 40
3.9934
 50
284.9741386
 51
296.5845482
  0
ARC
  8
LAYER_1
 10
426.1491
 20
-22.5432
 40
0.5358
 50
356.4459578
 51
44.98280082
  0
ARC
  8
LAYER_1
 10
426.1112
 20
-22.6966
 40
0.6761
 50
51.92712517
 51
92.30568109
  0
ARC
  8
LAYER_1
 10
426.0743
 20
-22.6857
 40
0.6647
 50
89.15957603
 51
128.3444058
  0
ARC
  8
LAYER_1
 10
426.0302
 20
-22.6043
 40
0.5737
 50
129.9351318
 51
171.8226885
  0
LINE
  8
LAYER_1
 10
425.4623
 20
-22.5227
 11
425.1069
 21
-22.5227
  0
ARC
  8
LAYER_1
 10
425.9394
 20
-22.6442
 40
0.8413
 50
126.4288023
 51
171.6952792
  0
ARC
  8
LAYER_1
 10
426.0055
 20
-22.6952
 40
0.9219
 50
91.54486952
 51
127.8507148
  0
ARC
  8
LAYER_1
 10
426.078
 20
-23.1273
 40
1.3571
 50
89.74470742
 51
94.11271332
  0
ARC
  8
LAYER_1
 10
426.1187
 20
-22.8993
 40
1.1296
 50
58.6194476
 51
91.75785475
  0
ARC
  8
LAYER_1
 10
426.2656
 20
-22.5702
 40
0.7735
 50
51.21066166
 51
55.21930848
  0
ARC
  8
LAYER_1
 10
425.6135
 20
-20.7277
 40
2.3886
 50
282.452262
 51
296.6251858
  0
ARC
  8
LAYER_1
 10
426.4479
 20
-24.7491
 40
1.7189
 50
100.7104131
 51
123.2096925
  0
ARC
  8
LAYER_1
 10
425.7293
 20
-23.6171
 40
0.3787
 50
126.0379939
 51
177.0272144
  0
ARC
  8
LAYER_1
 10
425.666
 20
-23.5909
 40
0.315
 50
181.1933991
 51
234.7878184
  0
ARC
  8
LAYER_1
 10
425.818
 20
-23.3935
 40
0.564
 50
233.7415385
 51
274.4679247
  0
ARC
  8
LAYER_1
 10
425.8909
 20
-23.0889
 40
0.8673
 50
268.0847434
 51
305.5521241
  0
ARC
  8
LAYER_1
 10
425.3509
 20
-22.454
 40
1.6993
 50
307.9164297
 51
321.6652821
  0
LINE
  8
LAYER_1
 10
426.6839
 20
-23.508
 11
426.6839
 21
-22.863
  0
ENDBLK
  0
BLOCK
  8
LAYER_1
  2
AIGNBL01030013
 70
64
 10
0
 20
0
 30
0
  3
AIGNBL01030013
  0
LINE
  8
LAYER_1
 10
428.1718
 20
-21.1074
 11
427.8168
 21
-21.1074
  0
LINE
  8
LAYER_1
 10
427.8168
 20
-21.1074
 11
427.8168
 21
-20.7312
  0
LINE
  8
LAYER_1
 10
427.8168
 20
-20.7312
 11
428.1718
 21
-20.7312
  0
LINE
  8
LAYER_1
 10
428.1718
 20
-20.7312
 11
428.1718
 21
-21.1074
  0
LINE
  8
LAYER_1
 10
428.1497
 20
-24.2245
 11
427.8389
 21
-24.2245
  0
LINE
  8
LAYER_1
 10
427.8389
 20
-24.2245
 11
427.8389
 21
-21.7702
  0
LINE
  8
LAYER_1
 10
427.8389
 20
-21.7702
 11
428.1497
 21
-21.7702
  0
LINE
  8
LAYER_1
 10
428.1497
 20
-21.7702
 11
428.1497
 21
-24.2245
  0
ENDBLK
  0
BLOCK
  8
LAYER_1
  2
AIGNBL01030014
 70
64
 10
0
 20
0
 30
0
  3
AIGNBL01030014
  0
LINE
  8
LAYER_1
 10
429.1713
 20
-22.9347
 11
430.4817
 21
-21.7702
  0
LINE
  8
LAYER_1
 10
430.4817
 20
-21.7702
 11
430.8813
 21
-21.7702
  0
LINE
  8
LAYER_1
 10
430.8813
 20
-21.7702
 11
429.8821
 21
-22.6839
  0
LINE
  8
LAYER_1
 10
429.8821
 20
-22.6839
 11
431.0371
 21
-24.2245
  0
LINE
  8
LAYER_1
 10
431.0371
 20
-24.2245
 11
430.6592
 21
-24.2245
  0
LINE
  8
LAYER_1
 10
430.6592
 20
-24.2245
 11
429.6601
 21
-22.8809
  0
LINE
  8
LAYER_1
 10
429.6601
 20
-22.8809
 11
429.1713
 21
-23.293
  0
LINE
  8
LAYER_1
 10
429.1713
 20
-23.293
 11
429.1713
 21
-24.2245
  0
LINE
  8
LAYER_1
 10
429.1713
 20
-24.2245
 11
428.8605
 21
-24.2245
  0
LINE
  8
LAYER_1
 10
428.8605
 20
-24.2245
 11
428.8605
 21
-20.7312
  0
LINE
  8
LAYER_1
 10
428.8605
 20
-20.7312
 11
429.1713
 21
-20.7312
  0
LINE
  8
LAYER_1
 10
429.1713
 20
-20.7312
 11
429.1713
 21
-22.9347
  0
ENDBLK
  0
BLOCK
  8
LAYER_1
  2
AIGNBL01030015
 70
64
 10
0
 20
0
 30
0
  3
AIGNBL01030015
  0
ARC
  8
LAYER_1
 10
433.0021
 20
-22.673
 40
0.8774
 50
12.60109459
 51
49.77799803
  0
ARC
  8
LAYER_1
 10
431.8922
 20
-22.9963
 40
2.0324
 50
358.7050217
 51
14.66858492
  0
LINE
  8
LAYER_1
 10
433.9241
 20
-23.0422
 11
432.0584
 21
-23.0422
  0
ARC
  8
LAYER_1
 10
433.2228
 20
-23.0394
 40
1.1644
 50
180.139925
 51
212.9375528
  0
ARC
  8
LAYER_1
 10
432.7336
 20
-23.2985
 40
0.6149
 50
217.4603672
 51
231.0501941
  0
ARC
  8
LAYER_1
 10
432.8508
 20
-23.158
 40
0.7978
 50
230.8483722
 51
270.5075942
  0
ARC
  8
LAYER_1
 10
432.8635
 20
-23.1537
 40
0.8021
 50
269.6030079
 51
309.0410257
  0
ARC
  8
LAYER_1
 10
433.0083
 20
-23.336
 40
0.5693
 50
309.2741342
 51
349.8536404
  0
LINE
  8
LAYER_1
 10
433.5687
 20
-23.4363
 11
433.8795
 21
-23.4363
  0
ARC
  8
LAYER_1
 10
433.059
 20
-23.3441
 40
0.8257
 50
314.9082692
 51
353.5909947
  0
ARC
  8
LAYER_1
 10
433.1067
 20
-23.3698
 40
0.774
 50
308.7196044
 51
313.7496745
  0
ARC
  8
LAYER_1
 10
432.8791
 20
-23.0902
 40
1.1345
 50
268.9296117
 51
308.8525082
  0
ARC
  8
LAYER_1
 10
432.8402
 20
-22.9976
 40
1.227
 50
239.2950782
 51
270.8263817
  0
ARC
  8
LAYER_1
 10
432.79
 20
-23.1264
 40
1.0909
 50
230.9602875
 51
238.1075899
  0
ARC
  8
LAYER_1
 10
432.7025
 20
-23.2434
 40
0.9449
 50
194.4739004
 51
230.6139941
  0
ARC
  8
LAYER_1
 10
433.4365
 20
-23.0213
 40
1.7114
 50
178.8974963
 51
195.5311997
  0
ARC
  8
LAYER_1
 10
433.189
 20
-22.9536
 40
1.464
 50
152.2530449
 51
181.3625408
  0
ARC
  8
LAYER_1
 10
432.7395
 20
-22.7668
 40
0.9802
 50
128.8211147
 51
149.6825298
  0
ARC
  8
LAYER_1
 10
432.7804
 20
-22.8312
 40
1.0561
 50
94.54669966
 51
128.3632401
  0
ARC
  8
LAYER_1
 10
432.8488
 20
-23.1773
 40
1.4071
 50
89.62882822
 51
96.20374131
  0
ARC
  8
LAYER_1
 10
432.8763
 20
-22.9321
 40
1.1621
 50
58.70061417
 51
90.90531606
  0
ARC
  8
LAYER_1
 10
432.9337
 20
-22.7911
 40
1.012
 50
51.13492566
 51
57.33000345
  0
ARC
  8
LAYER_1
 10
432.6976
 20
-22.7833
 40
0.8933
 50
0.6314441589
 51
37.94900298
  0
ARC
  8
LAYER_1
 10
433.001
 20
-22.6079
 40
0.5483
 50
42.99486785
 51
50.92016644
  0
ARC
  8
LAYER_1
 10
432.8822
 20
-22.7689
 40
0.7482
 50
51.62942978
 51
91.85980427
  0
ARC
  8
LAYER_1
 10
432.8356
 20
-22.8404
 40
0.8196
 50
88.44194211
 51
126.5877202
  0
ARC
  8
LAYER_1
 10
432.8404
 20
-22.7893
 40
0.7821
 50
129.0997386
 51
178.8450805
  0
LINE
  8
LAYER_1
 10
432.0584
 20
-22.7735
 11
433.5908
 21
-22.7735
  0
ENDBLK
  0
BLOCK
  8
LAYER_1
  2
AIGNBL01030016
 70
64
 10
0
 20
0
 30
0
  3
AIGNBL01030016
  0
ARC
  8
LAYER_1
 10
435.9223
 20
-22.4465
 40
0.6524
 50
6.056198854
 51
49.63190274
  0
ARC
  8
LAYER_1
 10
435.1483
 20
-22.6065
 40
1.4411
 50
359.7752786
 51
9.138499501
  0
LINE
  8
LAYER_1
 10
436.5894
 20
-22.6122
 11
436.5894
 21
-24.2245
  0
LINE
  8
LAYER_1
 10
436.5894
 20
-24.2245
 11
436.2786
 21
-24.2245
  0
LINE
  8
LAYER_1
 10
436.2786
 20
-24.2245
 11
436.2786
 21
-22.6481
  0
ARC
  8
LAYER_1
 10
435.4188
 20
-22.619
 40
0.8603
 50
358.0603236
 51
19.48539995
  0
ARC
  8
LAYER_1
 10
435.8227
 20
-22.4777
 40
0.4324
 50
19.69025093
 51
49.98971793
  0
ARC
  8
LAYER_1
 10
435.767
 20
-22.6018
 40
0.5645
 50
53.76025628
 51
94.44920695
  0
ARC
  8
LAYER_1
 10
435.7235
 20
-22.7325
 40
0.6935
 50
90.02758188
 51
129.8640462
  0
ARC
  8
LAYER_1
 10
435.9816
 20
-23.0622
 40
1.1121
 50
129.1838779
 51
162.0625498
  0
LINE
  8
LAYER_1
 10
434.9236
 20
-22.7197
 11
434.9236
 21
-24.2245
  0
LINE
  8
LAYER_1
 10
434.9236
 20
-24.2245
 11
434.6128
 21
-24.2245
  0
LINE
  8
LAYER_1
 10
434.6128
 20
-24.2245
 11
434.6128
 21
-21.7702
  0
LINE
  8
LAYER_1
 10
434.6128
 20
-21.7702
 11
434.9236
 21
-21.7702
  0
LINE
  8
LAYER_1
 10
434.9236
 20
-21.7702
 11
434.9236
 21
-22.2719
  0
ARC
  8
LAYER_1
 10
435.8447
 20
-22.8634
 40
1.0947
 50
128.1972663
 51
147.2935614
  0
ARC
  8
LAYER_1
 10
435.8164
 20
-22.7823
 40
1.0139
 50
94.72575203
 51
129.7728799
  0
ARC
  8
LAYER_1
 10
435.7891
 20
-22.6881
 40
0.9179
 50
89.95901443
 51
93.51387211
  0
ARC
  8
LAYER_1
 10
435.8091
 20
-22.6619
 40
0.8919
 50
53.91369061
 51
91.23976713
  0
ARC
  8
LAYER_1
 10
435.8606
 20
-22.5513
 40
0.7725
 50
51.18248121
 51
52.17327012
  0
ENDBLK
  0
BLOCK
  8
LAYER_1
  2
AIGNBL01030017
 70
64
 10
0
 20
0
 30
0
  3
AIGNBL01030017
  0
LINE
  8
LAYER_1
 10
438.7214
 20
-23.7946
 11
439.7876
 21
-20.7312
  0
LINE
  8
LAYER_1
 10
439.7876
 20
-20.7312
 11
440.1651
 21
-20.7312
  0
LINE
  8
LAYER_1
 10
440.1651
 20
-20.7312
 11
438.8993
 21
-24.2245
  0
LINE
  8
LAYER_1
 10
438.8993
 20
-24.2245
 11
438.5439
 21
-24.2245
  0
LINE
  8
LAYER_1
 10
438.5439
 20
-24.2245
 11
437.2781
 21
-20.7312
  0
LINE
  8
LAYER_1
 10
437.2781
 20
-20.7312
 11
437.6556
 21
-20.7312
  0
LINE
  8
LAYER_1
 10
437.6556
 20
-20.7312
 11
438.7214
 21
-23.7946
  0
ENDBLK
  0
BLOCK
  8
LAYER_1
  2
AIGNBL01030018
 70
64
 10
0
 20
0
 30
0
  3
AIGNBL01030018
  0
ARC
  8
LAYER_1
 10
442.1305
 20
-22.673
 40
0.8774
 50
12.60109459
 51
49.77799803
  0
ARC
  8
LAYER_1
 10
441.0206
 20
-22.9963
 40
2.0324
 50
358.7050217
 51
14.66858492
  0
LINE
  8
LAYER_1
 10
443.0525
 20
-23.0422
 11
441.1867
 21
-23.0422
  0
ARC
  8
LAYER_1
 10
442.3518
 20
-23.039
 40
1.1651
 50
180.1564368
 51
212.937591
  0
ARC
  8
LAYER_1
 10
441.8621
 20
-23.2985
 40
0.6149
 50
217.4609626
 51
231.0501281
  0
ARC
  8
LAYER_1
 10
441.9792
 20
-23.158
 40
0.7978
 50
230.8483722
 51
270.5075942
  0
ARC
  8
LAYER_1
 10
441.9919
 20
-23.1537
 40
0.8021
 50
269.6030079
 51
309.0410257
  0
ARC
  8
LAYER_1
 10
442.1367
 20
-23.336
 40
0.5693
 50
309.2741342
 51
349.8536404
  0
LINE
  8
LAYER_1
 10
442.6971
 20
-23.4363
 11
443.0079
 21
-23.4363
  0
ARC
  8
LAYER_1
 10
442.1874
 20
-23.3441
 40
0.8257
 50
314.9082692
 51
353.5909947
  0
ARC
  8
LAYER_1
 10
442.2351
 20
-23.3698
 40
0.774
 50
308.7196044
 51
313.7496745
  0
ARC
  8
LAYER_1
 10
442.0075
 20
-23.0902
 40
1.1345
 50
268.9296117
 51
308.8525082
  0
ARC
  8
LAYER_1
 10
441.9686
 20
-22.9976
 40
1.227
 50
239.2950782
 51
270.8263817
  0
ARC
  8
LAYER_1
 10
441.9184
 20
-23.1264
 40
1.0909
 50
230.9602875
 51
238.1075899
  0
ARC
  8
LAYER_1
 10
441.8309
 20
-23.2434
 40
0.9449
 50
194.4739004
 51
230.6139941
  0
ARC
  8
LAYER_1
 10
442.5649
 20
-23.0213
 40
1.7114
 50
178.8974963
 51
195.5311997
  0
ARC
  8
LAYER_1
 10
442.3174
 20
-22.9536
 40
1.464
 50
152.2530449
 51
181.3625408
  0
ARC
  8
LAYER_1
 10
441.8679
 20
-22.7668
 40
0.9802
 50
128.8211147
 51
149.6825298
  0
ARC
  8
LAYER_1
 10
441.9088
 20
-22.8312
 40
1.0561
 50
94.54669966
 51
128.3632401
  0
ARC
  8
LAYER_1
 10
441.9772
 20
-23.1773
 40
1.4071
 50
89.62882822
 51
96.20374131
  0
ARC
  8
LAYER_1
 10
442.0047
 20
-22.9321
 40
1.1621
 50
58.70061417
 51
90.90531606
  0
ARC
  8
LAYER_1
 10
442.0621
 20
-22.7911
 40
1.012
 50
51.13492566
 51
57.33000345
  0
ARC
  8
LAYER_1
 10
441.826
 20
-22.7833
 40
0.8933
 50
0.6314441589
 51
37.94900298
  0
ARC
  8
LAYER_1
 10
442.1294
 20
-22.6079
 40
0.5483
 50
42.99486785
 51
50.92016644
  0
ARC
  8
LAYER_1
 10
442.0106
 20
-22.7689
 40
0.7482
 50
51.62942978
 51
91.85980427
  0
ARC
  8
LAYER_1
 10
441.964
 20
-22.8404
 40
0.8196
 50
88.44194211
 51
126.5877202
  0
ARC
  8
LAYER_1
 10
441.969
 20
-22.7895
 40
0.7825
 50
129.1017402
 51
178.8274293
  0
LINE
  8
LAYER_1
 10
441.1867
 20
-22.7735
 11
442.7192
 21
-22.7735
  0
ENDBLK
  0
BLOCK
  8
LAYER_1
  2
AIGNBL01030019
 70
64
 10
0
 20
0
 30
0
  3
AIGNBL01030019
  0
ARC
  8
LAYER_1
 10
445.0359
 20
-22.6367
 40
0.8377
 50
1.677130822
 51
51.05752676
  0
LINE
  8
LAYER_1
 10
445.8732
 20
-22.6122
 11
445.5399
 21
-22.6122
  0
ARC
  8
LAYER_1
 10
444.8962
 20
-22.6299
 40
0.6439
 50
1.576279838
 51
45.71912971
  0
ARC
  8
LAYER_1
 10
445.0473
 20
-22.526
 40
0.4654
 50
50.10708026
 51
50.98377502
  0
ARC
  8
LAYER_1
 10
444.9227
 20
-22.6986
 40
0.678
 50
51.98814984
 51
92.25219575
  0
ARC
  8
LAYER_1
 10
444.8908
 20
-22.8247
 40
0.8036
 50
89.6186395
 51
129.0043909
  0
ARC
  8
LAYER_1
 10
444.8971
 20
-22.8174
 40
0.802
 50
129.680504
 51
169.2395922
  0
ARC
  8
LAYER_1
 10
445.582
 20
-22.9914
 40
1.508
 50
167.6045047
 51
180.5658615
  0
ARC
  8
LAYER_1
 10
445.286
 20
-23.0512
 40
1.2127
 50
177.8784183
 51
209.762352
  0
ARC
  8
LAYER_1
 10
444.7683
 20
-23.2927
 40
0.6451
 50
213.9709832
 51
231.07243
  0
ARC
  8
LAYER_1
 10
444.8591
 20
-23.197
 40
0.7767
 50
230.2972029
 51
269.4487938
  0
ARC
  8
LAYER_1
 10
444.8717
 20
-23.3384
 40
0.6356
 50
268.1860073
 51
306.6591483
  0
ARC
  8
LAYER_1
 10
444.8207
 20
-23.3285
 40
0.675
 50
309.629052
 51
331.4006668
  0
ARC
  8
LAYER_1
 10
444.3867
 20
-23.1045
 40
1.1632
 50
331.9476846
 51
352.4570641
  0
LINE
  8
LAYER_1
 10
445.5399
 20
-23.2572
 11
445.8732
 21
-23.2572
  0
ARC
  8
LAYER_1
 10
444.6899
 20
-23.1881
 40
1.1853
 50
324.4684924
 51
356.6593605
  0
ARC
  8
LAYER_1
 10
445.0644
 20
-23.4016
 40
0.7577
 50
308.8646969
 51
321.14453
  0
ARC
  8
LAYER_1
 10
444.8838
 20
-23.1841
 40
1.0405
 50
269.4444518
 51
309.0942617
  0
ARC
  8
LAYER_1
 10
444.8495
 20
-23.0049
 40
1.2199
 50
239.4731668
 51
271.135496
  0
ARC
  8
LAYER_1
 10
444.7556
 20
-23.2304
 40
0.9785
 50
231.0725901
 51
237.5015114
  0
ARC
  8
LAYER_1
 10
444.7777
 20
-23.2067
 40
1.0108
 50
196.2036012
 51
230.9401338
  0
ARC
  8
LAYER_1
 10
445.3289
 20
-23.0352
 40
1.588
 50
178.9563335
 51
196.5964913
  0
ARC
  8
LAYER_1
 10
445.2047
 20
-22.9715
 40
1.4639
 50
152.2515429
 51
181.3630737
  0
ARC
  8
LAYER_1
 10
444.7547
 20
-22.7845
 40
0.9796
 50
128.808818
 51
149.6794954
  0
ARC
  8
LAYER_1
 10
444.8599
 20
-22.9235
 40
1.1539
 50
88.20218716
 51
128.5493308
  0
ARC
  8
LAYER_1
 10
444.9169
 20
-22.8592
 40
1.0892
 50
57.48337982
 51
91.09649987
  0
ARC
  8
LAYER_1
 10
444.9853
 20
-22.701
 40
0.9195
 50
51.1229112
 51
55.77503012
  0
ENDBLK
  0
BLOCK
  8
LAYER_1
  2
AIGNBL0103001A
 70
64
 10
0
 20
0
 30
0
  3
AIGNBL0103001A
  0
LINE
  8
LAYER_1
 10
446.9394
 20
-22.039
 11
446.5619
 21
-22.039
  0
LINE
  8
LAYER_1
 10
446.5619
 20
-22.039
 11
446.5619
 21
-21.7702
  0
LINE
  8
LAYER_1
 10
446.5619
 20
-21.7702
 11
446.9394
 21
-21.7702
  0
LINE
  8
LAYER_1
 10
446.9394
 20
-21.7702
 11
446.9394
 21
-21.0895
  0
LINE
  8
LAYER_1
 10
446.9394
 20
-21.0895
 11
447.2502
 21
-21.0895
  0
LINE
  8
LAYER_1
 10
447.2502
 20
-21.0895
 11
447.2502
 21
-21.7702
  0
LINE
  8
LAYER_1
 10
447.2502
 20
-21.7702
 11
447.8944
 21
-21.7702
  0
LINE
  8
LAYER_1
 10
447.8944
 20
-21.7702
 11
447.8944
 21
-22.039
  0
LINE
  8
LAYER_1
 10
447.8944
 20
-22.039
 11
447.2502
 21
-22.039
  0
LINE
  8
LAYER_1
 10
447.2502
 20
-22.039
 11
447.2502
 21
-23.7408
  0
ARC
  8
LAYER_1
 10
447.4454
 20
-23.7545
 40
0.1957
 50
175.9776718
 51
228.9540035
  0
ARC
  8
LAYER_1
 10
447.506
 20
-23.6063
 40
0.3511
 50
237.4176742
 51
275.3977506
  0
ARC
  8
LAYER_1
 10
447.4669
 20
-21.9029
 40
2.0541
 50
272.0117864
 51
283.2844742
  0
LINE
  8
LAYER_1
 10
447.9389
 20
-23.9021
 11
447.9389
 21
-24.1708
  0
ARC
  8
LAYER_1
 10
447.5303
 20
-22.6553
 40
1.5697
 50
268.6889408
 51
285.0880874
  0
ARC
  8
LAYER_1
 10
447.4481
 20
-23.5253
 40
0.7007
 50
237.6083723
 51
273.7890716
  0
ARC
  8
LAYER_1
 10
447.321
 20
-23.8256
 40
0.3828
 50
175.3554851
 51
229.5709398
  0
LINE
  8
LAYER_1
 10
446.9394
 20
-23.7946
 11
446.9394
 21
-22.039
  0
ENDBLK
  0
BLOCK
  8
LAYER_1
  2
AIGNBL0103001B
 70
64
 10
0
 20
0
 30
0
  3
AIGNBL0103001B
  0
ARC
  8
LAYER_1
 10
449.7634
 20
-22.9557
 40
1.1855
 50
50.64686175
 51
90.17336741
  0
ARC
  8
LAYER_1
 10
449.9078
 20
-22.7809
 40
0.9587
 50
14.76355825
 51
50.69855756
  0
ARC
  8
LAYER_1
 10
449.2959
 20
-22.9626
 40
1.5969
 50
359.0755011
 51
15.47390009
  0
ARC
  8
LAYER_1
 10
449.4041
 20
-23.0264
 40
1.489
 50
332.9248548
 51
1.463570552
  0
ARC
  8
LAYER_1
 10
449.9464
 20
-23.2528
 40
0.9042
 50
308.9730079
 51
330.0558863
  0
ARC
  8
LAYER_1
 10
449.7609
 20
-23.0318
 40
1.1927
 50
269.9452732
 51
309.2210309
  0
ARC
  8
LAYER_1
 10
449.7559
 20
-23.0405
 40
1.184
 50
230.6294792
 51
270.1898386
  0
ARC
  8
LAYER_1
 10
449.6053
 20
-23.2214
 40
0.9487
 50
194.5571008
 51
230.7288295
  0
ARC
  8
LAYER_1
 10
450.2876
 20
-23.0174
 40
1.6605
 50
179.000404
 51
195.4530529
  0
ARC
  8
LAYER_1
 10
450.0614
 20
-22.9524
 40
1.4346
 50
152.4394255
 51
181.4374845
  0
ARC
  8
LAYER_1
 10
449.5775
 20
-22.7501
 40
0.9131
 50
128.8475503
 51
149.6425845
  0
ARC
  8
LAYER_1
 10
449.7588
 20
-22.962
 40
1.1918
 50
89.95079209
 51
129.243361
  0
ARC
  8
LAYER_1
 10
449.7298
 20
-22.7921
 40
0.7488
 50
129.9530716
 51
170.501807
  0
ARC
  8
LAYER_1
 10
450.4815
 20
-22.975
 40
1.5214
 50
168.3798418
 51
180.5055652
  0
ARC
  8
LAYER_1
 10
450.172
 20
-23.0333
 40
1.2126
 50
177.8782097
 51
209.7643113
  0
ARC
  8
LAYER_1
 10
449.655
 20
-23.2744
 40
0.6459
 50
213.9706427
 51
231.0555735
  0
ARC
  8
LAYER_1
 10
449.7527
 20
-23.158
 40
0.7978
 50
230.8483722
 51
270.5075942
  0
ARC
  8
LAYER_1
 10
449.7653
 20
-23.1535
 40
0.8023
 50
269.6074376
 51
309.036596
  0
ARC
  8
LAYER_1
 10
449.7877
 20
-23.2037
 40
0.7493
 50
310.1265727
 51
351.2098289
  0
ARC
  8
LAYER_1
 10
448.9534
 20
-23.0034
 40
1.606
 50
348.6936027
 51
0.5348985138
  0
ARC
  8
LAYER_1
 10
449.3979
 20
-22.9466
 40
1.1621
 50
357.9389673
 51
30.40330024
  0
ARC
  8
LAYER_1
 10
449.8552
 20
-22.7318
 40
0.6606
 50
34.40761089
 51
51.03835046
  0
ARC
  8
LAYER_1
 10
449.7657
 20
-22.8403
 40
0.8013
 50
50.93743053
 51
90.41853585
  0
ARC
  8
LAYER_1
 10
449.7545
 20
-22.8419
 40
0.8029
 50
89.62325414
 51
129.0207794
  0
ENDBLK
  0
BLOCK
  8
LAYER_1
  2
AIGNBL0103001C
 70
64
 10
0
 20
0
 30
0
  3
AIGNBL0103001C
  0
ARC
  8
LAYER_1
 10
452.9719
 20
-23.1219
 40
1.0477
 50
91.97097397
 51
126.0381327
  0
ARC
  8
LAYER_1
 10
452.9171
 20
-23.0092
 40
0.9246
 50
127.3965684
 51
128.9125782
  0
ARC
  8
LAYER_1
 10
453.1569
 20
-23.2917
 40
1.295
 50
129.3182706
 51
159.9112198
  0
ARC
  8
LAYER_1
 10
453.4923
 20
-23.4569
 40
1.6673
 50
158.5385303
 51
163.6809605
  0
LINE
  8
LAYER_1
 10
451.8922
 20
-22.9884
 11
451.8922
 21
-24.2245
  0
LINE
  8
LAYER_1
 10
451.8922
 20
-24.2245
 11
451.5813
 21
-24.2245
  0
LINE
  8
LAYER_1
 10
451.5813
 20
-24.2245
 11
451.5813
 21
-21.7702
  0
LINE
  8
LAYER_1
 10
451.5813
 20
-21.7702
 11
451.8922
 21
-21.7702
  0
LINE
  8
LAYER_1
 10
451.8922
 20
-21.7702
 11
451.8922
 21
-22.4152
  0
ARC
  8
LAYER_1
 10
452.8133
 20
-22.8597
 40
1.0227
 50
126.6359012
 51
154.2400399
  0
ARC
  8
LAYER_1
 10
452.9651
 20
-23.0059
 40
1.2311
 50
96.7404878
 51
128.2430425
  0
ARC
  8
LAYER_1
 10
453.0655
 20
-23.4259
 40
1.6608
 50
94.47684547
 51
98.48208305
  0
LINE
  8
LAYER_1
 10
452.9359
 20
-21.7702
 11
452.9359
 21
-22.0748
  0
ENDBLK
  0
BLOCK
  8
LAYER_1
  2
AIGNBL0103001D
 70
64
 10
0
 20
0
 30
0
  3
AIGNBL0103001D
  0
ARC
  8
LAYER_1
 10
456.9929
 20
-22.0945
 40
1.3727
 50
22.00928352
 51
51.65969012
  0
ARC
  8
LAYER_1
 10
456.9602
 20
-22.0818
 40
1.3984
 50
3.959104602
 51
21.02496721
  0
LINE
  8
LAYER_1
 10
458.3553
 20
-21.9852
 11
457.9999
 21
-21.9852
  0
ARC
  8
LAYER_1
 10
456.7105
 20
-22.1956
 40
1.3064
 50
9.267186356
 51
39.89445705
  0
ARC
  8
LAYER_1
 10
456.9756
 20
-22.023
 40
0.993
 50
42.06414495
 51
51.04925166
  0
ARC
  8
LAYER_1
 10
456.992
 20
-22.0027
 40
0.967
 50
51.0477255
 51
90.81531027
  0
ARC
  8
LAYER_1
 10
456.978
 20
-22.0428
 40
1.007
 50
89.99123167
 51
129.7519824
  0
ARC
  8
LAYER_1
 10
457.0562
 20
-22.1499
 40
1.1394
 50
129.3297292
 51
161.8488038
  0
ARC
  8
LAYER_1
 10
457.8897
 20
-22.444
 40
2.0231
 50
161.2876906
 51
181.7182113
  0
ARC
  8
LAYER_1
 10
457.9686
 20
-22.5593
 40
2.1018
 50
178.5111965
 51
202.8880035
  0
ARC
  8
LAYER_1
 10
456.9124
 20
-22.9519
 40
0.9773
 50
205.7650824
 51
230.4033087
  0
ARC
  8
LAYER_1
 10
456.8986
 20
-22.9366
 40
0.9805
 50
231.5941416
 51
266.9277414
  0
ARC
  8
LAYER_1
 10
456.9505
 20
-22.6406
 40
1.2794
 50
265.3205123
 51
270.2395767
  0
ARC
  8
LAYER_1
 10
456.9768
 20
-22.8304
 40
1.0898
 50
268.8971713
 51
302.5081969
  0
ARC
  8
LAYER_1
 10
457.0454
 20
-22.9893
 40
0.9193
 50
304.2242989
 51
308.8774009
  0
ARC
  8
LAYER_1
 10
457.0039
 20
-22.9651
 40
0.9644
 50
309.8958004
 51
345.7915613
  0
ARC
  8
LAYER_1
 10
456.1771
 20
-22.6884
 40
1.8349
 50
343.752196
 51
353.4139551
  0
LINE
  8
LAYER_1
 10
457.9999
 20
-22.8989
 11
458.3553
 21
-22.8989
  0
ARC
  8
LAYER_1
 10
456.5898
 20
-22.7696
 40
1.7702
 50
329.5075293
 51
355.8116395
  0
ARC
  8
LAYER_1
 10
457.2086
 20
-23.081
 40
1.08
 50
309.0241055
 51
327.0834151
  0
ARC
  8
LAYER_1
 10
457.0186
 20
-22.8322
 40
1.3929
 50
268.3359211
 51
308.6509953
  0
ARC
  8
LAYER_1
 10
456.9619
 20
-22.6665
 40
1.5581
 50
242.6656254
 51
270.5997675
  0
ARC
  8
LAYER_1
 10
456.9312
 20
-22.7793
 40
1.444
 50
231.0394007
 51
241.6937297
  0
ARC
  8
LAYER_1
 10
456.7898
 20
-22.9707
 40
1.2062
 50
198.8298963
 51
230.5439311
  0
ARC
  8
LAYER_1
 10
457.5363
 20
-22.6715
 40
2.0099
 50
188.8828728
 51
200.0356265
  0
ARC
  8
LAYER_1
 10
458.6852
 20
-22.4909
 40
3.1728
 50
179.6024255
 51
188.9007786
  0
ARC
  8
LAYER_1
 10
457.6417
 20
-22.4378
 40
2.1295
 50
156.9961882
 51
180.8363253
  0
ARC
  8
LAYER_1
 10
457.0605
 20
-22.2374
 40
1.5168
 50
128.7059702
 51
155.3860587
  0
ARC
  8
LAYER_1
 10
457.0272
 20
-22.1611
 40
1.4366
 50
100.5848343
 51
129.571126
  0
ARC
  8
LAYER_1
 10
456.9775
 20
-22.0356
 40
1.3044
 50
89.97128554
 51
99.45371105
  0
ARC
  8
LAYER_1
 10
456.9968
 20
-22.1561
 40
1.425
 50
61.29295446
 51
90.74801616
  0
ARC
  8
LAYER_1
 10
457.0455
 20
-22.0107
 40
1.2744
 50
51.18098152
 51
60.07445683
  0
ENDBLK
  0
BLOCK
  8
LAYER_1
  2
AIGNBL0103001E
 70
64
 10
0
 20
0
 30
0
  3
AIGNBL0103001E
  0
ARC
  8
LAYER_1
 10
460.18
 20
-22.9558
 40
1.1856
 50
50.64943832
 51
90.17558266
  0
ARC
  8
LAYER_1
 10
460.3245
 20
-22.7809
 40
0.9587
 50
14.76355825
 51
50.69855756
  0
ARC
  8
LAYER_1
 10
459.7126
 20
-22.9626
 40
1.5969
 50
359.0755011
 51
15.47390009
  0
ARC
  8
LAYER_1
 10
459.8208
 20
-23.0264
 40
1.489
 50
332.9248548
 51
1.463570552
  0
ARC
  8
LAYER_1
 10
460.3631
 20
-23.2528
 40
0.9042
 50
308.9730079
 51
330.0558863
  0
ARC
  8
LAYER_1
 10
460.1776
 20
-23.0318
 40
1.1927
 50
269.9408903
 51
309.2206234
  0
ARC
  8
LAYER_1
 10
460.1725
 20
-23.0405
 40
1.184
 50
230.6294792
 51
270.1898386
  0
ARC
  8
LAYER_1
 10
460.0223
 20
-23.2211
 40
0.9491
 50
194.5638459
 51
230.717391
  0
ARC
  8
LAYER_1
 10
460.7037
 20
-23.0173
 40
1.6601
 50
179.0015303
 51
195.4587807
  0
ARC
  8
LAYER_1
 10
460.4779
 20
-22.9525
 40
1.4344
 50
152.4345343
 51
181.4354742
  0
ARC
  8
LAYER_1
 10
459.9946
 20
-22.7504
 40
0.9135
 50
128.8594004
 51
149.6424325
  0
ARC
  8
LAYER_1
 10
460.1754
 20
-22.962
 40
1.1918
 50
89.95079209
 51
129.243361
  0
ARC
  8
LAYER_1
 10
460.1467
 20
-22.7921
 40
0.7489
 50
129.9690508
 51
170.50432
  0
ARC
  8
LAYER_1
 10
460.8985
 20
-22.975
 40
1.5216
 50
168.3814377
 51
180.5052229
  0
ARC
  8
LAYER_1
 10
460.589
 20
-23.0333
 40
1.2129
 50
177.8795579
 51
209.756134
  0
ARC
  8
LAYER_1
 10
460.0717
 20
-23.2745
 40
0.6459
 50
213.9597053
 51
231.0404803
  0
ARC
  8
LAYER_1
 10
460.1694
 20
-23.1578
 40
0.798
 50
230.8526879
 51
270.5032785
  0
ARC
  8
LAYER_1
 10
460.182
 20
-23.1534
 40
0.8024
 50
269.6036594
 51
309.0333707
  0
ARC
  8
LAYER_1
 10
460.204
 20
-23.2035
 40
0.7497
 50
310.1410327
 51
351.1994917
  0
ARC
  8
LAYER_1
 10
459.3709
 20
-23.0034
 40
1.6051
 50
348.6867346
 51
0.5342940393
  0
ARC
  8
LAYER_1
 10
459.8146
 20
-22.9467
 40
1.1621
 50
357.9422659
 51
30.40728733
  0
ARC
  8
LAYER_1
 10
460.2715
 20
-22.732
 40
0.661
 50
34.40395552
 51
51.02323355
  0
ARC
  8
LAYER_1
 10
460.1823
 20
-22.8403
 40
0.8013
 50
50.93832654
 51
90.42464333
  0
ARC
  8
LAYER_1
 10
460.1712
 20
-22.8421
 40
0.8031
 50
89.62768797
 51
129.0163456
  0
ENDBLK
  0
BLOCK
  8
LAYER_1
  2
AIGNBL0103001F
 70
64
 10
0
 20
0
 30
0
  3
AIGNBL0103001F
  0
ARC
  8
LAYER_1
 10
463.3885
 20
-23.1216
 40
1.0474
 50
91.96502422
 51
126.0433979
  0
ARC
  8
LAYER_1
 10
463.3332
 20
-23.008
 40
0.9233
 50
127.4120519
 51
128.9296933
  0
ARC
  8
LAYER_1
 10
463.5739
 20
-23.292
 40
1.2955
 50
129.3197231
 51
159.9017807
  0
ARC
  8
LAYER_1
 10
463.9104
 20
-23.4579
 40
1.669
 50
158.5258794
 51
163.6634749
  0
LINE
  8
LAYER_1
 10
462.3088
 20
-22.9884
 11
462.3088
 21
-24.2245
  0
LINE
  8
LAYER_1
 10
462.3088
 20
-24.2245
 11
461.998
 21
-24.2245
  0
LINE
  8
LAYER_1
 10
461.998
 20
-24.2245
 11
461.998
 21
-21.7702
  0
LINE
  8
LAYER_1
 10
461.998
 20
-21.7702
 11
462.3088
 21
-21.7702
  0
LINE
  8
LAYER_1
 10
462.3088
 20
-21.7702
 11
462.3088
 21
-22.4152
  0
ARC
  8
LAYER_1
 10
463.231
 20
-22.8608
 40
1.0242
 50
126.6453524
 51
154.2124873
  0
ARC
  8
LAYER_1
 10
463.3815
 20
-23.0053
 40
1.2305
 50
96.73275868
 51
128.2510725
  0
ARC
  8
LAYER_1
 10
463.4823
 20
-23.4264
 40
1.6612
 50
94.4770501
 51
98.4813672
  0
LINE
  8
LAYER_1
 10
463.3526
 20
-21.7702
 11
463.3526
 21
-22.0748
  0
ENDBLK
  0
BLOCK
  8
LAYER_1
  2
AIGNBL01030020
 70
64
 10
0
 20
0
 30
0
  3
AIGNBL01030020
  0
LINE
  8
LAYER_1
 10
464.3521
 20
-24.8874
 11
464.0413
 21
-24.8874
  0
LINE
  8
LAYER_1
 10
464.0413
 20
-24.8874
 11
464.0413
 21
-21.7702
  0
LINE
  8
LAYER_1
 10
464.0413
 20
-21.7702
 11
464.3521
 21
-21.7702
  0
LINE
  8
LAYER_1
 10
464.3521
 20
-21.7702
 11
464.3521
 21
-22.236
  0
ARC
  8
LAYER_1
 10
465.2714
 20
-22.8261
 40
1.0924
 50
128.1682586
 51
147.3013471
  0
ARC
  8
LAYER_1
 10
465.1493
 20
-22.6444
 40
0.8742
 50
89.84713268
 51
129.236819
  0
ARC
  8
LAYER_1
 10
465.1687
 20
-22.7345
 40
0.9645
 50
55.40604137
 51
91.0140482
  0
ARC
  8
LAYER_1
 10
465.2107
 20
-22.6375
 40
0.861
 50
51.11842627
 51
54.045517
  0
ARC
  8
LAYER_1
 10
465.1133
 20
-22.7533
 40
1.0123
 50
16.23203609
 51
50.93564151
  0
ARC
  8
LAYER_1
 10
464.5659
 20
-22.9239
 40
1.5855
 50
358.9626685
 51
16.62339195
  0
ARC
  8
LAYER_1
 10
464.4611
 20
-22.9967
 40
1.6907
 50
334.4981938
 51
1.496000273
  0
ARC
  8
LAYER_1
 10
465.1545
 20
-23.2756
 40
0.9459
 50
309.1102786
 51
331.6600402
  0
ARC
  8
LAYER_1
 10
465.1433
 20
-23.2576
 40
0.967
 50
269.1846897
 51
308.9522745
  0
ARC
  8
LAYER_1
 10
465.1302
 20
-23.3413
 40
0.8832
 50
230.9827884
 51
269.951588
  0
ARC
  8
LAYER_1
 10
465.0336
 20
-23.4216
 40
0.7604
 50
206.3247072
 51
232.827684
  0
LINE
  8
LAYER_1
 10
464.3521
 20
-23.7588
 11
464.3521
 21
-24.8874
  0
ARC
  8
LAYER_1
 10
465.1238
 20
-23.3217
 40
0.6365
 50
309.5487948
 51
332.3183397
  0
ARC
  8
LAYER_1
 10
464.7995
 20
-23.1569
 40
1.0003
 50
332.5883075
 51
348.2788412
  0
ARC
  8
LAYER_1
 10
463.9312
 20
-22.9778
 40
1.8868
 50
348.309497
 51
0.7638614413
  0
ARC
  8
LAYER_1
 10
464.3246
 20
-22.9199
 40
1.4936
 50
358.745005
 51
14.80219719
  0
ARC
  8
LAYER_1
 10
465.0814
 20
-22.7138
 40
0.7093
 50
14.32134294
 51
48.52360238
  0
ARC
  8
LAYER_1
 10
465.1427
 20
-22.6922
 40
0.6533
 50
51.30164547
 51
91.16128832
  0
ARC
  8
LAYER_1
 10
465.1219
 20
-22.773
 40
0.7341
 50
89.41016093
 51
128.7076416
  0
ARC
  8
LAYER_1
 10
465.1724
 20
-22.8189
 40
0.8015
 50
129.4672988
 51
169.0444422
  0
ARC
  8
LAYER_1
 10
465.7929
 20
-22.9752
 40
1.4408
 50
167.6325628
 51
180.5241893
  0
ARC
  8
LAYER_1
 10
465.5605
 20
-23.0267
 40
1.209
 50
178.1847678
 51
209.9064193
  0
ARC
  8
LAYER_1
 10
465.1193
 20
-23.2277
 40
0.7278
 50
213.5084044
 51
231.1608171
  0
ARC
  8
LAYER_1
 10
465.111
 20
-23.2525
 40
0.7034
 50
230.4254976
 51
269.6828744
  0
ARC
  8
LAYER_1
 10
465.1171
 20
-23.2923
 40
0.6636
 50
269.1350422
 51
308.3772055
  0
ENDBLK
  0
BLOCK
  8
LAYER_1
  2
AIGNBL01030021
 70
64
 10
0
 20
0
 30
0
  3
AIGNBL01030021
  0
LINE
  8
LAYER_1
 10
467.2837
 20
-23.8483
 11
467.2837
 21
-24.2245
  0
LINE
  8
LAYER_1
 10
467.2837
 20
-24.2245
 11
466.8395
 21
-24.2245
  0
LINE
  8
LAYER_1
 10
466.8395
 20
-24.2245
 11
466.8395
 21
-23.8483
  0
LINE
  8
LAYER_1
 10
466.8395
 20
-23.8483
 11
467.2837
 21
-23.8483
  0
ENDBLK
  0
BLOCK
  8
LAYER_1
  2
AIGNBL01020003
 70
64
 10
0
 20
0
 30
0
  3
AIGNBL01020003
  0
LINE
  8
LAYER_1
 10
339.2705
 20
-26.6172
 11
469.2192
 21
-26.6172
  0
LINE
  8
LAYER_1
 10
339.2705
 20
-66.6014
 11
339.2705
 21
-16.6211
  0
LINE
  8
LAYER_1
 10
339.2705
 20
-16.6211
 11
469.2192
 21
-16.6211
  0
LINE
  8
LAYER_1
 10
359.2626
 20
-66.6014
 11
359.2626
 21
-26.6172
  0
LINE
  8
LAYER_1
 10
424.2369
 20
-66.6014
 11
424.2369
 21
-26.6172
  0
LINE
  8
LAYER_1
 10
404.2448
 20
-66.6014
 11
404.2448
 21
-26.6172
  0
LINE
  8
LAYER_1
 10
339.2705
 20
-36.6132
 11
469.2192
 21
-36.6132
  0
LINE
  8
LAYER_1
 10
339.2705
 20
-46.6093
 11
469.2192
 21
-46.6093
  0
LINE
  8
LAYER_1
 10
339.2705
 20
-56.6053
 11
469.2192
 21
-56.6053
  0
ENDBLK
  0
BLOCK
  8
LAYER_1
  2
AIGNBL01020004
 70
64
 10
0
 20
0
 30
0
  3
AIGNBL01020004
  0
INSERT
  8
LAYER_1
  2
AIGNBL01030005
 10
0
 20
0
 30
0
  0
INSERT
  8
LAYER_1
  2
AIGNBL01030006
 10
0
 20
0
 30
0
  0
LINE
  8
LAYER_1
 10
364.2316
 20
-18.593
 11
364.2316
 21
-19.3256
  0
LINE
  8
LAYER_1
 10
364.2316
 20
-19.3256
 11
366.1829
 21
-19.3256
  0
LINE
  8
LAYER_1
 10
366.1829
 20
-19.3256
 11
366.1829
 21
-19.6099
  0
LINE
  8
LAYER_1
 10
366.1829
 20
-19.6099
 11
363.7498
 21
-19.6099
  0
LINE
  8
LAYER_1
 10
363.7498
 20
-19.6099
 11
363.7498
 21
-21.1532
  0
LINE
  8
LAYER_1
 10
363.7498
 20
-21.1532
 11
364.5768
 21
-21.1532
  0
LINE
  8
LAYER_1
 10
364.5768
 20
-21.1532
 11
364.5768
 21
-20.3293
  0
LINE
  8
LAYER_1
 10
364.5768
 20
-20.3293
 11
366.1791
 21
-20.3293
  0
LINE
  8
LAYER_1
 10
366.1791
 20
-20.3293
 11
366.1791
 21
-21.951
  0
LINE
  8
LAYER_1
 10
366.1791
 20
-21.951
 11
367.0965
 21
-21.951
  0
LINE
  8
LAYER_1
 10
367.0965
 20
-21.951
 11
367.0965
 21
-20.3293
  0
LINE
  8
LAYER_1
 10
367.0965
 20
-20.3293
 11
368.7118
 21
-20.3293
  0
LINE
  8
LAYER_1
 10
368.7118
 20
-20.3293
 11
368.7118
 21
-21.1532
  0
LINE
  8
LAYER_1
 10
368.7118
 20
-21.1532
 11
369.5774
 21
-21.1532
  0
LINE
  8
LAYER_1
 10
369.5774
 20
-21.1532
 11
369.5774
 21
-19.6099
  0
LINE
  8
LAYER_1
 10
369.5774
 20
-19.6099
 11
367.1003
 21
-19.6099
  0
LINE
  8
LAYER_1
 10
367.1003
 20
-19.6099
 11
367.1003
 21
-19.3256
  0
LINE
  8
LAYER_1
 10
367.1003
 20
-19.3256
 11
369.0579
 21
-19.3256
  0
LINE
  8
LAYER_1
 10
369.0579
 20
-19.3256
 11
369.0579
 21
-18.593
  0
LINE
  8
LAYER_1
 10
369.0579
 20
-18.593
 11
364.2316
 21
-18.593
  0
LINE
  8
LAYER_1
 10
364.7286
 20
-21.0494
 11
365.9083
 21
-21.0494
  0
LINE
  8
LAYER_1
 10
365.9083
 20
-21.0494
 11
365.9083
 21
-20.5839
  0
LINE
  8
LAYER_1
 10
365.9083
 20
-20.5839
 11
364.7286
 21
-20.5839
  0
LINE
  8
LAYER_1
 10
364.7286
 20
-20.5839
 11
364.7286
 21
-21.0494
  0
LINE
  8
LAYER_1
 10
364.5863
 20
-21.7545
 11
365.9082
 21
-21.7545
  0
LINE
  8
LAYER_1
 10
365.9082
 20
-21.7545
 11
365.9082
 21
-21.2892
  0
LINE
  8
LAYER_1
 10
365.9082
 20
-21.2892
 11
364.5863
 21
-21.2892
  0
LINE
  8
LAYER_1
 10
364.5863
 20
-21.2892
 11
364.5863
 21
-21.7545
  0
LINE
  8
LAYER_1
 10
367.3672
 20
-21.0494
 11
368.5469
 21
-21.0494
  0
LINE
  8
LAYER_1
 10
368.5469
 20
-21.0494
 11
368.5469
 21
-20.5839
  0
LINE
  8
LAYER_1
 10
368.5469
 20
-20.5839
 11
367.3672
 21
-20.5839
  0
LINE
  8
LAYER_1
 10
367.3672
 20
-20.5839
 11
367.3672
 21
-21.0494
  0
LINE
  8
LAYER_1
 10
367.3672
 20
-21.7545
 11
368.6955
 21
-21.7545
  0
LINE
  8
LAYER_1
 10
368.6955
 20
-21.7545
 11
368.6955
 21
-21.2892
  0
LINE
  8
LAYER_1
 10
368.6955
 20
-21.2892
 11
367.3672
 21
-21.2892
  0
LINE
  8
LAYER_1
 10
367.3672
 20
-21.2892
 11
367.3672
 21
-21.7545
  0
INSERT
  8
LAYER_1
  2
AIGNBL01030007
 10
0
 20
0
 30
0
  0
INSERT
  8
LAYER_1
  2
AIGNBL01030008
 10
0
 20
0
 30
0
  0
INSERT
  8
LAYER_1
  2
AIGNBL01030009
 10
0
 20
0
 30
0
  0
LINE
  8
LAYER_1
 10
341.8942
 20
-18.5614
 11
343.4346
 21
-18.5614
  0
LINE
  8
LAYER_1
 10
343.4346
 20
-18.5614
 11
345.5421
 21
-23.0789
  0
LINE
  8
LAYER_1
 10
345.5421
 20
-23.0789
 11
345.5421
 21
-22.3097
  0
LINE
  8
LAYER_1
 10
345.5421
 20
-22.3097
 11
347.0847
 21
-22.3097
  0
LINE
  8
LAYER_1
 10
347.0847
 20
-22.3097
 11
347.0847
 21
-24.6193
  0
LINE
  8
LAYER_1
 10
347.0847
 20
-24.6193
 11
344.7769
 21
-24.6193
  0
LINE
  8
LAYER_1
 10
344.7769
 20
-24.6193
 11
343.4307
 21
-21.7969
  0
LINE
  8
LAYER_1
 10
343.4307
 20
-21.7969
 11
343.4307
 21
-24.6193
  0
LINE
  8
LAYER_1
 10
343.4307
 20
-24.6193
 11
341.8942
 21
-24.6193
  0
LINE
  8
LAYER_1
 10
341.8942
 20
-24.6193
 11
341.8942
 21
-18.5614
  0
INSERT
  8
LAYER_1
  2
AIGNBL0103000A
 10
0
 20
0
 30
0
  0
ARC
  8
LAYER_1
 10
395.6228
 20
-22.2421
 40
1.991
 50
311.8536983
 51
336.66565
  0
ARC
  8
LAYER_1
 10
395.2143
 20
-22.0387
 40
2.4468
 50
336.0820229
 51
355.050887
  0
LINE
  8
LAYER_1
 10
397.652
 20
-22.2498
 11
397.652
 21
-19.0493
  0
LINE
  8
LAYER_1
 10
397.652
 20
-19.0493
 11
396.4658
 21
-19.0493
  0
LINE
  8
LAYER_1
 10
396.4658
 20
-19.0493
 11
396.4658
 21
-21.9151
  0
ARC
  8
LAYER_1
 10
394.9478
 20
-21.874
 40
1.5185
 50
331.8956217
 51
358.4504934
  0
ARC
  8
LAYER_1
 10
395.7367
 20
-22.2196
 40
0.6633
 50
317.1782762
 51
326.1116703
  0
ARC
  8
LAYER_1
 10
394.7907
 20
-21.265
 40
2.0068
 50
296.3435913
 51
315.5475613
  0
LINE
  8
LAYER_1
 10
395.6812
 20
-23.0634
 11
395.6812
 21
-24.2581
  0
ARC
  8
LAYER_1
 10
395.7315
 20
-23.1228
 40
1.1364
 50
267.460987
 51
280.8278078
  0
ARC
  8
LAYER_1
 10
395.6077
 20
-22.387
 40
1.8825
 50
280.3227292
 51
303.5087591
  0
ARC
  8
LAYER_1
 10
395.3215
 20
-21.8982
 40
2.4483
 50
302.7778523
 51
311.7357705
  0
ARC
  8
LAYER_1
 10
383.8582
 20
-21.2369
 40
1.9121
 50
200.4586691
 51
212.6743406
  0
ARC
  8
LAYER_1
 10
360.8299
 20
-29.6321
 40
22.5988
 50
19.99339328
 51
22.95988574
  0
ARC
  8
LAYER_1
 10
378.6335
 20
-22.195
 40
3.306
 50
24.64219126
 51
41.47959493
  0
ARC
  8
LAYER_1
 10
379.7074
 20
-21.3145
 40
1.9189
 50
43.02136381
 51
66.4525374
  0
ARC
  8
LAYER_1
 10
379.7452
 20
-21.2722
 40
1.8651
 50
66.99773131
 51
74.27463074
  0
ARC
  8
LAYER_1
 10
379.3948
 20
-22.5663
 40
3.2057
 50
74.51389392
 51
94.05361784
  0
ARC
  8
LAYER_1
 10
379.436
 20
-23.458
 40
4.0982
 50
93.74752603
 51
109.4964459
  0
ARC
  8
LAYER_1
 10
379.3155
 20
-23.2494
 40
3.8616
 50
108.8443826
 51
117.7785401
  0
ARC
  8
LAYER_1
 10
368.4808
 20
-19.7127
 40
9.0358
 50
353.3545297
 51
359.2384651
  0
ARC
  8
LAYER_1
 10
374.5967
 20
-20.478
 40
2.873
 50
340.8545036
 51
354.3986112
  0
ARC
  8
LAYER_1
 10
375.9845
 20
-20.8638
 40
1.4382
 50
308.1960555
 51
337.240372
  0
ARC
  8
LAYER_1
 10
376.186
 20
-21.1609
 40
1.0804
 50
298.9411123
 51
309.5405453
  0
LINE
  8
LAYER_1
 10
376.7088
 20
-22.1064
 11
376.7088
 21
-23.3788
  0
ARC
  8
LAYER_1
 10
376.133
 20
-20.8091
 40
2.6334
 50
282.629217
 51
311.7889792
  0
ARC
  8
LAYER_1
 10
376.7481
 20
-21.591
 40
1.6417
 50
313.9680024
 51
325.0993696
  0
ARC
  8
LAYER_1
 10
376.075
 20
-21.1667
 40
2.4368
 50
325.9722368
 51
337.2435268
  0
ARC
  8
LAYER_1
 10
374.4452
 20
-20.4759
 40
4.207
 50
337.1535495
 51
344.91421
  0
ARC
  8
LAYER_1
 10
372.5495
 20
-19.9463
 40
6.1753
 50
344.7481064
 51
353.2474184
  0
ARC
  8
LAYER_1
 10
379.476
 20
-22.45
 40
1.947
 50
90.61781687
 51
114.0708883
  0
ARC
  8
LAYER_1
 10
379.4502
 20
-21.5938
 40
1.0907
 50
61.474306
 51
89.74539799
  0
ARC
  8
LAYER_1
 10
379.5976
 20
-21.2581
 40
0.7259
 50
38.2714468
 51
59.04055946
  0
ARC
  8
LAYER_1
 10
378.9476
 20
-21.7619
 40
1.5482
 50
25.3011504
 51
38.01183044
  0
ARC
  8
LAYER_1
 10
374.0025
 20
-24.0904
 40
7.0141
 50
19.69622915
 51
25.23323144
  0
ARC
  8
LAYER_1
 10
386.9461
 20
-19.5396
 40
6.7064
 50
199.0304142
 51
214.1619839
  0
ARC
  8
LAYER_1
 10
385.1883
 20
-20.5955
 40
4.6604
 50
215.5556146
 51
216.3864829
  0
ARC
  8
LAYER_1
 10
383.6855
 20
-21.6697
 40
2.8135
 50
216.9324038
 51
237.9526107
  0
ARC
  8
LAYER_1
 10
383.2601
 20
-22.3143
 40
2.0414
 50
238.4737585
 51
260.7134162
  0
ARC
  8
LAYER_1
 10
383.0587
 20
-23.1943
 40
1.1418
 50
263.5627283
 51
265.8887812
  0
LINE
  8
LAYER_1
 10
382.9768
 20
-24.3332
 11
382.9768
 21
-22.9742
  0
ARC
  8
LAYER_1
 10
383.3434
 20
-22.147
 40
0.9048
 50
229.9708589
 51
246.0997112
  0
ARC
  8
LAYER_1
 10
384.4169
 20
-20.8366
 40
2.5987
 50
213.4542661
 51
230.4296508
  0
LINE
  8
LAYER_1
 10
382.0901
 20
-19.8796
 11
381.4745
 21
-19.8796
  0
LINE
  8
LAYER_1
 10
381.4745
 20
-19.8796
 11
381.3155
 21
-18.8814
  0
LINE
  8
LAYER_1
 10
381.3155
 20
-18.8814
 11
381.9318
 21
-18.8814
  0
LINE
  8
LAYER_1
 10
381.9318
 20
-18.8814
 11
382.0901
 21
-19.8796
  0
LINE
  8
LAYER_1
 10
383.0188
 20
-19.8796
 11
382.4029
 21
-19.8796
  0
LINE
  8
LAYER_1
 10
382.4029
 20
-19.8796
 11
382.2442
 21
-18.8814
  0
LINE
  8
LAYER_1
 10
382.2442
 20
-18.8814
 11
382.8606
 21
-18.8814
  0
LINE
  8
LAYER_1
 10
382.8606
 20
-18.8814
 11
383.0188
 21
-19.8796
  0
ARC
  8
LAYER_1
 10
383.3452
 20
-19.5626
 40
1.2598
 50
294.8462392
 51
325.7593989
  0
ARC
  8
LAYER_1
 10
383.5868
 20
-20.0818
 40
0.6873
 50
280.6862667
 51
294.7597554
  0
LINE
  8
LAYER_1
 10
383.7142
 20
-20.7571
 11
383.7142
 21
-22.0072
  0
ARC
  8
LAYER_1
 10
383.3879
 20
-19.5706
 40
2.4583
 50
277.6270469
 51
307.9992312
  0
ARC
  8
LAYER_1
 10
383.7857
 20
-20.2045
 40
1.7156
 50
310.5659115
 51
312.159519
  0
ARC
  8
LAYER_1
 10
383.3126
 20
-19.7505
 40
2.3702
 50
313.2688841
 51
336.1288754
  0
ARC
  8
LAYER_1
 10
382.549
 20
-19.2963
 40
3.254
 50
334.2571503
 51
342.7179381
  0
LINE
  8
LAYER_1
 10
385.6561
 20
-20.263
 11
388.0832
 21
-20.263
  0
ARC
  8
LAYER_1
 10
384.0183
 20
-20.476
 40
4.0705
 50
346.9025011
 51
2.999941785
  0
ARC
  8
LAYER_1
 10
385.3231
 20
-20.7848
 40
2.7296
 50
327.7013818
 51
347.0097259
  0
ARC
  8
LAYER_1
 10
386.118
 20
-21.2401
 40
1.8149
 50
312.9843281
 51
326.4412197
  0
ARC
  8
LAYER_1
 10
386.162
 20
-21.2473
 40
1.7799
 50
298.6772297
 51
312.1042011
  0
ARC
  8
LAYER_1
 10
385.719
 20
-20.4337
 40
2.7063
 50
288.7192833
 51
298.64049
  0
ARC
  8
LAYER_1
 10
385.0665
 20
-18.4569
 40
4.7879
 50
273.6020975
 51
288.52267
  0
ARC
  8
LAYER_1
 10
384.7612
 20
-16.1994
 40
7.062
 50
268.3271717
 51
274.9240462
  0
LINE
  8
LAYER_1
 10
384.555
 20
-23.2584
 11
384.555
 21
-24.3879
  0
ARC
  8
LAYER_1
 10
384.9661
 20
-16.1363
 40
8.2618
 50
267.1475499
 51
278.4142478
  0
ARC
  8
LAYER_1
 10
385.3877
 20
-18.8538
 40
5.5119
 50
278.2131806
 51
291.6024907
  0
ARC
  8
LAYER_1
 10
386.3117
 20
-21.293
 40
2.9041
 50
292.3703177
 51
310.8518436
  0
ARC
  8
LAYER_1
 10
386.898
 20
-22.0381
 40
1.9575
 50
312.1363704
 51
321.4360617
  0
ARC
  8
LAYER_1
 10
386.3493
 20
-21.2741
 40
2.8742
 50
316.3403134
 51
335.9447601
  0
ARC
  8
LAYER_1
 10
384.9732
 20
-20.6215
 40
4.3969
 50
335.488256
 51
350.554217
  0
ARC
  8
LAYER_1
 10
382.3156
 20
-20.0996
 40
7.1046
 50
349.9195385
 51
2.135290941
  0
ARC
  8
LAYER_1
 10
382.3137
 20
-20.0083
 40
7.1036
 50
1.398744845
 51
7.163066818
  0
LINE
  8
LAYER_1
 10
389.3619
 20
-19.1225
 11
384.6757
 21
-19.1225
  0
ARC
  8
LAYER_1
 10
379.5567
 20
-18.5724
 40
5.1485
 50
346.1208209
 51
353.8665991
  0
ARC
  8
LAYER_1
 10
382.5401
 20
-19.3399
 40
2.0683
 50
333.2294573
 51
346.9363389
  0
ARC
  8
LAYER_1
 10
377.3708
 20
-106.144
 40
86.7721
 50
78.78700631
 51
80.56640675
  0
LINE
  8
LAYER_1
 10
391.5931
 20
-20.5454
 11
391.5931
 21
-18.9096
  0
LINE
  8
LAYER_1
 10
391.5931
 20
-18.9096
 11
390.2958
 21
-18.9096
  0
LINE
  8
LAYER_1
 10
390.2958
 20
-18.9096
 11
390.2958
 21
-24.3878
  0
LINE
  8
LAYER_1
 10
390.2958
 20
-24.3878
 11
391.5931
 21
-24.3878
  0
LINE
  8
LAYER_1
 10
391.5931
 20
-24.3878
 11
391.5931
 21
-21.7936
  0
ARC
  8
LAYER_1
 10
391.8122
 20
-24.3619
 40
2.5777
 50
85.26912846
 51
94.87697352
  0
ARC
  8
LAYER_1
 10
391.5474
 20
-28.0073
 40
6.2326
 50
76.32160786
 51
85.60637667
  0
ARC
  8
LAYER_1
 10
382.6865
 20
-65.0935
 40
44.3625
 50
73.58294073
 51
76.52865465
  0
LINE
  8
LAYER_1
 10
395.2246
 20
-22.5396
 11
395.2246
 21
-21.2884
  0
ARC
  8
LAYER_1
 10
392.0121
 20
-31.4196
 40
10.6283
 50
72.40665783
 51
77.87678181
  0
ARC
  8
LAYER_1
 10
398.8888
 20
-20.9171
 40
3.2368
 50
288.2682375
 51
307.5749128
  0
ARC
  8
LAYER_1
 10
398.4053
 20
-19.5973
 40
4.6418
 50
274.0145895
 51
288.8290898
  0
ARC
  8
LAYER_1
 10
398.4053
 20
-20.3924
 40
3.8491
 50
268.360011
 51
274.8439918
  0
LINE
  8
LAYER_1
 10
398.2951
 20
-24.2399
 11
398.2951
 21
-18.8434
  0
LINE
  8
LAYER_1
 10
398.2951
 20
-18.8434
 11
399.5838
 21
-18.8434
  0
LINE
  8
LAYER_1
 10
399.5838
 20
-18.8434
 11
399.5838
 21
-22.8383
  0
ARC
  8
LAYER_1
 10
399.4956
 20
-22.1335
 40
0.7103
 50
277.1314049
 51
295.958207
  0
ARC
  8
LAYER_1
 10
399.2786
 20
-21.686
 40
1.2076
 50
295.9193969
 51
325.4807177
  0
ARC
  8
LAYER_1
 10
398.9134
 20
-21.3577
 40
1.6958
 50
323.3344126
 51
327.8455613
  0
ARC
  8
LAYER_1
 10
399.1503
 20
-21.5329
 40
1.4022
 50
328.753104
 51
343.5635435
  0
ARC
  8
LAYER_1
 10
397.9377
 20
-21.1696
 40
2.6681
 50
343.4495362
 51
352.9514753
  0
ARC
  8
LAYER_1
 10
395.8698
 20
-20.9074
 40
4.7525
 50
352.8742823
 51
4.069265984
  0
LINE
  8
LAYER_1
 10
400.6103
 20
-20.5702
 11
401.7958
 21
-20.5702
  0
ARC
  8
LAYER_1
 10
396.0506
 20
-20.8034
 40
5.75
 50
348.7691617
 51
2.324459127
  0
ARC
  8
LAYER_1
 10
398.1468
 20
-21.2257
 40
3.6116
 50
332.2799632
 51
348.8629354
  0
ARC
  8
LAYER_1
 10
399.6246
 20
-21.96
 40
1.9623
 50
309.1184749
 51
331.1898301
  0
ENDBLK
  0
BLOCK
  8
LAYER_1
  2
AIGNBL0102000B
 70
64
 10
0
 20
0
 30
0
  3
AIGNBL0102000B
  0
INSERT
  8
LAYER_1
  2
AIGNBL0103000C
 10
0
 20
0
 30
0
  0
INSERT
  8
LAYER_1
  2
AIGNBL0103000D
 10
0
 20
0
 30
0
  0
INSERT
  8
LAYER_1
  2
AIGNBL0103000E
 10
0
 20
0
 30
0
  0
INSERT
  8
LAYER_1
  2
AIGNBL0103000F
 10
0
 20
0
 30
0
  0
INSERT
  8
LAYER_1
  2
AIGNBL01030010
 10
0
 20
0
 30
0
  0
INSERT
  8
LAYER_1
  2
AIGNBL01030011
 10
0
 20
0
 30
0
  0
INSERT
  8
LAYER_1
  2
AIGNBL01030012
 10
0
 20
0
 30
0
  0
INSERT
  8
LAYER_1
  2
AIGNBL01030013
 10
0
 20
0
 30
0
  0
INSERT
  8
LAYER_1
  2
AIGNBL01030014
 10
0
 20
0
 30
0
  0
INSERT
  8
LAYER_1
  2
AIGNBL01030015
 10
0
 20
0
 30
0
  0
INSERT
  8
LAYER_1
  2
AIGNBL01030016
 10
0
 20
0
 30
0
  0
INSERT
  8
LAYER_1
  2
AIGNBL01030017
 10
0
 20
0
 30
0
  0
INSERT
  8
LAYER_1
  2
AIGNBL01030018
 10
0
 20
0
 30
0
  0
INSERT
  8
LAYER_1
  2
AIGNBL01030019
 10
0
 20
0
 30
0
  0
INSERT
  8
LAYER_1
  2
AIGNBL0103001A
 10
0
 20
0
 30
0
  0
INSERT
  8
LAYER_1
  2
AIGNBL0103001B
 10
0
 20
0
 30
0
  0
INSERT
  8
LAYER_1
  2
AIGNBL0103001C
 10
0
 20
0
 30
0
  0
INSERT
  8
LAYER_1
  2
AIGNBL0103001D
 10
0
 20
0
 30
0
  0
INSERT
  8
LAYER_1
  2
AIGNBL0103001E
 10
0
 20
0
 30
0
  0
INSERT
  8
LAYER_1
  2
AIGNBL0103001F
 10
0
 20
0
 30
0
  0
INSERT
  8
LAYER_1
  2
AIGNBL01030020
 10
0
 20
0
 30
0
  0
INSERT
  8
LAYER_1
  2
AIGNBL01030021
 10
0
 20
0
 30
0
  0
ENDBLK
  0
BLOCK
  8
LAYER_1
  2
AIGNBL01020025
 70
64
 10
0
 20
0
 30
0
  3
AIGNBL01020025
  0
LINE
  8
LAYER_1
 10
266.1178
 20
-7.5186
 11
266.1178
 21
-7.3591
  0
LINE
  8
LAYER_1
 10
266.1178
 20
-7.3591
 11
266.9928
 21
-7.3591
  0
LINE
  8
LAYER_1
 10
266.9928
 20
-7.3591
 11
266.9928
 21
-7.4883
  0
ARC
  8
LAYER_1
 10
268.4024
 20
-8.7472
 40
1.8899
 50
138.2333237
 51
151.7763167
  0
ARC
  8
LAYER_1
 10
268.6647
 20
-8.9354
 40
2.2104
 50
150.6917716
 51
163.8774664
  0
ARC
  8
LAYER_1
 10
268.2724
 20
-8.81
 40
1.7988
 50
164.2440136
 51
176.2820098
  0
LINE
  8
LAYER_1
 10
266.4774
 20
-8.6934
 11
266.3073
 21
-8.6934
  0
ARC
  8
LAYER_1
 10
267.9917
 20
-8.7694
 40
1.6861
 50
164.1118637
 51
177.4167826
  0
ARC
  8
LAYER_1
 10
268.3439
 20
-8.8338
 40
2.0427
 50
151.9237601
 51
165.078204
  0
ARC
  8
LAYER_1
 10
268.1555
 20
-8.7028
 40
1.8151
 50
139.2778548
 51
152.7758362
  0
LINE
  8
LAYER_1
 10
266.7799
 20
-7.5186
 11
266.1178
 21
-7.5186
  0
ENDBLK
  0
BLOCK
  8
LAYER_1
  2
AIGNBL01020026
 70
64
 10
0
 20
0
 30
0
  3
AIGNBL01020026
  0
LINE
  8
LAYER_1
 10
275.4702
 20
-8.5301
 11
275.4702
 21
-8.6896
  0
LINE
  8
LAYER_1
 10
275.4702
 20
-8.6896
 11
274.5765
 21
-8.6896
  0
ARC
  8
LAYER_1
 10
274.8717
 20
-8.6797
 40
0.2954
 50
159.0829901
 51
181.9279611
  0
ARC
  8
LAYER_1
 10
275.1826
 20
-8.8093
 40
0.6321
 50
139.0157472
 51
158.1690303
  0
ARC
  8
LAYER_1
 10
276.1112
 20
-9.6654
 40
1.895
 50
128.8535396
 51
137.8888105
  0
ARC
  8
LAYER_1
 10
274.0812
 20
-7.0171
 40
1.4431
 50
305.6542129
 51
322.1091811
  0
ARC
  8
LAYER_1
 10
274.9638
 20
-7.689
 40
0.3341
 50
320.0895426
 51
357.4510304
  0
ARC
  8
LAYER_1
 10
275.0735
 20
-7.7008
 40
0.2241
 50
359.2107799
 51
46.77019067
  0
ARC
  8
LAYER_1
 10
275.0528
 20
-7.7268
 40
0.2573
 50
47.37296437
 51
92.11084331
  0
ARC
  8
LAYER_1
 10
275.032
 20
-7.7314
 40
0.262
 50
87.53879775
 51
133.5929235
  0
ARC
  8
LAYER_1
 10
275.0524
 20
-7.7283
 40
0.2743
 50
137.1259302
 51
182.6031541
  0
LINE
  8
LAYER_1
 10
274.7784
 20
-7.7408
 11
274.6079
 21
-7.7232
  0
ARC
  8
LAYER_1
 10
275.0391
 20
-7.7434
 40
0.4316
 50
133.8930514
 51
177.311109
  0
ARC
  8
LAYER_1
 10
275.0215
 20
-7.775
 40
0.4436
 50
86.72833212
 51
129.4234139
  0
ARC
  8
LAYER_1
 10
275.0653
 20
-7.7732
 40
0.4414
 50
49.0180807
 51
92.40182685
  0
ARC
  8
LAYER_1
 10
275.1096
 20
-7.7016
 40
0.3585
 50
359.0696513
 51
46.85604748
  0
ARC
  8
LAYER_1
 10
275.0542
 20
-7.705
 40
0.414
 50
336.9292504
 51
359.665929
  0
ARC
  8
LAYER_1
 10
274.8292
 20
-7.5819
 40
0.6697
 50
317.7425136
 51
334.7812444
  0
ARC
  8
LAYER_1
 10
273.0635
 20
-5.8545
 40
3.1394
 50
309.6991189
 51
316.0792878
  0
LINE
  8
LAYER_1
 10
275.0688
 20
-8.27
 11
274.8773
 21
-8.4401
  0
LINE
  8
LAYER_1
 10
274.8773
 20
-8.4401
 11
274.807
 21
-8.5301
  0
LINE
  8
LAYER_1
 10
274.807
 20
-8.5301
 11
275.4702
 21
-8.5301
  0
ENDBLK
  0
BLOCK
  8
LAYER_1
  2
AIGNBL01020028
 70
64
 10
0
 20
0
 30
0
  3
AIGNBL01020028
  0
ENDBLK
  0
BLOCK
  8
LAYER_1
  2
AIGNBL01020029
 70
64
 10
0
 20
0
 30
0
  3
AIGNBL01020029
  0
LINE
  8
LAYER_1
 62
3
 10
261.2132
 20
116.2112
 11
245.5716
 21
116.2112
  0
ENDBLK
  0
BLOCK
  8
LAYER_1
  2
AIGNBL0102002A
 70
64
 10
0
 20
0
 30
0
  3
AIGNBL0102002A
  0
LINE
  8
LAYER_1
 62
3
 10
261.2132
 20
41.2112
 11
245.5716
 21
41.2112
  0
ENDBLK
  0
BLOCK
  8
LAYER_1
  2
AIGNBL0102002B
 70
64
 10
0
 20
0
 30
0
  3
AIGNBL0102002B
  0
LINE
  8
LAYER_1
 62
3
 10
246.8216
 20
113.7112
 11
246.8216
 21
43.7112
  0
ENDBLK
  0
BLOCK
  8
LAYER_1
  2
AIGNBL0102002C
 70
64
 10
0
 20
0
 30
0
  3
AIGNBL0102002C
  0
LINE
  8
LAYER_1
 62
3
 10
246.4049
 20
113.7112
 11
246.8216
 21
116.2112
  0
LINE
  8
LAYER_1
 62
3
 10
246.8216
 20
116.2112
 11
247.2382
 21
113.7112
  0
LINE
  8
LAYER_1
 62
3
 10
247.2382
 20
113.7112
 11
246.4049
 21
113.7112
  0
ENDBLK
  0
BLOCK
  8
LAYER_1
  2
AIGNBL0102002D
 70
64
 10
0
 20
0
 30
0
  3
AIGNBL0102002D
  0
LINE
  8
LAYER_1
 62
3
 10
246.4049
 20
43.7112
 11
246.8216
 21
41.2112
  0
LINE
  8
LAYER_1
 62
3
 10
246.8216
 20
41.2112
 11
247.2382
 21
43.7112
  0
LINE
  8
LAYER_1
 62
3
 10
247.2382
 20
43.7112
 11
246.4049
 21
43.7112
  0
ENDBLK
  0
BLOCK
  8
LAYER_1
  2
AIGNBL0102002E
 70
64
 10
0
 20
0
 30
0
  3
AIGNBL0102002E
  0
TEXT
  8
LAYER_1
 10
246.154
 20
76.7588
 11
246.154
 21
76.7588
 40
3.7421
 41
0.5
 50
89.99999999
 62
3
  1
75
  0
ENDBLK
  0
BLOCK
  8
LAYER_1
  2
AIGNBL01020030
 70
64
 10
0
 20
0
 30
0
  3
AIGNBL01020030
  0
ENDBLK
  0
BLOCK
  8
LAYER_1
  2
AIGNBL01020031
 70
64
 10
0
 20
0
 30
0
  3
AIGNBL01020031
  0
LINE
  8
LAYER_1
 62
3
 10
261.1382
 20
45.9862
 11
261.1382
 21
32.7256
  0
ENDBLK
  0
BLOCK
  8
LAYER_1
  2
AIGNBL01020032
 70
64
 10
0
 20
0
 30
0
  3
AIGNBL01020032
  0
LINE
  8
LAYER_1
 62
3
 10
280.3382
 20
45.9862
 11
280.3382
 21
32.7256
  0
ENDBLK
  0
BLOCK
  8
LAYER_1
  2
AIGNBL01020033
 70
64
 10
0
 20
0
 30
0
  3
AIGNBL01020033
  0
LINE
  8
LAYER_1
 62
3
 10
263.6382
 20
33.9756
 11
277.8382
 21
33.9756
  0
ENDBLK
  0
BLOCK
  8
LAYER_1
  2
AIGNBL01020034
 70
64
 10
0
 20
0
 30
0
  3
AIGNBL01020034
  0
LINE
  8
LAYER_1
 62
3
 10
263.6382
 20
34.3923
 11
261.1382
 21
33.9756
  0
LINE
  8
LAYER_1
 62
3
 10
261.1382
 20
33.9756
 11
263.6382
 21
33.559
  0
LINE
  8
LAYER_1
 62
3
 10
263.6382
 20
33.559
 11
263.6382
 21
34.3923
  0
ENDBLK
  0
BLOCK
  8
LAYER_1
  2
AIGNBL01020035
 70
64
 10
0
 20
0
 30
0
  3
AIGNBL01020035
  0
LINE
  8
LAYER_1
 62
3
 10
277.8382
 20
34.3923
 11
280.3382
 21
33.9756
  0
LINE
  8
LAYER_1
 62
3
 10
280.3382
 20
33.9756
 11
277.8382
 21
33.559
  0
LINE
  8
LAYER_1
 62
3
 10
277.8382
 20
33.559
 11
277.8382
 21
34.3923
  0
ENDBLK
  0
BLOCK
  8
LAYER_1
  2
AIGNBL01020036
 70
64
 10
0
 20
0
 30
0
  3
AIGNBL01020036
  0
TEXT
  8
LAYER_1
 10
267.2457
 20
35.0943
 11
267.2457
 21
35.0943
 40
3.7421
 41
0.5
 62
3
  1
19,2
  0
ENDBLK
  0
BLOCK
  8
LAYER_1
  2
AIGNBL01010002
 70
64
 10
0
 20
0
 30
0
  3
AIGNBL01010002
  0
INSERT
  8
LAYER_1
  2
AIGNBL01020003
 10
0
 20
0
 30
0
  0
TEXT
  8
LAYER_1
 10
348.9088
 20
-30.5741
 11
348.9088
 21
-30.5741
 40
3.1044
 41
0.5
 72
1
  1
品名
  0
TEXT
  8
LAYER_1
 10
348.9088
 20
-35.2308
 11
348.9088
 21
-35.2308
 40
3.1044
 41
0.5
 72
1
  1
PRODUCT
  0
TEXT
  8
LAYER_1
 10
414.219
 20
-30.5741
 11
414.219
 21
-30.5741
 40
3.1044
 41
0.5
 72
1
  1
型式
  0
TEXT
  8
LAYER_1
 10
414.219
 20
-35.2308
 11
414.219
 21
-35.2308
 40
3.1044
 41
0.5
 72
1
  1
TYPE
  0
TEXT
  8
LAYER_1
 10
414.219
 20
-40.4516
 11
414.219
 21
-40.4516
 40
3.1044
 41
0.5
 72
1
  1
単位
  0
TEXT
  8
LAYER_1
 10
414.219
 20
-45.1084
 11
414.219
 21
-45.1084
 40
3.1044
 41
0.5
 72
1
  1
UNIT
  0
TEXT
  8
LAYER_1
 10
414.219
 20
-60.5799
 11
414.219
 21
-60.5799
 40
3.4815
 41
0.5
 72
1
  1
設計
  0
TEXT
  8
LAYER_1
 10
414.2191
 20
-65.802
 11
414.2191
 21
-65.802
 40
3.4815
 41
0.5
 72
1
  1
DESIGNED
  0
TEXT
  8
LAYER_1
 10
349.219
 20
-40.4517
 11
349.219
 21
-40.4517
 40
3.1044
 41
0.5
 72
1
  1
寸法
  0
TEXT
  8
LAYER_1
 10
349.219
 20
-45.1085
 11
349.219
 21
-45.1085
 40
3.1044
 41
0.5
 72
1
  1
SIZE
  0
TEXT
  8
LAYER_1
 10
349.219
 20
-60.5801
 11
349.219
 21
-60.5801
 40
3.1044
 41
0.5
 72
1
  1
材質
  0
TEXT
  8
LAYER_1
 10
349.219
 20
-65.2368
 11
349.219
 21
-65.2368
 40
3.1044
 41
0.5
 72
1
  1
MATERIAL
  0
TEXT
  8
LAYER_1
 10
349.7268
 20
-50.452
 11
349.7268
 21
-50.452
 40
3.1044
 41
0.5
 72
1
  1
ネジ
  0
TEXT
  8
LAYER_1
 10
349.219
 20
-55.1087
 11
349.219
 21
-55.1087
 40
3.1044
 41
0.5
 72
1
  1
SCREW
  0
TEXT
  8
LAYER_1
 10
413.9088
 20
-50.4519
 11
413.9088
 21
-50.4519
 40
3.1044
 41
0.5
 72
1
  1
日付
  0
TEXT
  8
LAYER_1
 10
413.9088
 20
-55.1086
 11
413.9088
 21
-55.1086
 40
3.1044
 41
0.5
 72
1
  1
DATE
  0
TEXT
  8
LAYER_1
 10
380.3578
 20
-43.2231
 11
380.3578
 21
-43.2231
 40
3.6689
 41
0.5
 72
1
  1
W19.2×H75×D54
  0
TEXT
  8
LAYER_1
 10
446.7193
 20
-43.2231
 11
446.7193
 21
-43.2231
 40
3.6689
 41
0.5
 72
1
  1
mm
  0
TEXT
  8
LAYER_1
 10
446.7193
 20
-32.7918
 11
446.7193
 21
-32.7918
 40
3.1044
 41
0.5
 72
1
  1
SF-212
  0
TEXT
  8
LAYER_1
 10
446.7193
 20
-53.2231
 11
446.7193
 21
-53.2231
 40
3.6689
 41
0.5
 72
1
  1
2017.09.11
  0
TEXT
  8
LAYER_1
 10
446.719
 20
-63.2231
 11
446.719
 21
-63.2231
 40
3.6689
 41
0.5
 72
1
  1
戸森 幹二
  0
TEXT
  8
LAYER_1
 10
384.1826
 20
-63.2231
 11
384.1826
 21
-63.2231
 40
3.6689
 41
0.5
 72
1
  1
黒色プラスチック
  0
TEXT
  8
LAYER_1
 10
381.719
 20
-30.8515
 11
381.719
 21
-30.8515
 40
3.1044
 41
0.5
 72
1
  1
2線式伝送回線用
  0
TEXT
  8
LAYER_1
 10
381.7193
 20
-35.5083
 11
381.7193
 21
-35.5083
 40
3.1044
 41
0.5
 72
1
  1
避雷器
  0
TEXT
  8
LAYER_1
 10
385.1148
 20
-50.8515
 11
385.1148
 21
-50.8515
 40
3.1044
 41
0.5
 72
1
  1
鉄　クロメート
  0
TEXT
  8
LAYER_1
 10
381.7193
 20
-55.5083
 11
381.7193
 21
-55.5083
 40
3.1044
 41
0.5
 72
1
  1
M3.5
  0
INSERT
  8
LAYER_1
  2
AIGNBL01020004
 10
0
 20
0
 30
0
  0
INSERT
  8
LAYER_1
  2
AIGNBL0102000B
 10
0
 20
0
 30
0
  0
ENDBLK
  0
BLOCK
  8
LAYER_1
  2
AIGNBL01010022
 70
64
 10
0
 20
0
 30
0
  3
AIGNBL01010022
  0
LINE
  8
LAYER_1
 10
261.1382
 20
55.2112
 11
280.3382
 21
55.2112
  0
LINE
  8
LAYER_1
 10
261.1382
 20
66.3112
 11
262.3382
 21
66.3112
  0
LINE
  8
LAYER_1
 10
279.1382
 20
66.3112
 11
280.3382
 21
66.3112
  0
LINE
  8
LAYER_1
 10
261.1382
 20
46.6112
 11
262.8382
 21
46.6112
  0
LINE
  8
LAYER_1
 10
261.1382
 20
56.6112
 11
280.3382
 21
56.6112
  0
LINE
  8
LAYER_1
 10
270.1382
 20
46.6112
 11
271.3382
 21
46.6112
  0
LINE
  8
LAYER_1
 10
278.6382
 20
46.6112
 11
280.3382
 21
46.6112
  0
LINE
  8
LAYER_1
 10
278.6382
 20
64.7112
 11
278.6382
 21
46.2112
  0
ARC
  8
LAYER_1
 10
277.6382
 20
46.2112
 40
1
 50
270.0005683
 51
359.9994317
  0
ARC
  8
LAYER_1
 10
277.6382
 20
44.7112
 40
0.5
 50
89.99886338
 51
180.0011366
  0
LINE
  8
LAYER_1
 10
277.1382
 20
44.7112
 11
277.1382
 21
44.4112
  0
LINE
  8
LAYER_1
 10
277.1382
 20
44.4112
 11
264.3382
 21
44.4112
  0
LINE
  8
LAYER_1
 10
264.3382
 20
44.4112
 11
264.3382
 21
44.7112
  0
ARC
  8
LAYER_1
 10
263.8382
 20
44.7112
 40
0.5
 50
359.9988364
 51
90.00116363
  0
ARC
  8
LAYER_1
 10
263.8382
 20
46.2112
 40
1
 50
180.0005819
 51
269.9994182
  0
LINE
  8
LAYER_1
 10
262.8382
 20
46.2112
 11
262.8382
 21
64.7112
  0
LINE
  8
LAYER_1
 10
270.1382
 20
64.7112
 11
270.1382
 21
55.2112
  0
LINE
  8
LAYER_1
 10
270.1382
 20
55.2112
 11
270.1382
 21
45.2112
  0
LINE
  8
LAYER_1
 10
270.1382
 20
45.2112
 11
271.3382
 21
45.2112
  0
LINE
  8
LAYER_1
 10
271.3382
 20
45.2112
 11
271.3382
 21
55.2112
  0
LINE
  8
LAYER_1
 10
271.3382
 20
55.2112
 11
271.3382
 21
64.7112
  0
LINE
  8
LAYER_1
 10
269.7382
 20
44.7112
 11
271.7382
 21
44.7112
  0
LINE
  8
LAYER_1
 10
275.9382
 20
44.4112
 11
275.9382
 21
43.2112
  0
LINE
  8
LAYER_1
 10
275.9382
 20
43.2112
 11
273.2382
 21
41.2112
  0
LINE
  8
LAYER_1
 10
273.2382
 20
41.2112
 11
268.2382
 21
41.2112
  0
LINE
  8
LAYER_1
 10
268.2382
 20
41.2112
 11
265.5382
 21
43.2112
  0
LINE
  8
LAYER_1
 10
265.5382
 20
43.2112
 11
265.5382
 21
44.4112
  0
LINE
  8
LAYER_1
 10
271.7382
 20
44.4112
 11
271.7382
 21
53.7112
  0
LINE
  8
LAYER_1
 10
271.7382
 20
53.7112
 11
278.6382
 21
53.7112
  0
LINE
  8
LAYER_1
 10
272.2382
 20
53.5112
 11
277.7382
 21
53.5112
  0
ARC
  8
LAYER_1
 10
277.7382
 20
53.0112
 40
0.5
 50
359.998836
 51
90.00116395
  0
LINE
  8
LAYER_1
 10
278.2382
 20
53.0112
 11
278.2382
 21
47.5112
  0
ARC
  8
LAYER_1
 10
277.7382
 20
47.5112
 40
0.5
 50
270.0011367
 51
359.9988633
  0
LINE
  8
LAYER_1
 10
277.7382
 20
47.0112
 11
272.2382
 21
47.0112
  0
ARC
  8
LAYER_1
 10
272.2382
 20
47.5112
 40
0.5
 50
180.0011639
 51
269.9988362
  0
LINE
  8
LAYER_1
 10
271.7382
 20
47.5112
 11
271.7382
 21
53.0112
  0
ARC
  8
LAYER_1
 10
272.2382
 20
53.0112
 40
0.5
 50
89.99886318
 51
180.0011368
  0
LINE
  8
LAYER_1
 10
262.8382
 20
63.7112
 11
270.1382
 21
63.7112
  0
LINE
  8
LAYER_1
 10
271.3382
 20
63.7112
 11
278.6382
 21
63.7112
  0
LINE
  8
LAYER_1
 10
263.7382
 20
63.7112
 11
269.2382
 21
63.7112
  0
ARC
  8
LAYER_1
 10
269.2382
 20
63.2112
 40
0.5
 50
359.998836
 51
90.00116398
  0
LINE
  8
LAYER_1
 10
269.7382
 20
63.2112
 11
269.7382
 21
57.7112
  0
ARC
  8
LAYER_1
 10
269.2382
 20
57.7112
 40
0.5
 50
270.0011369
 51
359.9988631
  0
LINE
  8
LAYER_1
 10
269.2382
 20
57.2112
 11
263.7382
 21
57.2112
  0
ARC
  8
LAYER_1
 10
263.7382
 20
57.7112
 40
0.5
 50
180.0011639
 51
269.9988362
  0
LINE
  8
LAYER_1
 10
263.2382
 20
57.7112
 11
263.2382
 21
63.2112
  0
ARC
  8
LAYER_1
 10
263.7382
 20
63.2112
 40
0.5
 50
89.99886291
 51
180.0011371
  0
LINE
  8
LAYER_1
 10
271.7382
 20
60.4612
 11
271.7382
 21
63.2112
  0
ARC
  8
LAYER_1
 10
272.2382
 20
63.2112
 40
0.5
 50
89.99886303
 51
180.001137
  0
LINE
  8
LAYER_1
 10
272.2382
 20
63.7112
 11
277.7382
 21
63.7112
  0
ARC
  8
LAYER_1
 10
277.7382
 20
63.2112
 40
0.5
 50
359.9988359
 51
90.0011641
  0
LINE
  8
LAYER_1
 10
278.2382
 20
63.2112
 11
278.2382
 21
57.7112
  0
ARC
  8
LAYER_1
 10
277.7382
 20
57.7112
 40
0.5
 50
270.0011368
 51
359.9988632
  0
LINE
  8
LAYER_1
 10
277.7382
 20
57.2112
 11
272.2382
 21
57.2112
  0
ARC
  8
LAYER_1
 10
272.2382
 20
57.7112
 40
0.5
 50
180.001164
 51
269.998836
  0
LINE
  8
LAYER_1
 10
271.7382
 20
57.7112
 11
271.7382
 21
63.2112
  0
LINE
  8
LAYER_1
 10
269.2382
 20
53.5112
 11
263.7382
 21
53.5112
  0
ARC
  8
LAYER_1
 10
263.7382
 20
53.0112
 40
0.5
 50
89.99886306
 51
180.001137
  0
LINE
  8
LAYER_1
 10
263.2382
 20
53.0112
 11
263.2382
 21
47.5112
  0
ARC
  8
LAYER_1
 10
263.7382
 20
47.5112
 40
0.5
 50
180.0011637
 51
269.9988363
  0
LINE
  8
LAYER_1
 10
263.7382
 20
47.0112
 11
269.2382
 21
47.0112
  0
ARC
  8
LAYER_1
 10
269.2382
 20
47.5112
 40
0.5
 50
270.0011368
 51
359.9988632
  0
LINE
  8
LAYER_1
 10
269.7382
 20
47.5112
 11
269.7382
 21
53.0112
  0
ARC
  8
LAYER_1
 10
269.2382
 20
53.0112
 40
0.5
 50
359.9988362
 51
90.00116383
  0
LINE
  8
LAYER_1
 10
269.7382
 20
44.4112
 11
269.7382
 21
53.7112
  0
LINE
  8
LAYER_1
 10
269.7382
 20
53.7112
 11
262.8382
 21
53.7112
  0
LINE
  8
LAYER_1
 10
261.1382
 20
114.8112
 11
280.3382
 21
114.8112
  0
LINE
  8
LAYER_1
 10
263.8382
 20
45.2112
 11
261.8382
 21
45.2112
  0
LINE
  8
LAYER_1
 10
261.8382
 20
45.2112
 11
261.1382
 21
46.6112
  0
LINE
  8
LAYER_1
 10
261.1382
 20
46.6112
 11
261.1382
 21
114.8112
  0
LINE
  8
LAYER_1
 10
261.1382
 20
114.8112
 11
261.8382
 21
116.2112
  0
LINE
  8
LAYER_1
 10
261.8382
 20
116.2112
 11
279.6382
 21
116.2112
  0
LINE
  8
LAYER_1
 10
279.6382
 20
116.2112
 11
280.3382
 21
114.8112
  0
LINE
  8
LAYER_1
 10
280.3382
 20
114.8112
 11
280.3382
 21
46.6112
  0
LINE
  8
LAYER_1
 10
280.3382
 20
46.6112
 11
279.6382
 21
45.2112
  0
LINE
  8
LAYER_1
 10
279.6382
 20
45.2112
 11
277.6382
 21
45.2112
  0
LINE
  8
LAYER_1
 10
261.1382
 20
106.2112
 11
280.3382
 21
106.2112
  0
LINE
  8
LAYER_1
 10
261.1382
 20
104.8112
 11
280.3382
 21
104.8112
  0
LINE
  8
LAYER_1
 10
261.1382
 20
95.3112
 11
280.3382
 21
95.3112
  0
LINE
  8
LAYER_1
 10
270.1382
 20
116.2112
 11
270.1382
 21
96.2112
  0
LINE
  8
LAYER_1
 10
270.1382
 20
96.2112
 11
262.8382
 21
96.2112
  0
LINE
  8
LAYER_1
 10
262.8382
 20
96.2112
 11
262.8382
 21
116.2112
  0
LINE
  8
LAYER_1
 10
271.3382
 20
116.2112
 11
271.3382
 21
96.2112
  0
LINE
  8
LAYER_1
 10
271.3382
 20
96.2112
 11
278.6382
 21
96.2112
  0
LINE
  8
LAYER_1
 10
278.6382
 20
96.2112
 11
278.6382
 21
116.2112
  0
LINE
  8
LAYER_1
 10
262.8382
 20
97.7112
 11
270.1382
 21
97.7112
  0
LINE
  8
LAYER_1
 10
271.3382
 20
97.7112
 11
278.6382
 21
97.7112
  0
LINE
  8
LAYER_1
 10
262.8382
 20
107.7112
 11
270.1382
 21
107.7112
  0
LINE
  8
LAYER_1
 10
271.3382
 20
107.7112
 11
278.6382
 21
107.7112
  0
LINE
  8
LAYER_1
 10
263.7382
 20
104.2112
 11
269.2382
 21
104.2112
  0
ARC
  8
LAYER_1
 10
269.2382
 20
103.7112
 40
0.5
 50
359.9988354
 51
90.00116456
  0
LINE
  8
LAYER_1
 10
269.7382
 20
103.7112
 11
269.7382
 21
98.2112
  0
ARC
  8
LAYER_1
 10
269.2382
 20
98.2112
 40
0.5
 50
270.0011375
 51
359.9988625
  0
LINE
  8
LAYER_1
 10
269.2382
 20
97.7112
 11
263.7382
 21
97.7112
  0
ARC
  8
LAYER_1
 10
263.7382
 20
98.2112
 40
0.5
 50
180.0011645
 51
269.9988356
  0
LINE
  8
LAYER_1
 10
263.2382
 20
98.2112
 11
263.2382
 21
103.7112
  0
ARC
  8
LAYER_1
 10
263.7382
 20
103.7112
 40
0.5
 50
89.99886233
 51
180.0011377
  0
LINE
  8
LAYER_1
 10
263.7382
 20
114.2112
 11
269.2382
 21
114.2112
  0
ARC
  8
LAYER_1
 10
269.2382
 20
113.7112
 40
0.5
 50
359.9988353
 51
90.0011647
  0
LINE
  8
LAYER_1
 10
269.7382
 20
113.7112
 11
269.7382
 21
108.2112
  0
ARC
  8
LAYER_1
 10
269.2382
 20
108.2112
 40
0.5
 50
270.0011377
 51
359.9988624
  0
LINE
  8
LAYER_1
 10
269.2382
 20
107.7112
 11
263.7382
 21
107.7112
  0
ARC
  8
LAYER_1
 10
263.7382
 20
108.2112
 40
0.5
 50
180.0011646
 51
269.9988354
  0
LINE
  8
LAYER_1
 10
263.2382
 20
108.2112
 11
263.2382
 21
113.7112
  0
ARC
  8
LAYER_1
 10
263.7382
 20
113.7112
 40
0.5
 50
89.99886219
 51
180.0011378
  0
ARC
  8
LAYER_1
 10
266.4882
 20
110.9612
 40
3
 50
89.99981036
 51
180.0001897
  0
ARC
  8
LAYER_1
 10
266.4882
 20
110.9612
 40
3
 50
359.9998059
 51
90.00019408
  0
ARC
  8
LAYER_1
 10
266.4882
 20
110.9612
 40
3
 50
270.0001896
 51
359.9998104
  0
ARC
  8
LAYER_1
 10
266.4882
 20
110.9612
 40
3
 50
180.0001941
 51
269.9998059
  0
LINE
  8
LAYER_1
 10
269.4054
 20
110.2612
 11
267.0882
 21
110.2612
  0
LINE
  8
LAYER_1
 10
267.0882
 20
110.2612
 11
267.0882
 21
108.9612
  0
LINE
  8
LAYER_1
 10
267.0882
 20
108.9612
 11
265.8882
 21
108.9612
  0
LINE
  8
LAYER_1
 10
265.8882
 20
108.9612
 11
265.8882
 21
110.2612
  0
LINE
  8
LAYER_1
 10
265.8882
 20
110.2612
 11
263.571
 21
110.2612
  0
LINE
  8
LAYER_1
 10
263.571
 20
111.6612
 11
265.8882
 21
111.6612
  0
LINE
  8
LAYER_1
 10
265.8882
 20
111.6612
 11
265.8882
 21
112.9612
  0
LINE
  8
LAYER_1
 10
265.8882
 20
112.9612
 11
267.0882
 21
112.9612
  0
LINE
  8
LAYER_1
 10
267.0882
 20
112.9612
 11
267.0882
 21
111.6612
  0
LINE
  8
LAYER_1
 10
267.0882
 20
111.6612
 11
269.4054
 21
111.6612
  0
ARC
  8
LAYER_1
 10
274.9882
 20
110.9612
 40
3
 50
89.99981038
 51
180.0001896
  0
ARC
  8
LAYER_1
 10
274.9882
 20
110.9612
 40
3
 50
359.9998059
 51
90.0001941
  0
ARC
  8
LAYER_1
 10
274.9882
 20
110.9612
 40
3
 50
270.0001896
 51
359.9998104
  0
ARC
  8
LAYER_1
 10
274.9882
 20
110.9612
 40
3
 50
180.0001942
 51
269.9998059
  0
LINE
  8
LAYER_1
 10
277.9054
 20
110.2612
 11
275.5882
 21
110.2612
  0
LINE
  8
LAYER_1
 10
275.5882
 20
110.2612
 11
275.5882
 21
108.9612
  0
LINE
  8
LAYER_1
 10
275.5882
 20
108.9612
 11
274.3882
 21
108.9612
  0
LINE
  8
LAYER_1
 10
274.3882
 20
108.9612
 11
274.3882
 21
110.2612
  0
LINE
  8
LAYER_1
 10
274.3882
 20
110.2612
 11
272.071
 21
110.2612
  0
LINE
  8
LAYER_1
 10
272.071
 20
111.6612
 11
274.3882
 21
111.6612
  0
LINE
  8
LAYER_1
 10
274.3882
 20
111.6612
 11
274.3882
 21
112.9612
  0
LINE
  8
LAYER_1
 10
274.3882
 20
112.9612
 11
275.5882
 21
112.9612
  0
LINE
  8
LAYER_1
 10
275.5882
 20
112.9612
 11
275.5882
 21
111.6612
  0
LINE
  8
LAYER_1
 10
275.5882
 20
111.6612
 11
277.9054
 21
111.6612
  0
ARC
  8
LAYER_1
 10
274.9882
 20
100.9612
 40
3
 50
89.9998104
 51
180.0001896
  0
ARC
  8
LAYER_1
 10
274.9882
 20
100.9612
 40
3
 50
359.9998059
 51
90.00019408
  0
ARC
  8
LAYER_1
 10
274.9882
 20
100.9612
 40
3
 50
270.0001896
 51
359.9998104
  0
ARC
  8
LAYER_1
 10
274.9882
 20
100.9612
 40
3
 50
180.0001941
 51
269.9998059
  0
LINE
  8
LAYER_1
 10
277.9054
 20
100.2612
 11
275.5882
 21
100.2612
  0
LINE
  8
LAYER_1
 10
275.5882
 20
100.2612
 11
275.5882
 21
98.9612
  0
LINE
  8
LAYER_1
 10
275.5882
 20
98.9612
 11
274.3882
 21
98.9612
  0
LINE
  8
LAYER_1
 10
274.3882
 20
98.9612
 11
274.3882
 21
100.2612
  0
LINE
  8
LAYER_1
 10
274.3882
 20
100.2612
 11
272.071
 21
100.2612
  0
LINE
  8
LAYER_1
 10
272.071
 20
101.6612
 11
274.3882
 21
101.6612
  0
LINE
  8
LAYER_1
 10
274.3882
 20
101.6612
 11
274.3882
 21
102.9612
  0
LINE
  8
LAYER_1
 10
274.3882
 20
102.9612
 11
275.5882
 21
102.9612
  0
LINE
  8
LAYER_1
 10
275.5882
 20
102.9612
 11
275.5882
 21
101.6612
  0
LINE
  8
LAYER_1
 10
275.5882
 20
101.6612
 11
277.9054
 21
101.6612
  0
ARC
  8
LAYER_1
 10
274.9882
 20
50.2612
 40
3
 50
89.99981052
 51
180.0001895
  0
ARC
  8
LAYER_1
 10
274.9882
 20
50.2612
 40
3
 50
359.999806
 51
90.00019396
  0
ARC
  8
LAYER_1
 10
274.9882
 20
50.2612
 40
3
 50
270.0001895
 51
359.9998105
  0
ARC
  8
LAYER_1
 10
274.9882
 20
50.2612
 40
3
 50
180.000194
 51
269.999806
  0
LINE
  8
LAYER_1
 10
277.9054
 20
49.5612
 11
275.5882
 21
49.5612
  0
LINE
  8
LAYER_1
 10
275.5882
 20
49.5612
 11
275.5882
 21
48.2612
  0
LINE
  8
LAYER_1
 10
275.5882
 20
48.2612
 11
274.3882
 21
48.2612
  0
LINE
  8
LAYER_1
 10
274.3882
 20
48.2612
 11
274.3882
 21
49.5612
  0
LINE
  8
LAYER_1
 10
274.3882
 20
49.5612
 11
272.071
 21
49.5612
  0
LINE
  8
LAYER_1
 10
272.071
 20
50.9612
 11
274.3882
 21
50.9612
  0
LINE
  8
LAYER_1
 10
274.3882
 20
50.9612
 11
274.3882
 21
52.2612
  0
LINE
  8
LAYER_1
 10
274.3882
 20
52.2612
 11
275.5882
 21
52.2612
  0
LINE
  8
LAYER_1
 10
275.5882
 20
52.2612
 11
275.5882
 21
50.9612
  0
LINE
  8
LAYER_1
 10
275.5882
 20
50.9612
 11
277.9054
 21
50.9612
  0
ARC
  8
LAYER_1
 10
266.4882
 20
50.2612
 40
3
 50
89.9998105
 51
180.0001895
  0
ARC
  8
LAYER_1
 10
266.4882
 20
50.2612
 40
3
 50
359.999806
 51
90.00019394
  0
ARC
  8
LAYER_1
 10
266.4882
 20
50.2612
 40
3
 50
270.0001895
 51
359.9998105
  0
ARC
  8
LAYER_1
 10
266.4882
 20
50.2612
 40
3
 50
180.000194
 51
269.999806
  0
LINE
  8
LAYER_1
 10
269.4054
 20
49.5612
 11
267.0882
 21
49.5612
  0
LINE
  8
LAYER_1
 10
267.0882
 20
49.5612
 11
267.0882
 21
48.2612
  0
LINE
  8
LAYER_1
 10
267.0882
 20
48.2612
 11
265.8882
 21
48.2612
  0
LINE
  8
LAYER_1
 10
265.8882
 20
48.2612
 11
265.8882
 21
49.5612
  0
LINE
  8
LAYER_1
 10
265.8882
 20
49.5612
 11
263.571
 21
49.5612
  0
LINE
  8
LAYER_1
 10
263.571
 20
50.9612
 11
265.8882
 21
50.9612
  0
LINE
  8
LAYER_1
 10
265.8882
 20
50.9612
 11
265.8882
 21
52.2612
  0
LINE
  8
LAYER_1
 10
265.8882
 20
52.2612
 11
267.0882
 21
52.2612
  0
LINE
  8
LAYER_1
 10
267.0882
 20
52.2612
 11
267.0882
 21
50.9612
  0
LINE
  8
LAYER_1
 10
267.0882
 20
50.9612
 11
269.4054
 21
50.9612
  0
ARC
  8
LAYER_1
 10
274.9882
 20
60.4612
 40
3
 50
89.9998105
 51
180.0001895
  0
ARC
  8
LAYER_1
 10
274.9882
 20
60.4612
 40
3
 50
359.999806
 51
90.00019398
  0
ARC
  8
LAYER_1
 10
274.9882
 20
60.4612
 40
3
 50
270.0001895
 51
359.9998105
  0
ARC
  8
LAYER_1
 10
274.9882
 20
60.4612
 40
3
 50
180.000194
 51
269.999806
  0
LINE
  8
LAYER_1
 10
277.9054
 20
59.7612
 11
275.5882
 21
59.7612
  0
LINE
  8
LAYER_1
 10
275.5882
 20
59.7612
 11
275.5882
 21
58.4612
  0
LINE
  8
LAYER_1
 10
275.5882
 20
58.4612
 11
274.3882
 21
58.4612
  0
LINE
  8
LAYER_1
 10
274.3882
 20
58.4612
 11
274.3882
 21
59.7612
  0
LINE
  8
LAYER_1
 10
274.3882
 20
59.7612
 11
272.071
 21
59.7612
  0
LINE
  8
LAYER_1
 10
272.071
 20
61.1612
 11
274.3882
 21
61.1612
  0
LINE
  8
LAYER_1
 10
274.3882
 20
61.1612
 11
274.3882
 21
62.4612
  0
LINE
  8
LAYER_1
 10
274.3882
 20
62.4612
 11
275.5882
 21
62.4612
  0
LINE
  8
LAYER_1
 10
275.5882
 20
62.4612
 11
275.5882
 21
61.1612
  0
LINE
  8
LAYER_1
 10
275.5882
 20
61.1612
 11
277.9054
 21
61.1612
  0
ARC
  8
LAYER_1
 10
266.4882
 20
60.4612
 40
3
 50
89.99981048
 51
180.0001895
  0
ARC
  8
LAYER_1
 10
266.4882
 20
60.4612
 40
3
 50
359.999806
 51
90.00019396
  0
ARC
  8
LAYER_1
 10
266.4882
 20
60.4612
 40
3
 50
270.0001895
 51
359.9998105
  0
ARC
  8
LAYER_1
 10
266.4882
 20
60.4612
 40
3
 50
180.000194
 51
269.999806
  0
LINE
  8
LAYER_1
 10
269.4054
 20
59.7612
 11
267.0882
 21
59.7612
  0
LINE
  8
LAYER_1
 10
267.0882
 20
59.7612
 11
267.0882
 21
58.4612
  0
LINE
  8
LAYER_1
 10
267.0882
 20
58.4612
 11
265.8882
 21
58.4612
  0
LINE
  8
LAYER_1
 10
265.8882
 20
58.4612
 11
265.8882
 21
59.7612
  0
LINE
  8
LAYER_1
 10
265.8882
 20
59.7612
 11
263.571
 21
59.7612
  0
LINE
  8
LAYER_1
 10
263.571
 20
61.1612
 11
265.8882
 21
61.1612
  0
LINE
  8
LAYER_1
 10
265.8882
 20
61.1612
 11
265.8882
 21
62.4612
  0
LINE
  8
LAYER_1
 10
265.8882
 20
62.4612
 11
267.0882
 21
62.4612
  0
LINE
  8
LAYER_1
 10
267.0882
 20
62.4612
 11
267.0882
 21
61.1612
  0
LINE
  8
LAYER_1
 10
267.0882
 20
61.1612
 11
269.4054
 21
61.1612
  0
ARC
  8
LAYER_1
 10
266.4882
 20
100.9612
 40
3
 50
89.99981038
 51
180.0001896
  0
ARC
  8
LAYER_1
 10
266.4882
 20
100.9612
 40
3
 50
359.9998059
 51
90.00019406
  0
ARC
  8
LAYER_1
 10
266.4882
 20
100.9612
 40
3
 50
270.0001896
 51
359.9998104
  0
ARC
  8
LAYER_1
 10
266.4882
 20
100.9612
 40
3
 50
180.0001941
 51
269.9998059
  0
LINE
  8
LAYER_1
 10
269.4054
 20
100.2612
 11
267.0882
 21
100.2612
  0
LINE
  8
LAYER_1
 10
267.0882
 20
100.2612
 11
267.0882
 21
98.9612
  0
LINE
  8
LAYER_1
 10
267.0882
 20
98.9612
 11
265.8882
 21
98.9612
  0
LINE
  8
LAYER_1
 10
265.8882
 20
98.9612
 11
265.8882
 21
100.2612
  0
LINE
  8
LAYER_1
 10
265.8882
 20
100.2612
 11
263.571
 21
100.2612
  0
LINE
  8
LAYER_1
 10
263.571
 20
101.6612
 11
265.8882
 21
101.6612
  0
LINE
  8
LAYER_1
 10
265.8882
 20
101.6612
 11
265.8882
 21
102.9612
  0
LINE
  8
LAYER_1
 10
265.8882
 20
102.9612
 11
267.0882
 21
102.9612
  0
LINE
  8
LAYER_1
 10
267.0882
 20
102.9612
 11
267.0882
 21
101.6612
  0
LINE
  8
LAYER_1
 10
267.0882
 20
101.6612
 11
269.4054
 21
101.6612
  0
LINE
  8
LAYER_1
 10
271.7382
 20
110.9612
 11
271.7382
 21
113.7112
  0
ARC
  8
LAYER_1
 10
272.2382
 20
113.7112
 40
0.5
 50
89.99886231
 51
180.0011377
  0
LINE
  8
LAYER_1
 10
272.2382
 20
114.2112
 11
277.7382
 21
114.2112
  0
ARC
  8
LAYER_1
 10
277.7382
 20
113.7112
 40
0.5
 50
359.9988352
 51
90.00116482
  0
LINE
  8
LAYER_1
 10
278.2382
 20
113.7112
 11
278.2382
 21
108.2112
  0
ARC
  8
LAYER_1
 10
277.7382
 20
108.2112
 40
0.5
 50
270.0011375
 51
359.9988625
  0
LINE
  8
LAYER_1
 10
277.7382
 20
107.7112
 11
272.2382
 21
107.7112
  0
ARC
  8
LAYER_1
 10
272.2382
 20
108.2112
 40
0.5
 50
180.0011647
 51
269.9988353
  0
LINE
  8
LAYER_1
 10
271.7382
 20
108.2112
 11
271.7382
 21
113.7112
  0
LINE
  8
LAYER_1
 10
271.7382
 20
100.9612
 11
271.7382
 21
103.7112
  0
ARC
  8
LAYER_1
 10
272.2382
 20
103.7112
 40
0.5
 50
89.99886245
 51
180.0011376
  0
LINE
  8
LAYER_1
 10
272.2382
 20
104.2112
 11
277.7382
 21
104.2112
  0
ARC
  8
LAYER_1
 10
277.7382
 20
103.7112
 40
0.5
 50
359.9988353
 51
90.00116468
  0
LINE
  8
LAYER_1
 10
278.2382
 20
103.7112
 11
278.2382
 21
98.2112
  0
ARC
  8
LAYER_1
 10
277.7382
 20
98.2112
 40
0.5
 50
270.0011374
 51
359.9988626
  0
LINE
  8
LAYER_1
 10
277.7382
 20
97.7112
 11
272.2382
 21
97.7112
  0
ARC
  8
LAYER_1
 10
272.2382
 20
98.2112
 40
0.5
 50
180.0011646
 51
269.9988355
  0
LINE
  8
LAYER_1
 10
271.7382
 20
98.2112
 11
271.7382
 21
103.7112
  0
LINE
  8
LAYER_1
 10
264.1382
 20
95.3112
 11
277.3382
 21
95.3112
  0
LINE
  8
LAYER_1
 10
277.3382
 20
95.3112
 11
277.3382
 21
66.3112
  0
LINE
  8
LAYER_1
 10
277.3382
 20
66.3112
 11
264.1382
 21
66.3112
  0
LINE
  8
LAYER_1
 10
264.1382
 20
66.3112
 11
264.1382
 21
95.3112
  0
LINE
  8
LAYER_1
 10
279.1382
 20
70.9112
 11
280.3382
 21
70.9112
  0
LINE
  8
LAYER_1
 10
262.3382
 20
70.9112
 11
261.1382
 21
70.9112
  0
LINE
  8
LAYER_1
 10
268.6382
 20
64.7112
 11
272.8382
 21
64.7112
  0
LINE
  8
LAYER_1
 10
280.3382
 20
90.0112
 11
277.6382
 21
90.0112
  0
LINE
  8
LAYER_1
 10
277.6382
 20
90.0112
 11
277.6382
 21
70.9112
  0
LINE
  8
LAYER_1
 10
277.6382
 20
70.9112
 11
277.6382
 21
66.3112
  0
LINE
  8
LAYER_1
 10
277.6382
 20
66.3112
 11
277.6382
 21
77.0612
  0
LINE
  8
LAYER_1
 10
277.6382
 20
77.0612
 11
277.6382
 21
66.3112
  0
LINE
  8
LAYER_1
 10
277.6382
 20
66.3112
 11
263.8382
 21
66.3112
  0
LINE
  8
LAYER_1
 10
263.8382
 20
66.3112
 11
263.8382
 21
90.0112
  0
LINE
  8
LAYER_1
 10
263.8382
 20
90.0112
 11
261.1382
 21
90.0112
  0
LINE
  8
LAYER_1
 10
272.7382
 20
66.3112
 11
272.7382
 21
68.3112
  0
LINE
  8
LAYER_1
 10
272.7382
 20
68.3112
 11
268.7382
 21
68.3112
  0
LINE
  8
LAYER_1
 10
268.7382
 20
68.3112
 11
268.7382
 21
66.3112
  0
LINE
  8
LAYER_1
 10
272.8382
 20
66.3112
 11
272.8382
 21
63.7112
  0
LINE
  8
LAYER_1
 10
268.6382
 20
66.3112
 11
268.6382
 21
63.7112
  0
LINE
  8
LAYER_1
 10
265.8382
 20
66.3112
 11
265.8382
 21
63.7112
  0
LINE
  8
LAYER_1
 10
275.6382
 20
66.3112
 11
275.6382
 21
63.7112
  0
LINE
  8
LAYER_1
 10
272.2382
 20
66.3112
 11
272.2382
 21
65.3112
  0
LINE
  8
LAYER_1
 10
272.2382
 20
65.3112
 11
269.2382
 21
65.3112
  0
LINE
  8
LAYER_1
 10
269.2382
 20
65.3112
 11
269.2382
 21
66.3112
  0
LINE
  8
LAYER_1
 10
272.2382
 20
66.3112
 11
272.2382
 21
67.8112
  0
LINE
  8
LAYER_1
 10
272.2382
 20
67.8112
 11
269.2382
 21
67.8112
  0
LINE
  8
LAYER_1
 10
269.2382
 20
67.8112
 11
269.2382
 21
66.3112
  0
LINE
  8
LAYER_1
 10
265.8382
 20
64.7112
 11
262.3382
 21
64.7112
  0
LINE
  8
LAYER_1
 10
262.3382
 20
64.7112
 11
262.3382
 21
77.1112
  0
LINE
  8
LAYER_1
 10
262.3382
 20
77.1112
 11
263.8382
 21
77.1112
  0
LINE
  8
LAYER_1
 10
277.6382
 20
77.1112
 11
279.1382
 21
77.1112
  0
LINE
  8
LAYER_1
 10
279.1382
 20
77.1112
 11
279.1382
 21
64.7112
  0
LINE
  8
LAYER_1
 10
279.1382
 20
64.7112
 11
275.6382
 21
64.7112
  0
LINE
  8
LAYER_1
 10
274.2382
 20
44.4112
 11
274.2382
 21
44.2112
  0
LINE
  8
LAYER_1
 10
274.2382
 20
44.2112
 11
272.7382
 21
44.2112
  0
ARC
  8
LAYER_1
 10
270.7382
 20
44.2112
 40
2
 50
270.0002842
 51
359.9997158
  0
ARC
  8
LAYER_1
 10
270.7382
 20
44.2112
 40
2
 50
180.000291
 51
269.9997091
  0
LINE
  8
LAYER_1
 10
268.7382
 20
44.2112
 11
267.2382
 21
44.2112
  0
LINE
  8
LAYER_1
 10
267.2382
 20
44.2112
 11
267.2382
 21
44.4112
  0
LINE
  8
LAYER_1
 10
262.8382
 20
46.2112
 11
262.8382
 21
45.2112
  0
LINE
  8
LAYER_1
 10
278.6382
 20
46.2112
 11
278.6382
 21
45.2112
  0
ENDBLK
  0
BLOCK
  8
LAYER_1
  2
AIGNBL01010023
 70
64
 10
0
 20
0
 30
0
  3
AIGNBL01010023
  0
LINE
  8
LAYER_1
 10
319.1542
 20
90.0112
 11
328.1542
 21
90.0112
  0
LINE
  8
LAYER_1
 10
328.1542
 20
90.0112
 11
328.1542
 21
74.0112
  0
LINE
  8
LAYER_1
 10
310.6542
 20
77.1112
 11
325.0542
 21
77.1112
  0
ARC
  8
LAYER_1
 10
325.0542
 20
74.0112
 40
3.1
 50
359.9996338
 51
90.00036623
  0
ARC
  8
LAYER_1
 10
325.0542
 20
74.0112
 40
3.1
 50
270.000005
 51
359.9999951
  0
LINE
  8
LAYER_1
 10
325.0542
 20
70.9112
 11
315.5542
 21
70.9112
  0
LINE
  8
LAYER_1
 10
315.5542
 20
70.9112
 11
315.5542
 21
65.4112
  0
LINE
  8
LAYER_1
 10
315.5542
 20
65.4112
 11
314.1542
 21
65.4112
  0
LINE
  8
LAYER_1
 10
314.1542
 20
65.4112
 11
314.1542
 21
64.8112
  0
LINE
  8
LAYER_1
 10
314.1542
 20
64.8112
 11
310.6542
 21
64.8112
  0
LINE
  8
LAYER_1
 10
310.6542
 20
64.8112
 11
310.6542
 21
77.1112
  0
ARC
  8
LAYER_1
 10
325.0542
 20
74.0112
 40
1.3
 50
89.99998824
 51
180.0000118
  0
ARC
  8
LAYER_1
 10
325.0542
 20
74.0112
 40
1.3
 50
359.9991266
 51
90.00087335
  0
ARC
  8
LAYER_1
 10
325.0542
 20
74.0112
 40
1.3
 50
270.0000118
 51
359.9999882
  0
ARC
  8
LAYER_1
 10
325.0542
 20
74.0112
 40
1.3
 50
180.0008734
 51
269.9991266
  0
LINE
  8
LAYER_1
 10
315.5542
 20
66.3112
 11
319.1542
 21
66.3112
  0
LINE
  8
LAYER_1
 10
319.1542
 20
66.3112
 11
319.1542
 21
70.9112
  0
LINE
  8
LAYER_1
 10
319.1542
 20
77.1112
 11
319.1542
 21
95.3112
  0
LINE
  8
LAYER_1
 10
319.1542
 20
95.3112
 11
291.8542
 21
95.3112
  0
LINE
  8
LAYER_1
 10
291.8542
 20
95.3112
 11
291.8542
 21
66.3112
  0
LINE
  8
LAYER_1
 10
291.8542
 20
66.3112
 11
310.6542
 21
66.3112
  0
LINE
  8
LAYER_1
 10
299.9542
 20
63.7112
 11
299.9542
 21
66.3112
  0
LINE
  8
LAYER_1
 10
300.9542
 20
66.3112
 11
300.9542
 21
63.7112
  0
LINE
  8
LAYER_1
 10
300.9542
 20
63.7112
 11
299.0542
 21
63.7112
  0
LINE
  8
LAYER_1
 10
299.0542
 20
63.7112
 11
299.0542
 21
66.3112
  0
LINE
  8
LAYER_1
 10
342.8542
 20
45.2112
 11
342.8542
 21
41.2112
  0
LINE
  8
LAYER_1
 10
342.8542
 20
41.2112
 11
345.8542
 21
41.2112
  0
LINE
  8
LAYER_1
 10
345.8542
 20
41.2112
 11
345.8542
 21
45.2112
  0
LINE
  8
LAYER_1
 10
342.8542
 20
43.2112
 11
345.8542
 21
43.2112
  0
LINE
  8
LAYER_1
 10
342.1542
 20
84.9112
 11
345.5542
 21
85.2112
  0
LINE
  8
LAYER_1
 10
345.5542
 20
85.2112
 11
345.5542
 21
86.4112
  0
LINE
  8
LAYER_1
 10
345.5542
 20
86.4112
 11
342.1542
 21
86.7112
  0
LINE
  8
LAYER_1
 10
342.1542
 20
77.0112
 11
345.5542
 21
76.8112
  0
LINE
  8
LAYER_1
 10
345.5542
 20
76.8112
 11
345.5542
 21
74.0112
  0
LINE
  8
LAYER_1
 10
345.5542
 20
74.0112
 11
342.1542
 21
73.8112
  0
LINE
  8
LAYER_1
 10
345.8542
 20
104.9112
 11
347.8542
 21
104.9112
  0
LINE
  8
LAYER_1
 10
347.8542
 20
104.9112
 11
347.8542
 21
108.9112
  0
LINE
  8
LAYER_1
 10
347.8542
 20
108.9112
 11
345.8542
 21
108.9112
  0
LINE
  8
LAYER_1
 10
316.1542
 20
66.3112
 11
316.1542
 21
56.6112
  0
LINE
  8
LAYER_1
 10
316.1542
 20
56.6112
 11
317.5542
 21
55.2112
  0
LINE
  8
LAYER_1
 10
317.5542
 20
55.2112
 11
326.3542
 21
55.2112
  0
LINE
  8
LAYER_1
 10
326.3542
 20
55.2112
 11
326.3542
 21
46.6112
  0
LINE
  8
LAYER_1
 10
326.3542
 20
46.6112
 11
327.7542
 21
45.2112
  0
LINE
  8
LAYER_1
 10
327.7542
 20
45.2112
 11
345.8542
 21
45.2112
  0
LINE
  8
LAYER_1
 10
345.8542
 20
45.2112
 11
345.8542
 21
63.0112
  0
LINE
  8
LAYER_1
 10
345.8542
 20
63.0112
 11
342.1542
 21
63.0112
  0
LINE
  8
LAYER_1
 10
342.1542
 20
63.0112
 11
342.1542
 21
98.4112
  0
LINE
  8
LAYER_1
 10
342.1542
 20
98.4112
 11
345.8542
 21
98.4112
  0
LINE
  8
LAYER_1
 10
345.8542
 20
98.4112
 11
345.8542
 21
116.2112
  0
LINE
  8
LAYER_1
 10
345.8542
 20
116.2112
 11
327.7542
 21
116.2112
  0
LINE
  8
LAYER_1
 10
327.7542
 20
116.2112
 11
326.3542
 21
114.8112
  0
LINE
  8
LAYER_1
 10
326.3542
 20
114.8112
 11
326.3542
 21
106.2112
  0
LINE
  8
LAYER_1
 10
326.3542
 20
106.2112
 11
317.5542
 21
106.2112
  0
LINE
  8
LAYER_1
 10
317.5542
 20
106.2112
 11
316.1542
 21
104.8112
  0
LINE
  8
LAYER_1
 10
316.1542
 20
104.8112
 11
316.1542
 21
95.3112
  0
LINE
  8
LAYER_1
 10
300.9542
 20
65.2035
 11
308.8542
 21
65.1101
  0
LINE
  8
LAYER_1
 10
308.8542
 20
65.1101
 11
310.6542
 21
64.8112
  0
LINE
  8
LAYER_1
 10
299.0542
 20
65.226
 11
291.8542
 21
65.3112
  0
LINE
  8
LAYER_1
 10
291.8542
 20
65.3112
 11
291.8542
 21
66.3112
  0
LINE
  8
LAYER_1
 10
345.6542
 20
98.4112
 11
344.9042
 21
96.6112
  0
LINE
  8
LAYER_1
 10
344.9042
 20
96.6112
 11
343.9042
 21
96.6112
  0
LINE
  8
LAYER_1
 10
343.9042
 20
96.6112
 11
343.1542
 21
98.4112
  0
LINE
  8
LAYER_1
 10
345.6542
 20
63.0112
 11
344.5542
 21
65.0112
  0
LINE
  8
LAYER_1
 10
344.5542
 20
65.0112
 11
343.6542
 21
65.0112
  0
LINE
  8
LAYER_1
 10
343.6542
 20
65.0112
 11
343.3992
 21
63.3112
  0
LINE
  8
LAYER_1
 10
342.1542
 20
63.3112
 11
343.6542
 21
63.3112
  0
LINE
  8
LAYER_1
 10
343.6542
 20
63.3112
 11
343.6542
 21
63.0112
  0
ENDBLK
  0
BLOCK
  8
LAYER_1
  2
AIGNBL01010024
 70
64
 10
0
 20
0
 30
0
  3
AIGNBL01010024
  0
LINE
  8
LAYER_1
 10
263.9382
 20
-4.7544
 11
268.9382
 21
-4.7544
  0
ARC
  8
LAYER_1
 10
268.9382
 20
-4.2544
 40
0.5
 50
269.9973983
 51
0.002601662865
  0
ARC
  8
LAYER_1
 10
267.4382
 20
-4.2544
 40
2
 50
0.0006436843373
 51
89.9993563
  0
LINE
  8
LAYER_1
 10
267.4382
 20
-2.2544
 11
265.4382
 21
-2.2544
  0
ARC
  8
LAYER_1
 10
265.4382
 20
-4.2544
 40
2
 50
90.00065041
 51
179.9993496
  0
ARC
  8
LAYER_1
 10
263.9382
 20
-4.2544
 40
0.5
 50
179.9974252
 51
270.0025748
  0
LINE
  8
LAYER_1
 10
261.1382
 20
-29.7544
 11
280.3382
 21
-29.7544
  0
LINE
  8
LAYER_1
 10
280.3382
 20
-29.7544
 11
280.3382
 21
-0.0544
  0
LINE
  8
LAYER_1
 10
280.3382
 20
-0.0544
 11
261.1382
 21
-0.0544
  0
LINE
  8
LAYER_1
 10
261.1382
 20
-0.0544
 11
261.1382
 21
-29.7544
  0
LINE
  8
LAYER_1
 10
261.1382
 20
-10.2544
 11
280.3382
 21
-10.2544
  0
LINE
  8
LAYER_1
 10
275.9382
 20
-29.7544
 11
275.9382
 21
-26.7544
  0
LINE
  8
LAYER_1
 10
275.9382
 20
-26.7544
 11
265.5382
 21
-26.7544
  0
LINE
  8
LAYER_1
 10
265.5382
 20
-26.7544
 11
265.5382
 21
-29.7544
  0
LINE
  8
LAYER_1
 10
268.2382
 20
-26.7544
 11
268.2382
 21
-29.7544
  0
LINE
  8
LAYER_1
 10
273.2382
 20
-26.7544
 11
273.2382
 21
-29.7544
  0
LINE
  8
LAYER_1
 10
270.1382
 20
-10.2544
 11
270.1382
 21
-18.9443
  0
LINE
  8
LAYER_1
 10
271.3382
 20
-10.2544
 11
271.3382
 21
-18.9443
  0
LINE
  8
LAYER_1
 10
261.1382
 20
-11.6544
 11
262.8382
 21
-11.6544
  0
LINE
  8
LAYER_1
 10
270.1382
 20
-11.6544
 11
271.3382
 21
-11.6544
  0
LINE
  8
LAYER_1
 10
278.6382
 20
-11.6544
 11
280.3382
 21
-11.6544
  0
LINE
  8
LAYER_1
 10
270.1382
 20
-0.0544
 11
270.1382
 21
-8.8544
  0
LINE
  8
LAYER_1
 10
270.1382
 20
-8.8544
 11
262.8382
 21
-8.8544
  0
LINE
  8
LAYER_1
 10
262.8382
 20
-8.8544
 11
262.8382
 21
-0.0544
  0
LINE
  8
LAYER_1
 10
271.3382
 20
-0.0544
 11
271.3382
 21
-8.8544
  0
LINE
  8
LAYER_1
 10
271.3382
 20
-8.8544
 11
278.6382
 21
-8.8544
  0
LINE
  8
LAYER_1
 10
278.6382
 20
-8.8544
 11
278.6382
 21
-0.0544
  0
LINE
  8
LAYER_1
 10
278.6382
 20
-7.2544
 11
271.3382
 21
-7.2544
  0
LINE
  8
LAYER_1
 10
270.1382
 20
-7.2544
 11
262.8382
 21
-7.2544
  0
LINE
  8
LAYER_1
 10
261.1382
 20
-1.4544
 11
262.8382
 21
-1.4544
  0
LINE
  8
LAYER_1
 10
270.1382
 20
-1.4544
 11
271.3382
 21
-1.4544
  0
LINE
  8
LAYER_1
 10
278.6382
 20
-1.4544
 11
280.3382
 21
-1.4544
  0
LINE
  8
LAYER_1
 10
262.9382
 20
-7.2544
 11
270.0382
 21
-7.2544
  0
LINE
  8
LAYER_1
 10
270.0382
 20
-7.2544
 11
270.0382
 21
-6.7544
  0
LINE
  8
LAYER_1
 10
270.0382
 20
-6.7544
 11
262.9382
 21
-6.7544
  0
LINE
  8
LAYER_1
 10
262.9382
 20
-6.7544
 11
262.9382
 21
-7.2544
  0
LINE
  8
LAYER_1
 10
271.4382
 20
-7.2544
 11
278.5382
 21
-7.2544
  0
LINE
  8
LAYER_1
 10
278.5382
 20
-7.2544
 11
278.5382
 21
-6.7544
  0
LINE
  8
LAYER_1
 10
278.5382
 20
-6.7544
 11
271.4382
 21
-6.7544
  0
LINE
  8
LAYER_1
 10
271.4382
 20
-6.7544
 11
271.4382
 21
-7.2544
  0
LINE
  8
LAYER_1
 10
272.4382
 20
-4.7544
 11
277.4382
 21
-4.7544
  0
ARC
  8
LAYER_1
 10
277.4382
 20
-4.2544
 40
0.5
 50
269.9973982
 51
0.002601785339
  0
ARC
  8
LAYER_1
 10
275.9382
 20
-4.2544
 40
2
 50
0.0006436538292
 51
89.99935633
  0
LINE
  8
LAYER_1
 10
275.9382
 20
-2.2544
 11
273.9382
 21
-2.2544
  0
ARC
  8
LAYER_1
 10
273.9382
 20
-4.2544
 40
2
 50
90.00065044
 51
179.9993495
  0
ARC
  8
LAYER_1
 10
272.4382
 20
-4.2544
 40
0.5
 50
179.9974253
 51
270.0025746
  0
LINE
  8
LAYER_1
 10
278.6382
 20
-18.9544
 11
277.1382
 21
-18.9544
  0
LINE
  8
LAYER_1
 10
264.3382
 20
-18.9544
 11
262.8382
 21
-18.9544
  0
LINE
  8
LAYER_1
 10
277.1382
 20
-17.9544
 11
277.1382
 21
-18.9544
  0
LINE
  8
LAYER_1
 10
277.1382
 20
-18.9544
 11
277.1382
 21
-19.9544
  0
ARC
  8
LAYER_1
 10
275.1382
 20
-19.9544
 40
2
 50
269.9993495
 51
0.0006504850132
  0
LINE
  8
LAYER_1
 10
275.1382
 20
-21.9544
 11
266.3382
 21
-21.9544
  0
ARC
  8
LAYER_1
 10
266.3382
 20
-19.9544
 40
2
 50
179.9993562
 51
270.0006438
  0
LINE
  8
LAYER_1
 10
264.3382
 20
-19.9544
 11
264.3382
 21
-18.9544
  0
LINE
  8
LAYER_1
 10
264.3382
 20
-18.9544
 11
264.3382
 21
-17.9544
  0
LINE
  8
LAYER_1
 10
278.6382
 20
-17.9544
 11
271.7382
 21
-17.9544
  0
LINE
  8
LAYER_1
 10
271.7382
 20
-17.9544
 11
271.7382
 21
-18.4544
  0
ARC
  8
LAYER_1
 10
271.2382
 20
-18.4544
 40
0.5
 50
269.9973981
 51
0.002601899675
  0
LINE
  8
LAYER_1
 10
271.2382
 20
-18.9544
 11
270.2382
 21
-18.9544
  0
ARC
  8
LAYER_1
 10
270.2382
 20
-18.4544
 40
0.5
 50
179.9974251
 51
270.0025749
  0
LINE
  8
LAYER_1
 10
269.7382
 20
-18.4544
 11
269.7382
 21
-17.9544
  0
LINE
  8
LAYER_1
 10
269.7382
 20
-17.9544
 11
262.8382
 21
-17.9544
  0
LINE
  8
LAYER_1
 10
264.4303
 20
-20.5544
 11
262.8382
 21
-20.5544
  0
LINE
  8
LAYER_1
 10
262.8382
 20
-20.5544
 11
262.8382
 21
-10.2544
  0
LINE
  8
LAYER_1
 10
277.0461
 20
-20.5544
 11
278.6382
 21
-20.5544
  0
LINE
  8
LAYER_1
 10
278.6382
 20
-20.5544
 11
278.6382
 21
-10.2544
  0
INSERT
  8
LAYER_1
  2
AIGNBL01020025
 10
0
 20
0
 30
0
  0
INSERT
  8
LAYER_1
  2
AIGNBL01020026
 10
0
 20
0
 30
0
  0
LINE
  8
LAYER_1
 10
262.3382
 20
1.9456
 11
279.1382
 21
1.9456
  0
LINE
  8
LAYER_1
 10
262.3382
 20
5.4456
 11
262.3382
 21
1.9456
  0
LINE
  8
LAYER_1
 10
262.3382
 20
1.9456
 11
262.3382
 21
0.5456
  0
LINE
  8
LAYER_1
 10
262.3382
 20
0.5456
 11
279.1382
 21
0.5456
  0
LINE
  8
LAYER_1
 10
279.1382
 20
0.5456
 11
279.1382
 21
1.9456
  0
LINE
  8
LAYER_1
 10
279.1382
 20
1.9456
 11
279.1382
 21
5.4456
  0
LINE
  8
LAYER_1
 10
279.1382
 20
5.4456
 11
262.3382
 21
5.4456
  0
LINE
  8
LAYER_1
 10
266.3382
 20
7.2456
 11
275.1382
 21
7.2456
  0
LINE
  8
LAYER_1
 10
277.3382
 20
-0.0544
 11
277.3382
 21
0.5456
  0
LINE
  8
LAYER_1
 10
264.1382
 20
0.5456
 11
264.1382
 21
-0.0544
  0
LINE
  8
LAYER_1
 10
269.2382
 20
24.2456
 11
268.9382
 21
9.2456
  0
ARC
  8
LAYER_1
 10
264.6918
 20
12.0759
 40
5.1031
 50
288.8213138
 51
326.3158702
  0
LINE
  8
LAYER_1
 10
266.3382
 20
7.2456
 11
262.3382
 21
5.4456
  0
LINE
  8
LAYER_1
 10
272.2382
 20
24.2456
 11
272.5382
 21
9.2456
  0
ARC
  8
LAYER_1
 10
276.7846
 20
12.0759
 40
5.1031
 50
213.6841308
 51
251.1786852
  0
LINE
  8
LAYER_1
 10
275.1382
 20
7.2456
 11
279.1382
 21
5.4456
  0
LINE
  8
LAYER_1
 10
275.6382
 20
-4.7544
 11
275.433
 21
-5.3183
  0
LINE
  8
LAYER_1
 10
275.433
 20
-5.3183
 11
274.4434
 21
-5.3183
  0
LINE
  8
LAYER_1
 10
274.4434
 20
-5.3183
 11
274.2382
 21
-4.7544
  0
LINE
  8
LAYER_1
 10
274.2382
 20
-4.7544
 11
273.1861
 21
-4.7544
  0
LINE
  8
LAYER_1
 10
273.1861
 20
-4.7544
 11
271.7382
 21
-5.0499
  0
LINE
  8
LAYER_1
 10
271.7382
 20
-5.0499
 11
271.7382
 21
-6.7544
  0
LINE
  8
LAYER_1
 10
271.7382
 20
-6.7544
 11
273.1861
 21
-6.459
  0
LINE
  8
LAYER_1
 10
273.1861
 20
-6.459
 11
274.3861
 21
-6.459
  0
LINE
  8
LAYER_1
 10
274.3861
 20
-6.459
 11
274.4382
 21
-6.7544
  0
LINE
  8
LAYER_1
 10
274.4382
 20
-6.7544
 11
275.4382
 21
-6.7544
  0
LINE
  8
LAYER_1
 10
275.4382
 20
-6.7544
 11
275.4903
 21
-6.459
  0
LINE
  8
LAYER_1
 10
275.4903
 20
-6.459
 11
276.6903
 21
-6.459
  0
LINE
  8
LAYER_1
 10
276.6903
 20
-6.459
 11
278.2382
 21
-6.7544
  0
LINE
  8
LAYER_1
 10
278.2382
 20
-6.7544
 11
278.2382
 21
-5.0499
  0
LINE
  8
LAYER_1
 10
278.2382
 20
-5.0499
 11
276.6903
 21
-4.7544
  0
LINE
  8
LAYER_1
 10
276.6903
 20
-4.7544
 11
275.6382
 21
-4.7544
  0
LINE
  8
LAYER_1
 10
272.4382
 20
-15.9544
 11
277.4382
 21
-15.9544
  0
ARC
  8
LAYER_1
 10
277.4382
 20
-15.4544
 40
0.5
 50
269.9973981
 51
0.002601945643
  0
ARC
  8
LAYER_1
 10
275.9382
 20
-15.4544
 40
2
 50
0.0006436939051
 51
89.99935629
  0
LINE
  8
LAYER_1
 10
275.9382
 20
-13.4544
 11
273.9382
 21
-13.4544
  0
ARC
  8
LAYER_1
 10
273.9382
 20
-15.4544
 40
2
 50
90.00065048
 51
179.9993495
  0
ARC
  8
LAYER_1
 10
272.4382
 20
-15.4544
 40
0.5
 50
179.9974252
 51
270.0025748
  0
LINE
  8
LAYER_1
 10
275.6382
 20
-15.9544
 11
275.433
 21
-16.5183
  0
LINE
  8
LAYER_1
 10
275.433
 20
-16.5183
 11
274.4434
 21
-16.5183
  0
LINE
  8
LAYER_1
 10
274.4434
 20
-16.5183
 11
274.2382
 21
-15.9544
  0
LINE
  8
LAYER_1
 10
274.2382
 20
-15.9544
 11
273.1861
 21
-15.9544
  0
LINE
  8
LAYER_1
 10
273.1861
 20
-15.9544
 11
271.7382
 21
-16.2499
  0
LINE
  8
LAYER_1
 10
271.7382
 20
-16.2499
 11
271.7382
 21
-17.9544
  0
LINE
  8
LAYER_1
 10
271.7382
 20
-17.9544
 11
273.1861
 21
-17.659
  0
LINE
  8
LAYER_1
 10
273.1861
 20
-17.659
 11
274.3861
 21
-17.659
  0
LINE
  8
LAYER_1
 10
274.3861
 20
-17.659
 11
274.4382
 21
-17.9544
  0
LINE
  8
LAYER_1
 10
274.4382
 20
-17.9544
 11
275.4382
 21
-17.9544
  0
LINE
  8
LAYER_1
 10
275.4382
 20
-17.9544
 11
275.4903
 21
-17.659
  0
LINE
  8
LAYER_1
 10
275.4903
 20
-17.659
 11
276.6903
 21
-17.659
  0
LINE
  8
LAYER_1
 10
276.6903
 20
-17.659
 11
278.2382
 21
-17.9544
  0
LINE
  8
LAYER_1
 10
278.2382
 20
-17.9544
 11
278.2382
 21
-16.2499
  0
LINE
  8
LAYER_1
 10
278.2382
 20
-16.2499
 11
276.6903
 21
-15.9544
  0
LINE
  8
LAYER_1
 10
276.6903
 20
-15.9544
 11
275.6382
 21
-15.9544
  0
LINE
  8
LAYER_1
 10
267.1382
 20
-4.7544
 11
266.933
 21
-5.3183
  0
LINE
  8
LAYER_1
 10
266.933
 20
-5.3183
 11
265.9434
 21
-5.3183
  0
LINE
  8
LAYER_1
 10
265.9434
 20
-5.3183
 11
265.7382
 21
-4.7544
  0
LINE
  8
LAYER_1
 10
265.7382
 20
-4.7544
 11
264.6861
 21
-4.7544
  0
LINE
  8
LAYER_1
 10
264.6861
 20
-4.7544
 11
263.2382
 21
-5.0499
  0
LINE
  8
LAYER_1
 10
263.2382
 20
-5.0499
 11
263.2382
 21
-6.7544
  0
LINE
  8
LAYER_1
 10
263.2382
 20
-6.7544
 11
264.6861
 21
-6.459
  0
LINE
  8
LAYER_1
 10
264.6861
 20
-6.459
 11
265.8861
 21
-6.459
  0
LINE
  8
LAYER_1
 10
265.8861
 20
-6.459
 11
265.9382
 21
-6.7544
  0
LINE
  8
LAYER_1
 10
265.9382
 20
-6.7544
 11
266.9382
 21
-6.7544
  0
LINE
  8
LAYER_1
 10
266.9382
 20
-6.7544
 11
266.9903
 21
-6.459
  0
LINE
  8
LAYER_1
 10
266.9903
 20
-6.459
 11
268.1903
 21
-6.459
  0
LINE
  8
LAYER_1
 10
268.1903
 20
-6.459
 11
269.7382
 21
-6.7544
  0
LINE
  8
LAYER_1
 10
269.7382
 20
-6.7544
 11
269.7382
 21
-5.0499
  0
LINE
  8
LAYER_1
 10
269.7382
 20
-5.0499
 11
268.1903
 21
-4.7544
  0
LINE
  8
LAYER_1
 10
268.1903
 20
-4.7544
 11
267.1382
 21
-4.7544
  0
LINE
  8
LAYER_1
 10
263.9382
 20
-15.9544
 11
268.9382
 21
-15.9544
  0
ARC
  8
LAYER_1
 10
268.9382
 20
-15.4544
 40
0.5
 50
269.9973982
 51
0.002601823169
  0
ARC
  8
LAYER_1
 10
267.4382
 20
-15.4544
 40
2
 50
0.0006437244132
 51
89.99935626
  0
LINE
  8
LAYER_1
 10
267.4382
 20
-13.4544
 11
265.4382
 21
-13.4544
  0
ARC
  8
LAYER_1
 10
265.4382
 20
-15.4544
 40
2
 50
90.00065045
 51
179.9993495
  0
ARC
  8
LAYER_1
 10
263.9382
 20
-15.4544
 40
0.5
 50
179.9974251
 51
270.0025749
  0
LINE
  8
LAYER_1
 10
267.1382
 20
-15.9544
 11
266.933
 21
-16.5183
  0
LINE
  8
LAYER_1
 10
266.933
 20
-16.5183
 11
265.9434
 21
-16.5183
  0
LINE
  8
LAYER_1
 10
265.9434
 20
-16.5183
 11
265.7382
 21
-15.9544
  0
LINE
  8
LAYER_1
 10
265.7382
 20
-15.9544
 11
264.6861
 21
-15.9544
  0
LINE
  8
LAYER_1
 10
264.6861
 20
-15.9544
 11
263.2382
 21
-16.2499
  0
LINE
  8
LAYER_1
 10
263.2382
 20
-16.2499
 11
263.2382
 21
-17.9544
  0
LINE
  8
LAYER_1
 10
263.2382
 20
-17.9544
 11
264.6861
 21
-17.659
  0
LINE
  8
LAYER_1
 10
264.6861
 20
-17.659
 11
265.8861
 21
-17.659
  0
LINE
  8
LAYER_1
 10
265.8861
 20
-17.659
 11
265.9382
 21
-17.9544
  0
LINE
  8
LAYER_1
 10
265.9382
 20
-17.9544
 11
266.9382
 21
-17.9544
  0
LINE
  8
LAYER_1
 10
266.9382
 20
-17.9544
 11
266.9903
 21
-17.659
  0
LINE
  8
LAYER_1
 10
266.9903
 20
-17.659
 11
268.1903
 21
-17.659
  0
LINE
  8
LAYER_1
 10
268.1903
 20
-17.659
 11
269.7382
 21
-17.9544
  0
LINE
  8
LAYER_1
 10
269.7382
 20
-17.9544
 11
269.7382
 21
-16.2499
  0
LINE
  8
LAYER_1
 10
269.7382
 20
-16.2499
 11
268.1903
 21
-15.9544
  0
LINE
  8
LAYER_1
 10
268.1903
 20
-15.9544
 11
267.1382
 21
-15.9544
  0
LINE
  8
LAYER_1
 10
277.3382
 20
6.2556
 11
277.3382
 21
24.2456
  0
LINE
  8
LAYER_1
 10
277.3382
 20
24.2456
 11
264.1382
 21
24.2456
  0
LINE
  8
LAYER_1
 10
264.1382
 20
24.2456
 11
264.1382
 21
6.2556
  0
LINE
  8
LAYER_1
 10
272.7413
 20
-29.7544
 11
272.7413
 21
-31.7544
  0
LINE
  8
LAYER_1
 10
272.7413
 20
-31.7544
 11
268.7382
 21
-31.7544
  0
LINE
  8
LAYER_1
 10
268.7382
 20
-31.7544
 11
268.7382
 21
-29.7544
  0
ENDBLK
  0
BLOCK
  8
LAYER_1
  2
AIGNBL01010027
 70
64
 10
0
 20
0
 30
0
  3
AIGNBL01010027
  0
INSERT
  8
LAYER_1
  2
AIGNBL01020028
 10
0
 20
0
 30
0
  0
INSERT
  8
LAYER_1
  2
AIGNBL01020029
 10
0
 20
0
 30
0
  0
INSERT
  8
LAYER_1
  2
AIGNBL0102002A
 10
0
 20
0
 30
0
  0
INSERT
  8
LAYER_1
  2
AIGNBL0102002B
 10
0
 20
0
 30
0
  0
INSERT
  8
LAYER_1
  2
AIGNBL0102002C
 10
0
 20
0
 30
0
  0
INSERT
  8
LAYER_1
  2
AIGNBL0102002D
 10
0
 20
0
 30
0
  0
INSERT
  8
LAYER_1
  2
AIGNBL0102002E
 10
0
 20
0
 30
0
  0
ENDBLK
  0
BLOCK
  8
LAYER_1
  2
AIGNBL0101002F
 70
64
 10
0
 20
0
 30
0
  3
AIGNBL0101002F
  0
INSERT
  8
LAYER_1
  2
AIGNBL01020030
 10
0
 20
0
 30
0
  0
INSERT
  8
LAYER_1
  2
AIGNBL01020031
 10
0
 20
0
 30
0
  0
INSERT
  8
LAYER_1
  2
AIGNBL01020032
 10
0
 20
0
 30
0
  0
INSERT
  8
LAYER_1
  2
AIGNBL01020033
 10
0
 20
0
 30
0
  0
INSERT
  8
LAYER_1
  2
AIGNBL01020034
 10
0
 20
0
 30
0
  0
INSERT
  8
LAYER_1
  2
AIGNBL01020035
 10
0
 20
0
 30
0
  0
INSERT
  8
LAYER_1
  2
AIGNBL01020036
 10
0
 20
0
 30
0
  0
ENDBLK
  0
BLOCK
  8
LAYER_1
  2
AIGNBL01010037
 70
64
 10
0
 20
0
 30
0
  3
AIGNBL01010037
  0
LINE
  8
LAYER_1
 62
3
 10
260.5132
 20
-29.7544
 11
245.5716
 21
-29.7544
  0
ENDBLK
  0
BLOCK
  8
LAYER_1
  2
AIGNBL01010038
 70
64
 10
0
 20
0
 30
0
  3
AIGNBL01010038
  0
LINE
  8
LAYER_1
 62
3
 10
260.5132
 20
24.2456
 11
245.5716
 21
24.2456
  0
ENDBLK
  0
BLOCK
  8
LAYER_1
  2
AIGNBL01010039
 70
64
 10
0
 20
0
 30
0
  3
AIGNBL01010039
  0
LINE
  8
LAYER_1
 62
3
 10
246.8216
 20
-27.2544
 11
246.8216
 21
21.7456
  0
ENDBLK
  0
BLOCK
  8
LAYER_1
  2
AIGNBL0101003A
 70
64
 10
0
 20
0
 30
0
  3
AIGNBL0101003A
  0
LINE
  8
LAYER_1
 62
3
 10
246.4049
 20
-27.2544
 11
246.8216
 21
-29.7544
  0
LINE
  8
LAYER_1
 62
3
 10
246.8216
 20
-29.7544
 11
247.2382
 21
-27.2544
  0
LINE
  8
LAYER_1
 62
3
 10
247.2382
 20
-27.2544
 11
246.4049
 21
-27.2544
  0
ENDBLK
  0
BLOCK
  8
LAYER_1
  2
AIGNBL0101003B
 70
64
 10
0
 20
0
 30
0
  3
AIGNBL0101003B
  0
LINE
  8
LAYER_1
 62
3
 10
246.4049
 20
21.7456
 11
246.8216
 21
24.2456
  0
LINE
  8
LAYER_1
 62
3
 10
246.8216
 20
24.2456
 11
247.2382
 21
21.7456
  0
LINE
  8
LAYER_1
 62
3
 10
247.2382
 20
21.7456
 11
246.4049
 21
21.7456
  0
ENDBLK
  0
BLOCK
  8
LAYER_1
  2
AIGNBL0101003C
 70
64
 10
0
 20
0
 30
0
  3
AIGNBL0101003C
  0
TEXT
  8
LAYER_1
 10
246.154
 20
-4.6836
 11
246.154
 21
-4.6836
 40
3.7421
 41
0.5
 50
89.99999999
 62
3
  1
54
  0
ENDBLK
  0
ENDSEC
  0
SECTION
  2
ENTITIES
  0
INSERT
  8
LAYER_1
  2
AIGNBL01010002
 10
0
 20
0
 30
0
  0
LINE
  8
LAYER_1
 10
469.2192
 20
-66.6014
 11
124.874
 21
-66.6014
  0
LINE
  8
LAYER_1
 10
124.874
 20
-66.6014
 11
124.874
 21
169.592
  0
LINE
  8
LAYER_1
 10
124.874
 20
169.592
 11
469.2192
 21
169.592
  0
LINE
  8
LAYER_1
 10
469.2192
 20
169.592
 11
469.2192
 21
-66.6014
  0
INSERT
  8
LAYER_1
  2
AIGNBL01010022
 10
0
 20
0
 30
0
  0
INSERT
  8
LAYER_1
  2
AIGNBL01010023
 10
0
 20
0
 30
0
  0
INSERT
  8
LAYER_1
  2
AIGNBL01010024
 10
0
 20
0
 30
0
  0
INSERT
  8
LAYER_1
  2
AIGNBL01010027
 10
0
 20
0
 30
0
  0
INSERT
  8
LAYER_1
  2
AIGNBL0101002F
 10
0
 20
0
 30
0
  0
INSERT
  8
LAYER_1
  2
AIGNBL01010037
 10
0
 20
0
 30
0
  0
INSERT
  8
LAYER_1
  2
AIGNBL01010038
 10
0
 20
0
 30
0
  0
INSERT
  8
LAYER_1
  2
AIGNBL01010039
 10
0
 20
0
 30
0
  0
INSERT
  8
LAYER_1
  2
AIGNBL0101003A
 10
0
 20
0
 30
0
  0
INSERT
  8
LAYER_1
  2
AIGNBL0101003B
 10
0
 20
0
 30
0
  0
INSERT
  8
LAYER_1
  2
AIGNBL0101003C
 10
0
 20
0
 30
0
  0
TEXT
  8
LAYER_1
 10
379.3558
 20
75.0187
 11
379.3558
 21
75.0187
 40
3.1044
 41
0.5
 72
1
  1
直付けネジ穴
  0
TEXT
  8
LAYER_1
 10
378.0522
 20
70.362
 11
378.0522
 21
70.362
 40
3.1044
 41
0.5
 72
1
  1
3Φ穴
  0
LINE
  8
LAYER_1
 10
350.1435
 20
107.6112
 11
366.6335
 21
107.6112
  0
TEXT
  8
LAYER_1
 10
385.681
 20
107.4187
 11
385.681
 21
107.4187
 40
3.1044
 41
0.5
 72
1
  1
直付けストッパー
  0
TEXT
  8
LAYER_1
 10
382.8994
 20
102.762
 11
382.8994
 21
102.762
 40
3.1044
 41
0.5
 72
1
  1
4Φ
  0
LINE
  8
LAYER_1
 10
352.1384
 20
108.9481
 11
350.1435
 21
107.6112
  0
LINE
  8
LAYER_1
 10
350.1435
 20
107.6112
 11
352.1384
 21
106.2743
  0
LINE
  8
LAYER_1
 10
348.9088
 20
76.2
 11
365.3988
 21
76.2
  0
LINE
  8
LAYER_1
 10
350.9036
 20
77.5369
 11
348.9088
 21
76.2
  0
LINE
  8
LAYER_1
 10
348.9088
 20
76.2
 11
350.9036
 21
74.8631
  0
ENDSEC
  0
EOF
