  0
SECTION
  2
HEADER
  9
$ACADVER
  1
AC1009
  9
$LUNITS
 70
2
  9
$LUPREC
 70
4
  9
$LTSCALE
 40
1.0
  9
$EXTMIN
 10
192.2192
 20
-66.6014
 30
0
  9
$EXTMAX
 10
469.2192
 20
123.3986
 30
0
  0
ENDSEC
  0
SECTION
  2
TABLES
  0
TABLE
  2
LTYPE
 70
256
  0
ENDTAB
  0
TABLE
  2
LAYER
 70
4
  0
LAYER
  2
LAYER_1
 70
64
 62
7
  6
CONTINUOUS
  0
LAYER
  2
LAYER_2
 70
64
 62
7
  6
CONTINUOUS
  0
LAYER
  2
LAYER_3
 70
64
 62
7
  6
CONTINUOUS
  0
LAYER
  2
LAYER_4
 70
64
 62
7
  6
CONTINUOUS
  0
ENDTAB
  0
TABLE
  2
STYLE
 70
6
  0
STYLE
  2
STANDARD
 70
0
 40
0
 50
0
 71
0
 41
0
 42
0
  3
TXT
  4
BIGFONT
  0
ENDTAB
  0
ENDSEC
  0
SECTION
  2
BLOCKS
  0
BLOCK
  8
LAYER_1
  2
AIGNBL01020004
 70
64
 10
0
 20
0
 30
0
  3
AIGNBL01020004
  0
LINE
  8
LAYER_1
 10
351.603
 20
-18.6827
 11
351.603
 21
-24.6402
  0
LINE
  8
LAYER_1
 10
351.603
 20
-24.6402
 11
352.6276
 21
-24.6402
  0
LINE
  8
LAYER_1
 10
352.6276
 20
-24.6402
 11
352.6276
 21
-24.1943
  0
LINE
  8
LAYER_1
 10
352.6276
 20
-24.1943
 11
355.3053
 21
-24.1943
  0
LINE
  8
LAYER_1
 10
355.3053
 20
-24.1943
 11
355.3053
 21
-24.6402
  0
LINE
  8
LAYER_1
 10
355.3053
 20
-24.6402
 11
356.3778
 21
-24.6402
  0
LINE
  8
LAYER_1
 10
356.3778
 20
-24.6402
 11
356.3778
 21
-18.6827
  0
LINE
  8
LAYER_1
 10
356.3778
 20
-18.6827
 11
351.603
 21
-18.6827
  0
LINE
  8
LAYER_1
 10
355.3053
 20
-23.2015
 11
352.6276
 21
-23.2015
  0
LINE
  8
LAYER_1
 10
352.6276
 20
-23.2015
 11
352.6276
 21
-21.9114
  0
LINE
  8
LAYER_1
 10
352.6276
 20
-21.9114
 11
355.3053
 21
-21.9114
  0
LINE
  8
LAYER_1
 10
355.3053
 20
-21.9114
 11
355.3053
 21
-23.2015
  0
LINE
  8
LAYER_1
 10
355.3053
 20
-20.9388
 11
352.6276
 21
-20.9388
  0
LINE
  8
LAYER_1
 10
352.6276
 20
-20.9388
 11
352.6276
 21
-19.6756
  0
LINE
  8
LAYER_1
 10
352.6276
 20
-19.6756
 11
355.3053
 21
-19.6756
  0
LINE
  8
LAYER_1
 10
355.3053
 20
-19.6756
 11
355.3053
 21
-20.9388
  0
ENDBLK
  0
BLOCK
  8
LAYER_1
  2
AIGNBL01020005
 70
64
 10
0
 20
0
 30
0
  3
AIGNBL01020005
  0
LINE
  8
LAYER_1
 10
361.1371
 20
-20.6576
 11
362.9769
 21
-20.6576
  0
LINE
  8
LAYER_1
 10
362.9769
 20
-20.6576
 11
362.9769
 21
-19.7345
  0
LINE
  8
LAYER_1
 10
362.9769
 20
-19.7345
 11
360.5966
 21
-19.7345
  0
LINE
  8
LAYER_1
 10
360.5966
 20
-19.7345
 11
360.5966
 21
-18.5234
  0
LINE
  8
LAYER_1
 10
360.5966
 20
-18.5234
 11
359.6502
 21
-18.5234
  0
LINE
  8
LAYER_1
 10
359.6502
 20
-18.5234
 11
359.6502
 21
-19.7345
  0
LINE
  8
LAYER_1
 10
359.6502
 20
-19.7345
 11
357.2847
 21
-19.7345
  0
LINE
  8
LAYER_1
 10
357.2847
 20
-19.7345
 11
357.2847
 21
-20.6576
  0
LINE
  8
LAYER_1
 10
357.2847
 20
-20.6576
 11
359.1246
 21
-20.6576
  0
ARC
  8
LAYER_1
 10
352.7968
 20
-17.3096
 40
7.1589
 50
320.090402
 51
332.1165604
  0
ARC
  8
LAYER_1
 10
354.1633
 20
-18.4889
 40
5.3542
 50
306.7900371
 51
320.388939
  0
ARC
  8
LAYER_1
 10
355.3052
 20
-19.9296
 40
3.517
 50
299.7830125
 51
305.949067
  0
ARC
  8
LAYER_1
 10
357.3056
 20
-22.9418
 40
0.2566
 50
189.0074096
 51
222.6984605
  0
ARC
  8
LAYER_1
 10
349.0794
 20
-31.2373
 40
11.4263
 50
41.87779049
 51
45.2975775
  0
ARC
  8
LAYER_1
 10
356.4246
 20
-24.3816
 40
1.3954
 50
27.02587099
 51
33.58032053
  0
ARC
  8
LAYER_1
 10
357.1476
 20
-22.7438
 40
1.1304
 50
297.3892127
 51
310.3878745
  0
ARC
  8
LAYER_1
 10
353.9623
 20
-18.4423
 40
6.4808
 50
307.1941606
 51
316.157217
  0
LINE
  8
LAYER_1
 10
358.6365
 20
-22.9314
 11
358.6365
 21
-23.6463
  0
LINE
  8
LAYER_1
 10
358.6365
 20
-23.6463
 11
359.6502
 21
-23.6463
  0
LINE
  8
LAYER_1
 10
359.6502
 20
-23.6463
 11
359.6502
 21
-24.6876
  0
LINE
  8
LAYER_1
 10
359.6502
 20
-24.6876
 11
360.5966
 21
-24.6876
  0
LINE
  8
LAYER_1
 10
360.5966
 20
-24.6876
 11
360.5966
 21
-23.6463
  0
LINE
  8
LAYER_1
 10
360.5966
 20
-23.6463
 11
361.5727
 21
-23.6463
  0
LINE
  8
LAYER_1
 10
361.5727
 20
-23.6463
 11
361.5727
 21
-22.8527
  0
ARC
  8
LAYER_1
 10
367.4305
 20
-17.4254
 40
7.9856
 50
222.815146
 51
229.3961219
  0
ARC
  8
LAYER_1
 10
363.278
 20
-22.334
 40
1.5569
 50
227.8538365
 51
243.321749
  0
ARC
  8
LAYER_1
 10
365.2722
 20
-25.2881
 40
3.1139
 50
130.0206025
 51
149.872126
  0
ARC
  8
LAYER_1
 10
366.6501
 20
-17.3889
 40
6.4681
 50
224.481624
 51
238.4919087
  0
ARC
  8
LAYER_1
 10
366.1894
 20
-18.041
 40
5.6842
 50
209.4847319
 51
223.0462119
  0
ARC
  8
LAYER_1
 10
368.6307
 20
-16.4658
 40
8.5864
 50
209.2217911
 51
210.6164294
  0
LINE
  8
LAYER_1
 10
359.6502
 20
-22.7289
 11
358.8166
 21
-22.7289
  0
ARC
  8
LAYER_1
 10
349.8376
 20
-15.6235
 40
11.4502
 50
321.6442745
 51
327.3776932
  0
ARC
  8
LAYER_1
 10
358.6787
 20
-21.2021
 40
0.9988
 50
323.4874232
 51
346.5604038
  0
LINE
  8
LAYER_1
 10
359.6502
 20
-21.4342
 11
359.6502
 21
-22.7289
  0
LINE
  8
LAYER_1
 10
360.5966
 20
-22.7289
 11
360.5891
 21
-21.4287
  0
ARC
  8
LAYER_1
 10
362.6121
 20
-20.5916
 40
2.1894
 50
202.4797564
 51
213.37689
  0
ARC
  8
LAYER_1
 10
369.7998
 20
-15.9715
 40
10.7338
 50
212.8634514
 51
219.016696
  0
LINE
  8
LAYER_1
 10
361.4601
 20
-22.7289
 11
360.5966
 21
-22.7289
  0
ENDBLK
  0
BLOCK
  8
LAYER_1
  2
AIGNBL01020006
 70
64
 10
0
 20
0
 30
0
  3
AIGNBL01020006
  0
LINE
  8
LAYER_1
 10
364.3219
 20
-22.0502
 11
364.3219
 21
-24.7051
  0
LINE
  8
LAYER_1
 10
364.3219
 20
-24.7051
 11
365.2199
 21
-24.7051
  0
LINE
  8
LAYER_1
 10
365.2199
 20
-24.7051
 11
365.2199
 21
-24.5221
  0
LINE
  8
LAYER_1
 10
365.2199
 20
-24.5221
 11
367.9464
 21
-24.5221
  0
LINE
  8
LAYER_1
 10
367.9464
 20
-24.5221
 11
367.9464
 21
-24.653
  0
LINE
  8
LAYER_1
 10
367.9464
 20
-24.653
 11
368.8897
 21
-24.653
  0
LINE
  8
LAYER_1
 10
368.8897
 20
-24.653
 11
368.8897
 21
-22.0502
  0
LINE
  8
LAYER_1
 10
368.8897
 20
-22.0502
 11
364.3219
 21
-22.0502
  0
LINE
  8
LAYER_1
 10
365.2199
 20
-22.5871
 11
366.1181
 21
-22.5871
  0
LINE
  8
LAYER_1
 10
366.1181
 20
-22.5871
 11
366.1181
 21
-23.0127
  0
LINE
  8
LAYER_1
 10
366.1181
 20
-23.0127
 11
365.2199
 21
-23.0127
  0
LINE
  8
LAYER_1
 10
365.2199
 20
-23.0127
 11
365.2199
 21
-22.5871
  0
LINE
  8
LAYER_1
 10
366.1244
 20
-23.9775
 11
365.2135
 21
-23.9775
  0
LINE
  8
LAYER_1
 10
365.2135
 20
-23.9775
 11
365.2135
 21
-23.5714
  0
LINE
  8
LAYER_1
 10
365.2135
 20
-23.5714
 11
366.1244
 21
-23.5714
  0
LINE
  8
LAYER_1
 10
366.1244
 20
-23.5714
 11
366.1244
 21
-23.9775
  0
LINE
  8
LAYER_1
 10
367.9464
 20
-23.9775
 11
367.0355
 21
-23.9775
  0
LINE
  8
LAYER_1
 10
367.0355
 20
-23.9775
 11
367.0355
 21
-23.5714
  0
LINE
  8
LAYER_1
 10
367.0355
 20
-23.5714
 11
367.9464
 21
-23.5714
  0
LINE
  8
LAYER_1
 10
367.9464
 20
-23.5714
 11
367.9464
 21
-23.9775
  0
LINE
  8
LAYER_1
 10
367.9464
 20
-22.9955
 11
367.0355
 21
-22.9955
  0
LINE
  8
LAYER_1
 10
367.0355
 20
-22.9955
 11
367.0355
 21
-22.5895
  0
LINE
  8
LAYER_1
 10
367.0355
 20
-22.5895
 11
367.9464
 21
-22.5895
  0
LINE
  8
LAYER_1
 10
367.9464
 20
-22.5895
 11
367.9464
 21
-22.9955
  0
ENDBLK
  0
BLOCK
  8
LAYER_1
  2
AIGNBL01020007
 70
64
 10
0
 20
0
 30
0
  3
AIGNBL01020007
  0
LINE
  8
LAYER_1
 10
372.7142
 20
-19.4737
 11
372.7142
 21
-18.6171
  0
LINE
  8
LAYER_1
 10
372.7142
 20
-18.6171
 11
370.0652
 21
-18.6171
  0
LINE
  8
LAYER_1
 10
370.0652
 20
-18.6171
 11
370.0652
 21
-19.4737
  0
LINE
  8
LAYER_1
 10
370.0652
 20
-19.4737
 11
370.7566
 21
-19.4737
  0
ARC
  8
LAYER_1
 10
356.4358
 20
-17.2671
 40
14.4898
 50
345.1345212
 51
351.2405475
  0
ARC
  8
LAYER_1
 10
366.7696
 20
-20.0374
 40
3.7912
 50
328.8660584
 51
345.5344938
  0
ARC
  8
LAYER_1
 10
368.3708
 20
-20.8831
 40
1.9862
 50
321.4032115
 51
325.8630795
  0
ARC
  8
LAYER_1
 10
368.316
 20
-23.5064
 40
2.1211
 50
13.85472312
 51
40.74075759
  0
LINE
  8
LAYER_1
 10
370.3754
 20
-22.9985
 11
370.5305
 21
-22.7958
  0
LINE
  8
LAYER_1
 10
370.5305
 20
-22.7958
 11
370.5305
 21
-24.2866
  0
LINE
  8
LAYER_1
 10
370.5305
 20
-24.2866
 11
371.338
 21
-24.2866
  0
LINE
  8
LAYER_1
 10
371.338
 20
-24.2866
 11
371.338
 21
-23.8159
  0
LINE
  8
LAYER_1
 10
371.338
 20
-23.8159
 11
372.5723
 21
-23.8159
  0
LINE
  8
LAYER_1
 10
372.5723
 20
-23.8159
 11
372.5723
 21
-20.6966
  0
LINE
  8
LAYER_1
 10
372.5723
 20
-20.6966
 11
371.4091
 21
-20.6966
  0
ARC
  8
LAYER_1
 10
363.6411
 20
-18.5004
 40
8.0725
 50
344.2131719
 51
353.0750751
  0
LINE
  8
LAYER_1
 10
371.6547
 20
-19.4737
 11
372.7142
 21
-19.4737
  0
LINE
  8
LAYER_1
 10
371.7452
 20
-22.9919
 11
371.338
 21
-22.9919
  0
LINE
  8
LAYER_1
 10
371.338
 20
-22.9919
 11
371.338
 21
-21.5204
  0
LINE
  8
LAYER_1
 10
371.338
 20
-21.5204
 11
371.7452
 21
-21.5204
  0
LINE
  8
LAYER_1
 10
371.7452
 20
-21.5204
 11
371.7452
 21
-22.9919
  0
ENDBLK
  0
BLOCK
  8
LAYER_1
  2
AIGNBL01020008
 70
64
 10
0
 20
0
 30
0
  3
AIGNBL01020008
  0
LINE
  8
LAYER_1
 10
375.5265
 20
-21.0627
 11
375.5265
 21
-19.4932
  0
LINE
  8
LAYER_1
 10
375.5265
 20
-19.4932
 11
376.0306
 21
-19.4932
  0
LINE
  8
LAYER_1
 10
376.0306
 20
-19.4932
 11
376.0306
 21
-18.6171
  0
LINE
  8
LAYER_1
 10
376.0306
 20
-18.6171
 11
372.8322
 21
-18.6171
  0
LINE
  8
LAYER_1
 10
372.8322
 20
-18.6171
 11
372.8322
 21
-19.4932
  0
LINE
  8
LAYER_1
 10
372.8322
 20
-19.4932
 11
373.2652
 21
-19.4932
  0
LINE
  8
LAYER_1
 10
373.2652
 20
-19.4932
 11
373.2652
 21
-21.0627
  0
LINE
  8
LAYER_1
 10
373.2652
 20
-21.0627
 11
372.6707
 21
-21.0627
  0
LINE
  8
LAYER_1
 10
372.6707
 20
-21.0627
 11
372.6707
 21
-21.9587
  0
LINE
  8
LAYER_1
 10
372.6707
 20
-21.9587
 11
373.2393
 21
-21.9587
  0
ARC
  8
LAYER_1
 10
370.4601
 20
-21.9112
 40
2.7796
 50
338.6726626
 51
359.0209934
  0
ARC
  8
LAYER_1
 10
370.1835
 20
-21.8534
 40
3.0587
 50
321.0652746
 51
339.5482703
  0
ARC
  8
LAYER_1
 10
370.4132
 20
-22.0198
 40
2.7755
 50
312.3585029
 51
320.7571916
  0
ARC
  8
LAYER_1
 10
369.855
 20
-28.2294
 40
4.8157
 50
49.01744843
 51
59.72034273
  0
ARC
  8
LAYER_1
 10
371.571
 20
-22.7923
 40
2.3079
 50
308.6770083
 51
331.7345889
  0
ARC
  8
LAYER_1
 10
370.277
 20
-22.0397
 40
3.8043
 50
330.9809007
 51
347.5160211
  0
ARC
  8
LAYER_1
 10
368.9892
 20
-21.6624
 40
5.144
 50
346.5132457
 51
356.6977471
  0
LINE
  8
LAYER_1
 10
374.1247
 20
-21.9587
 11
374.635
 21
-21.9587
  0
LINE
  8
LAYER_1
 10
374.635
 20
-21.9587
 11
374.635
 21
-24.5744
  0
LINE
  8
LAYER_1
 10
374.635
 20
-24.5744
 11
375.5265
 21
-24.5744
  0
LINE
  8
LAYER_1
 10
375.5265
 20
-24.5744
 11
375.5265
 21
-21.9587
  0
LINE
  8
LAYER_1
 10
375.5265
 20
-21.9587
 11
376.1081
 21
-21.9587
  0
LINE
  8
LAYER_1
 10
376.1081
 20
-21.9587
 11
376.1081
 21
-21.0627
  0
LINE
  8
LAYER_1
 10
376.1081
 20
-21.0627
 11
375.5265
 21
-21.0627
  0
LINE
  8
LAYER_1
 10
374.635
 20
-21.0627
 11
374.1439
 21
-21.0627
  0
LINE
  8
LAYER_1
 10
374.1439
 20
-21.0627
 11
374.1439
 21
-19.4932
  0
LINE
  8
LAYER_1
 10
374.1439
 20
-19.4932
 11
374.635
 21
-19.4932
  0
LINE
  8
LAYER_1
 10
374.635
 20
-19.4932
 11
374.635
 21
-21.0627
  0
ENDBLK
  0
BLOCK
  8
LAYER_1
  2
AIGNBL01020009
 70
64
 10
0
 20
0
 30
0
  3
AIGNBL01020009
  0
ARC
  8
LAYER_1
 10
348.7171
 20
-19.7029
 40
1.9538
 50
288.5728851
 51
313.5589395
  0
ARC
  8
LAYER_1
 10
349.2348
 20
-20.3423
 40
1.1356
 50
316.8584967
 51
347.2193472
  0
ARC
  8
LAYER_1
 10
348.4011
 20
-20.1395
 40
1.9937
 50
346.8369842
 51
1.013916361
  0
ARC
  8
LAYER_1
 10
349.1359
 20
-20.1074
 40
1.2585
 50
0.1442876533
 51
45.47147913
  0
ARC
  8
LAYER_1
 10
348.6065
 20
-20.6066
 40
1.9859
 50
44.68437791
 51
67.71710381
  0
ARC
  8
LAYER_1
 10
348.3446
 20
-21.0891
 40
2.5323
 50
66.37394432
 51
86.05236678
  0
ARC
  8
LAYER_1
 10
348.4488
 20
-20.2975
 40
1.7361
 50
87.68383207
 51
89.78881595
  0
LINE
  8
LAYER_1
 10
348.4552
 20
-18.5614
 11
345.4843
 21
-18.5614
  0
LINE
  8
LAYER_1
 10
345.4843
 20
-18.5614
 11
345.4843
 21
-21.8229
  0
LINE
  8
LAYER_1
 10
345.4843
 20
-21.8229
 11
347.2473
 21
-21.8229
  0
ARC
  8
LAYER_1
 10
347.2732
 20
-23.4609
 40
1.6382
 50
64.35518167
 51
90.905835
  0
ARC
  8
LAYER_1
 10
347.474
 20
-22.9615
 40
1.1016
 50
16.86565433
 51
62.52763861
  0
ARC
  8
LAYER_1
 10
347.6538
 20
-22.8924
 40
0.9097
 50
0.3657920727
 51
15.98793587
  0
LINE
  8
LAYER_1
 10
348.5634
 20
-22.8866
 11
348.5634
 21
-24.6193
  0
LINE
  8
LAYER_1
 10
348.5634
 20
-24.6193
 11
350.1079
 21
-24.6193
  0
LINE
  8
LAYER_1
 10
350.1079
 20
-24.6193
 11
350.1079
 21
-22.7905
  0
ARC
  8
LAYER_1
 10
348.0591
 20
-22.7474
 40
2.0493
 50
358.7953186
 51
12.5237444
  0
ARC
  8
LAYER_1
 10
349.1107
 20
-22.5087
 40
0.971
 50
12.22629885
 51
45.01434
  0
ARC
  8
LAYER_1
 10
348.9325
 20
-22.7785
 40
1.2894
 50
47.89284515
 51
71.60372221
  0
LINE
  8
LAYER_1
 10
348.2649
 20
-20.7712
 11
347.0269
 21
-20.7712
  0
LINE
  8
LAYER_1
 10
347.0269
 20
-20.7712
 11
347.0269
 21
-19.6173
  0
LINE
  8
LAYER_1
 10
347.0269
 20
-19.6173
 11
347.063
 21
-19.6173
  0
LINE
  8
LAYER_1
 10
347.063
 20
-19.6173
 11
348.297
 21
-19.6173
  0
ARC
  8
LAYER_1
 10
348.2563
 20
-20.2804
 40
0.6643
 50
46.60183084
 51
86.48352256
  0
ARC
  8
LAYER_1
 10
348.3222
 20
-20.1655
 40
0.5365
 50
356.936944
 51
43.28726554
  0
ARC
  8
LAYER_1
 10
348.3126
 20
-20.1929
 40
0.5453
 50
290.0148134
 51
359.8586292
  0
ARC
  8
LAYER_1
 10
348.1362
 20
-19.8655
 40
0.9148
 50
278.085377
 51
293.3808036
  0
ENDBLK
  0
BLOCK
  8
LAYER_1
  2
AIGNBL0102000B
 70
64
 10
0
 20
0
 30
0
  3
AIGNBL0102000B
  0
LINE
  8
LAYER_1
 10
411.4148
 20
-23.7202
 11
411.4148
 21
-20.7464
  0
LINE
  8
LAYER_1
 10
411.4148
 20
-20.7464
 11
411.726
 21
-20.7464
  0
LINE
  8
LAYER_1
 10
411.726
 20
-20.7464
 11
411.726
 21
-24.2397
  0
LINE
  8
LAYER_1
 10
411.726
 20
-24.2397
 11
411.3927
 21
-24.2397
  0
LINE
  8
LAYER_1
 10
411.3927
 20
-24.2397
 11
409.4161
 21
-21.1226
  0
LINE
  8
LAYER_1
 10
409.4161
 20
-21.1226
 11
409.4161
 21
-24.2397
  0
LINE
  8
LAYER_1
 10
409.4161
 20
-24.2397
 11
409.1053
 21
-24.2397
  0
LINE
  8
LAYER_1
 10
409.1053
 20
-24.2397
 11
409.1053
 21
-20.7464
  0
LINE
  8
LAYER_1
 10
409.1053
 20
-20.7464
 11
409.5049
 21
-20.7464
  0
LINE
  8
LAYER_1
 10
409.5049
 20
-20.7464
 11
411.4148
 21
-23.7202
  0
ENDBLK
  0
BLOCK
  8
LAYER_1
  2
AIGNBL0102000C
 70
64
 10
0
 20
0
 30
0
  3
AIGNBL0102000C
  0
LINE
  8
LAYER_1
 10
412.7697
 20
-21.1226
 11
412.4147
 21
-21.1226
  0
LINE
  8
LAYER_1
 10
412.4147
 20
-21.1226
 11
412.4147
 21
-20.7464
  0
LINE
  8
LAYER_1
 10
412.4147
 20
-20.7464
 11
412.7697
 21
-20.7464
  0
LINE
  8
LAYER_1
 10
412.7697
 20
-20.7464
 11
412.7697
 21
-21.1226
  0
LINE
  8
LAYER_1
 10
412.7476
 20
-24.2397
 11
412.4368
 21
-24.2397
  0
LINE
  8
LAYER_1
 10
412.4368
 20
-24.2397
 11
412.4368
 21
-21.7854
  0
LINE
  8
LAYER_1
 10
412.4368
 20
-21.7854
 11
412.7476
 21
-21.7854
  0
LINE
  8
LAYER_1
 10
412.7476
 20
-21.7854
 11
412.7476
 21
-24.2397
  0
ENDBLK
  0
BLOCK
  8
LAYER_1
  2
AIGNBL0102000D
 70
64
 10
0
 20
0
 30
0
  3
AIGNBL0102000D
  0
LINE
  8
LAYER_1
 10
413.7693
 20
-24.2397
 11
413.4584
 21
-24.2397
  0
LINE
  8
LAYER_1
 10
413.4584
 20
-24.2397
 11
413.4584
 21
-20.7464
  0
LINE
  8
LAYER_1
 10
413.4584
 20
-20.7464
 11
413.7693
 21
-20.7464
  0
LINE
  8
LAYER_1
 10
413.7693
 20
-20.7464
 11
413.7693
 21
-22.287
  0
ARC
  8
LAYER_1
 10
414.7881
 20
-22.9101
 40
1.1942
 50
129.0411664
 51
148.552357
  0
ARC
  8
LAYER_1
 10
414.5958
 20
-22.6855
 40
0.8988
 50
91.65940168
 51
128.536351
  0
ARC
  8
LAYER_1
 10
414.6327
 20
-22.9253
 40
1.1399
 50
89.86158847
 51
93.16434886
  0
ARC
  8
LAYER_1
 10
414.6711
 20
-22.699
 40
0.9142
 50
55.37843322
 51
92.22964094
  0
ARC
  8
LAYER_1
 10
414.7374
 20
-22.4778
 40
0.6982
 50
7.401396049
 51
49.53892017
  0
ARC
  8
LAYER_1
 10
413.8245
 20
-22.6856
 40
1.6327
 50
359.5285411
 51
10.50662327
  0
LINE
  8
LAYER_1
 10
415.4571
 20
-22.699
 11
415.4571
 21
-24.2397
  0
LINE
  8
LAYER_1
 10
415.4571
 20
-24.2397
 11
415.1463
 21
-24.2397
  0
LINE
  8
LAYER_1
 10
415.1463
 20
-24.2397
 11
415.1463
 21
-22.7349
  0
ARC
  8
LAYER_1
 10
414.0121
 20
-22.6949
 40
1.1349
 50
357.9789105
 51
16.98197242
  0
ARC
  8
LAYER_1
 10
414.6815
 20
-22.4874
 40
0.4341
 50
16.59677351
 51
48.63125212
  0
ARC
  8
LAYER_1
 10
414.5979
 20
-22.6429
 40
0.6074
 50
52.41132045
 51
92.74352394
  0
ARC
  8
LAYER_1
 10
414.5692
 20
-22.7297
 40
0.6935
 50
90.03590281
 51
129.8639993
  0
ARC
  8
LAYER_1
 10
414.7014
 20
-22.9346
 40
0.936
 50
128.0344594
 51
164.2355018
  0
ARC
  8
LAYER_1
 10
414.7577
 20
-22.9272
 40
0.9884
 50
165.5372679
 51
180.2733629
  0
LINE
  8
LAYER_1
 10
413.7693
 20
-22.9319
 11
413.7693
 21
-24.2397
  0
ENDBLK
  0
BLOCK
  8
LAYER_1
  2
AIGNBL0102000E
 70
64
 10
0
 20
0
 30
0
  3
AIGNBL0102000E
  0
ARC
  8
LAYER_1
 10
417.2819
 20
-22.9716
 40
1.1862
 50
50.66677427
 51
90.17171201
  0
ARC
  8
LAYER_1
 10
417.426
 20
-22.7962
 40
0.9592
 50
14.76823995
 51
50.68858398
  0
ARC
  8
LAYER_1
 10
416.8144
 20
-22.9778
 40
1.597
 50
359.0745588
 51
15.47326638
  0
ARC
  8
LAYER_1
 10
416.9227
 20
-23.0416
 40
1.489
 50
332.9248548
 51
1.463570552
  0
ARC
  8
LAYER_1
 10
417.465
 20
-23.268
 40
0.9042
 50
308.9730079
 51
330.0558863
  0
ARC
  8
LAYER_1
 10
417.2792
 20
-23.0461
 40
1.1936
 50
269.9562788
 51
309.2052349
  0
ARC
  8
LAYER_1
 10
417.2745
 20
-23.0554
 40
1.1844
 50
230.6348894
 51
270.1844284
  0
ARC
  8
LAYER_1
 10
417.1242
 20
-23.2363
 40
0.9491
 50
194.5638459
 51
230.717391
  0
ARC
  8
LAYER_1
 10
417.8056
 20
-23.0325
 40
1.6601
 50
179.0015303
 51
195.4587807
  0
ARC
  8
LAYER_1
 10
417.5799
 20
-22.9676
 40
1.4345
 50
152.4352517
 51
181.4366148
  0
ARC
  8
LAYER_1
 10
417.097
 20
-22.7658
 40
0.9142
 50
128.8709262
 51
149.6419077
  0
ARC
  8
LAYER_1
 10
417.2773
 20
-22.9777
 40
1.1923
 50
89.95302455
 51
129.2276577
  0
ARC
  8
LAYER_1
 10
417.2478
 20
-22.8069
 40
0.7481
 50
129.9426778
 51
170.5241534
  0
ARC
  8
LAYER_1
 10
418.0015
 20
-22.9902
 40
1.5227
 50
168.3896326
 51
180.5054784
  0
ARC
  8
LAYER_1
 10
417.6908
 20
-23.0485
 40
1.2129
 50
177.8776841
 51
209.7531783
  0
ARC
  8
LAYER_1
 10
417.1727
 20
-23.2901
 40
0.6448
 50
213.9644615
 51
231.0723734
  0
ARC
  8
LAYER_1
 10
417.2712
 20
-23.1737
 40
0.7974
 50
230.8249409
 51
270.5110491
  0
ARC
  8
LAYER_1
 10
417.2839
 20
-23.1694
 40
0.8016
 50
269.5985724
 51
309.0654377
  0
ARC
  8
LAYER_1
 10
417.3097
 20
-23.2213
 40
0.7452
 50
310.0430385
 51
350.8041923
  0
ARC
  8
LAYER_1
 10
416.4877
 20
-23.0196
 40
1.5903
 50
348.3604548
 51
0.5752092068
  0
ARC
  8
LAYER_1
 10
416.9167
 20
-22.9619
 40
1.1619
 50
357.9411261
 51
30.41357781
  0
ARC
  8
LAYER_1
 10
417.3741
 20
-22.7468
 40
0.6602
 50
34.41537859
 51
51.05519408
  0
ARC
  8
LAYER_1
 10
417.2841
 20
-22.8551
 40
0.801
 50
50.91885077
 51
90.41713913
  0
ARC
  8
LAYER_1
 10
417.2731
 20
-22.857
 40
0.8029
 50
89.63079039
 51
129.0332197
  0
ENDBLK
  0
BLOCK
  8
LAYER_1
  2
AIGNBL0102000F
 70
64
 10
0
 20
0
 30
0
  3
AIGNBL0102000F
  0
ARC
  8
LAYER_1
 10
420.4096
 20
-22.4617
 40
0.6523
 50
6.057824587
 51
49.65076746
  0
ARC
  8
LAYER_1
 10
419.6356
 20
-22.6217
 40
1.4409
 50
359.7751054
 51
9.139665558
  0
LINE
  8
LAYER_1
 10
421.0765
 20
-22.6274
 11
421.0765
 21
-24.2397
  0
LINE
  8
LAYER_1
 10
421.0765
 20
-24.2397
 11
420.7656
 21
-24.2397
  0
LINE
  8
LAYER_1
 10
420.7656
 20
-24.2397
 11
420.7656
 21
-22.6632
  0
ARC
  8
LAYER_1
 10
419.9056
 20
-22.6341
 40
0.8605
 50
358.0648143
 51
19.47992018
  0
ARC
  8
LAYER_1
 10
420.3091
 20
-22.493
 40
0.4331
 50
19.68415817
 51
49.93849285
  0
ARC
  8
LAYER_1
 10
420.2538
 20
-22.6178
 40
0.5653
 50
53.79218892
 51
94.41727432
  0
ARC
  8
LAYER_1
 10
420.2106
 20
-22.7473
 40
0.6932
 50
90.02872182
 51
129.8856998
  0
ARC
  8
LAYER_1
 10
420.4687
 20
-23.0774
 40
1.1121
 50
129.1838779
 51
162.0625498
  0
LINE
  8
LAYER_1
 10
419.4107
 20
-22.7349
 11
419.4107
 21
-24.2397
  0
LINE
  8
LAYER_1
 10
419.4107
 20
-24.2397
 11
419.0999
 21
-24.2397
  0
LINE
  8
LAYER_1
 10
419.0999
 20
-24.2397
 11
419.0999
 21
-21.7854
  0
LINE
  8
LAYER_1
 10
419.0999
 20
-21.7854
 11
419.4107
 21
-21.7854
  0
LINE
  8
LAYER_1
 10
419.4107
 20
-21.7854
 11
419.4107
 21
-22.287
  0
ARC
  8
LAYER_1
 10
420.3313
 20
-22.8783
 40
1.0941
 50
128.1836958
 51
147.2859099
  0
ARC
  8
LAYER_1
 10
420.3034
 20
-22.7974
 40
1.0137
 50
94.72376074
 51
129.776402
  0
ARC
  8
LAYER_1
 10
420.2762
 20
-22.7036
 40
0.9182
 50
89.95828009
 51
93.51329337
  0
ARC
  8
LAYER_1
 10
420.2962
 20
-22.6767
 40
0.8915
 50
53.90537529
 51
91.24248329
  0
ARC
  8
LAYER_1
 10
420.3481
 20
-22.5655
 40
0.7714
 50
51.16368699
 51
52.15552028
  0
ENDBLK
  0
BLOCK
  8
LAYER_1
  2
AIGNBL01020010
 70
64
 10
0
 20
0
 30
0
  3
AIGNBL01020010
  0
LINE
  8
LAYER_1
 10
424.5631
 20
-24.2397
 11
424.1856
 21
-24.2397
  0
LINE
  8
LAYER_1
 10
424.1856
 20
-24.2397
 11
423.0306
 21
-22.6274
  0
LINE
  8
LAYER_1
 10
423.0306
 20
-22.6274
 11
422.0756
 21
-22.6274
  0
LINE
  8
LAYER_1
 10
422.0756
 20
-22.6274
 11
422.0756
 21
-24.2397
  0
LINE
  8
LAYER_1
 10
422.0756
 20
-24.2397
 11
421.7648
 21
-24.2397
  0
LINE
  8
LAYER_1
 10
421.7648
 20
-24.2397
 11
421.7648
 21
-20.7464
  0
LINE
  8
LAYER_1
 10
421.7648
 20
-20.7464
 11
423.1639
 21
-20.7464
  0
ARC
  8
LAYER_1
 10
423.2125
 20
-22.4582
 40
1.7125
 50
64.78879486
 51
91.62527756
  0
ARC
  8
LAYER_1
 10
423.5161
 20
-21.6908
 40
0.8903
 50
51.16667621
 51
61.4284199
  0
ARC
  8
LAYER_1
 10
423.5483
 20
-21.6491
 40
0.8377
 50
358.029295
 51
51.09430546
  0
ARC
  8
LAYER_1
 10
423.503
 20
-21.6948
 40
0.8827
 50
324.0603671
 51
1.097550068
  0
ARC
  8
LAYER_1
 10
423.5345
 20
-21.6852
 40
0.8632
 50
308.7149209
 51
322.3146791
  0
ARC
  8
LAYER_1
 10
423.4567
 20
-21.5672
 40
1.004
 50
290.1168557
 51
307.9719018
  0
ARC
  8
LAYER_1
 10
423.1854
 20
-20.8097
 40
1.8087
 50
275.6646348
 51
289.9329122
  0
LINE
  8
LAYER_1
 10
423.3639
 20
-22.6095
 11
424.5631
 21
-24.2397
  0
LINE
  8
LAYER_1
 10
422.0756
 20
-21.0151
 11
422.0756
 21
-22.3587
  0
LINE
  8
LAYER_1
 10
422.0756
 20
-22.3587
 11
423.0752
 21
-22.3587
  0
ARC
  8
LAYER_1
 10
423.1106
 20
-20.6508
 40
1.7083
 50
268.8129166
 51
283.8359462
  0
ARC
  8
LAYER_1
 10
423.3241
 20
-21.4982
 40
0.8344
 50
283.5156472
 51
307.3398867
  0
ARC
  8
LAYER_1
 10
423.4571
 20
-21.6974
 40
0.5955
 50
308.7937325
 51
1.880035625
  0
ARC
  8
LAYER_1
 10
423.4404
 20
-21.666
 40
0.6121
 50
358.8899656
 51
50.43626632
  0
ARC
  8
LAYER_1
 10
423.3806
 20
-21.7742
 40
0.7339
 50
52.22190104
 51
73.158632
  0
ARC
  8
LAYER_1
 10
423.1989
 20
-22.4027
 40
1.3881
 50
73.49546464
 51
91.4452343
  0
LINE
  8
LAYER_1
 10
423.1639
 20
-21.0151
 11
422.0756
 21
-21.0151
  0
ENDBLK
  0
BLOCK
  8
LAYER_1
  2
AIGNBL01020011
 70
64
 10
0
 20
0
 30
0
  3
AIGNBL01020011
  0
ARC
  8
LAYER_1
 10
426.4031
 20
-22.4897
 40
0.6479
 50
358.909948
 51
51.51566733
  0
LINE
  8
LAYER_1
 10
427.0509
 20
-22.502
 11
427.0509
 21
-23.7202
  0
ARC
  8
LAYER_1
 10
428.0894
 20
-23.7306
 40
1.0385
 50
179.4270287
 51
209.3553955
  0
LINE
  8
LAYER_1
 10
427.1842
 20
-24.2397
 11
426.8509
 21
-24.2397
  0
ARC
  8
LAYER_1
 10
427.4514
 20
-23.8575
 40
0.7118
 50
181.921806
 51
212.4745816
  0
ARC
  8
LAYER_1
 10
426.0829
 20
-23.3164
 40
0.8666
 50
307.189829
 51
319.3119411
  0
ARC
  8
LAYER_1
 10
425.9511
 20
-23.186
 40
1.0505
 50
274.342736
 51
308.613264
  0
ARC
  8
LAYER_1
 10
425.9024
 20
-22.9257
 40
1.314
 50
269.7157622
 51
275.6021462
  0
ARC
  8
LAYER_1
 10
425.872
 20
-23.2255
 40
1.0145
 50
236.2873254
 51
271.3502145
  0
ARC
  8
LAYER_1
 10
425.7922
 20
-23.4008
 40
0.8249
 50
231.0752257
 51
234.1383564
  0
ARC
  8
LAYER_1
 10
425.6067
 20
-23.6267
 40
0.5327
 50
178.4973474
 51
231.3348998
  0
ARC
  8
LAYER_1
 10
425.61
 20
-23.6171
 40
0.5358
 50
125.8364801
 51
179.5297609
  0
ARC
  8
LAYER_1
 10
426.0931
 20
-24.2479
 40
1.3302
 50
111.9628192
 51
126.7974075
  0
ARC
  8
LAYER_1
 10
427.0087
 20
-26.4326
 40
3.699
 50
106.0710217
 51
112.4592365
  0
ARC
  8
LAYER_1
 10
424.948
 20
-19.0075
 40
4.0072
 50
284.9940935
 51
296.5645934
  0
ARC
  8
LAYER_1
 10
426.2049
 20
-22.5584
 40
0.5361
 50
356.4479126
 51
44.97164605
  0
ARC
  8
LAYER_1
 10
426.1671
 20
-22.7124
 40
0.6767
 50
51.94824181
 51
92.28456445
  0
ARC
  8
LAYER_1
 10
426.1306
 20
-22.7014
 40
0.6653
 50
89.17817295
 51
128.3258088
  0
ARC
  8
LAYER_1
 10
426.0865
 20
-22.6195
 40
0.5739
 50
129.9435942
 51
171.8142261
  0
LINE
  8
LAYER_1
 10
425.5184
 20
-22.5378
 11
425.163
 21
-22.5378
  0
ARC
  8
LAYER_1
 10
425.9952
 20
-22.6592
 40
0.841
 50
126.4176159
 51
171.6973663
  0
ARC
  8
LAYER_1
 10
426.0616
 20
-22.7104
 40
0.9219
 50
91.54486952
 51
127.8507148
  0
ARC
  8
LAYER_1
 10
426.1341
 20
-23.1425
 40
1.3571
 50
89.74470742
 51
94.11271332
  0
ARC
  8
LAYER_1
 10
426.1748
 20
-22.9145
 40
1.1296
 50
58.6194476
 51
91.75785475
  0
ARC
  8
LAYER_1
 10
426.3217
 20
-22.5854
 40
0.7735
 50
51.21066166
 51
55.21930848
  0
ARC
  8
LAYER_1
 10
425.6715
 20
-20.7472
 40
2.3839
 50
282.4296732
 51
296.629449
  0
ARC
  8
LAYER_1
 10
426.5043
 20
-24.7641
 40
1.7189
 50
100.7177361
 51
123.2182153
  0
ARC
  8
LAYER_1
 10
425.7854
 20
-23.6323
 40
0.3787
 50
126.0379939
 51
177.0272144
  0
ARC
  8
LAYER_1
 10
425.7222
 20
-23.6061
 40
0.3151
 50
181.2008166
 51
234.780401
  0
ARC
  8
LAYER_1
 10
425.8743
 20
-23.408
 40
0.5647
 50
233.7672375
 51
274.4422258
  0
ARC
  8
LAYER_1
 10
425.9469
 20
-23.1042
 40
0.8672
 50
268.0912501
 51
305.5653049
  0
ARC
  8
LAYER_1
 10
425.4106
 20
-22.4727
 40
1.6943
 50
307.8958858
 51
321.685826
  0
LINE
  8
LAYER_1
 10
426.74
 20
-23.5231
 11
426.74
 21
-22.8782
  0
ENDBLK
  0
BLOCK
  8
LAYER_1
  2
AIGNBL01020012
 70
64
 10
0
 20
0
 30
0
  3
AIGNBL01020012
  0
LINE
  8
LAYER_1
 10
428.2279
 20
-21.1226
 11
427.8729
 21
-21.1226
  0
LINE
  8
LAYER_1
 10
427.8729
 20
-21.1226
 11
427.8729
 21
-20.7464
  0
LINE
  8
LAYER_1
 10
427.8729
 20
-20.7464
 11
428.2279
 21
-20.7464
  0
LINE
  8
LAYER_1
 10
428.2279
 20
-20.7464
 11
428.2279
 21
-21.1226
  0
LINE
  8
LAYER_1
 10
428.2058
 20
-24.2397
 11
427.895
 21
-24.2397
  0
LINE
  8
LAYER_1
 10
427.895
 20
-24.2397
 11
427.895
 21
-21.7854
  0
LINE
  8
LAYER_1
 10
427.895
 20
-21.7854
 11
428.2058
 21
-21.7854
  0
LINE
  8
LAYER_1
 10
428.2058
 20
-21.7854
 11
428.2058
 21
-24.2397
  0
ENDBLK
  0
BLOCK
  8
LAYER_1
  2
AIGNBL01020013
 70
64
 10
0
 20
0
 30
0
  3
AIGNBL01020013
  0
LINE
  8
LAYER_1
 10
429.2274
 20
-22.9498
 11
430.5378
 21
-21.7854
  0
LINE
  8
LAYER_1
 10
430.5378
 20
-21.7854
 11
430.9374
 21
-21.7854
  0
LINE
  8
LAYER_1
 10
430.9374
 20
-21.7854
 11
429.9382
 21
-22.699
  0
LINE
  8
LAYER_1
 10
429.9382
 20
-22.699
 11
431.0932
 21
-24.2397
  0
LINE
  8
LAYER_1
 10
431.0932
 20
-24.2397
 11
430.7153
 21
-24.2397
  0
LINE
  8
LAYER_1
 10
430.7153
 20
-24.2397
 11
429.7162
 21
-22.8961
  0
LINE
  8
LAYER_1
 10
429.7162
 20
-22.8961
 11
429.2274
 21
-23.3081
  0
LINE
  8
LAYER_1
 10
429.2274
 20
-23.3081
 11
429.2274
 21
-24.2397
  0
LINE
  8
LAYER_1
 10
429.2274
 20
-24.2397
 11
428.9166
 21
-24.2397
  0
LINE
  8
LAYER_1
 10
428.9166
 20
-24.2397
 11
428.9166
 21
-20.7464
  0
LINE
  8
LAYER_1
 10
428.9166
 20
-20.7464
 11
429.2274
 21
-20.7464
  0
LINE
  8
LAYER_1
 10
429.2274
 20
-20.7464
 11
429.2274
 21
-22.9498
  0
ENDBLK
  0
BLOCK
  8
LAYER_1
  2
AIGNBL01020014
 70
64
 10
0
 20
0
 30
0
  3
AIGNBL01020014
  0
ARC
  8
LAYER_1
 10
433.0583
 20
-22.6882
 40
0.8773
 50
12.60535839
 51
49.78015098
  0
ARC
  8
LAYER_1
 10
431.9488
 20
-23.0114
 40
2.032
 50
358.7043305
 51
14.67021056
  0
LINE
  8
LAYER_1
 10
433.9802
 20
-23.0573
 11
432.1145
 21
-23.0573
  0
ARC
  8
LAYER_1
 10
433.2789
 20
-23.0545
 40
1.1644
 50
180.139925
 51
212.9375528
  0
ARC
  8
LAYER_1
 10
432.7897
 20
-23.3136
 40
0.6149
 50
217.4603672
 51
231.0501941
  0
ARC
  8
LAYER_1
 10
432.9069
 20
-23.1737
 40
0.7974
 50
230.8249409
 51
270.5110491
  0
ARC
  8
LAYER_1
 10
432.9196
 20
-23.1694
 40
0.8016
 50
269.5985724
 51
309.0654377
  0
ARC
  8
LAYER_1
 10
433.065
 20
-23.3514
 40
0.5687
 50
309.2491961
 51
349.8638721
  0
LINE
  8
LAYER_1
 10
433.6248
 20
-23.4515
 11
433.9356
 21
-23.4515
  0
ARC
  8
LAYER_1
 10
433.1151
 20
-23.3593
 40
0.8257
 50
314.9077558
 51
353.5891389
  0
ARC
  8
LAYER_1
 10
433.1617
 20
-23.3842
 40
0.7753
 50
308.7397602
 51
313.7625305
  0
ARC
  8
LAYER_1
 10
432.9349
 20
-23.1046
 40
1.1353
 50
268.9430762
 51
308.8390436
  0
ARC
  8
LAYER_1
 10
432.8964
 20
-23.0127
 40
1.2272
 50
239.2938933
 51
270.8216948
  0
ARC
  8
LAYER_1
 10
432.8467
 20
-23.1404
 40
1.0922
 50
230.9770072
 51
238.1151405
  0
ARC
  8
LAYER_1
 10
432.7586
 20
-23.2586
 40
0.9449
 50
194.4739004
 51
230.6139941
  0
ARC
  8
LAYER_1
 10
433.4926
 20
-23.0365
 40
1.7114
 50
178.8974963
 51
195.5311997
  0
ARC
  8
LAYER_1
 10
433.245
 20
-22.9687
 40
1.464
 50
152.2522295
 51
181.3642106
  0
ARC
  8
LAYER_1
 10
432.7956
 20
-22.782
 40
0.9802
 50
128.8196472
 51
149.67893
  0
ARC
  8
LAYER_1
 10
432.8365
 20
-22.8464
 40
1.0561
 50
94.54669966
 51
128.3632401
  0
ARC
  8
LAYER_1
 10
432.9049
 20
-23.1925
 40
1.4071
 50
89.62882822
 51
96.20374131
  0
ARC
  8
LAYER_1
 10
432.9324
 20
-22.9473
 40
1.1621
 50
58.70061417
 51
90.90531606
  0
ARC
  8
LAYER_1
 10
432.9898
 20
-22.8063
 40
1.012
 50
51.13492566
 51
57.33000345
  0
ARC
  8
LAYER_1
 10
432.7545
 20
-22.7982
 40
0.8925
 50
0.6156655236
 51
37.9658978
  0
ARC
  8
LAYER_1
 10
433.0563
 20
-22.6237
 40
0.5493
 50
42.98718474
 51
50.89947889
  0
ARC
  8
LAYER_1
 10
432.9381
 20
-22.7847
 40
0.7489
 50
51.64880035
 51
91.8404337
  0
ARC
  8
LAYER_1
 10
432.8918
 20
-22.8559
 40
0.82
 50
88.45202663
 51
126.5776357
  0
ARC
  8
LAYER_1
 10
432.8968
 20
-22.8045
 40
0.7824
 50
129.1106692
 51
178.83415
  0
LINE
  8
LAYER_1
 10
432.1145
 20
-22.7886
 11
433.6469
 21
-22.7886
  0
ENDBLK
  0
BLOCK
  8
LAYER_1
  2
AIGNBL01020015
 70
64
 10
0
 20
0
 30
0
  3
AIGNBL01020015
  0
ARC
  8
LAYER_1
 10
435.9784
 20
-22.4617
 40
0.6524
 50
6.056198854
 51
49.63190274
  0
ARC
  8
LAYER_1
 10
435.2044
 20
-22.6217
 40
1.4411
 50
359.7752786
 51
9.138499501
  0
LINE
  8
LAYER_1
 10
436.6455
 20
-22.6274
 11
436.6455
 21
-24.2397
  0
LINE
  8
LAYER_1
 10
436.6455
 20
-24.2397
 11
436.3347
 21
-24.2397
  0
LINE
  8
LAYER_1
 10
436.3347
 20
-24.2397
 11
436.3347
 21
-22.6632
  0
ARC
  8
LAYER_1
 10
435.475
 20
-22.6341
 40
0.8602
 50
358.0627892
 51
19.48702453
  0
ARC
  8
LAYER_1
 10
435.8783
 20
-22.4931
 40
0.4329
 50
19.69341995
 51
49.96487887
  0
ARC
  8
LAYER_1
 10
435.8229
 20
-22.6176
 40
0.5652
 50
53.78595339
 51
94.42350984
  0
ARC
  8
LAYER_1
 10
435.7797
 20
-22.7476
 40
0.6935
 50
90.03695159
 51
129.87747
  0
ARC
  8
LAYER_1
 10
436.0377
 20
-23.0774
 40
1.1121
 50
129.1838779
 51
162.0625498
  0
LINE
  8
LAYER_1
 10
434.9797
 20
-22.7349
 11
434.9797
 21
-24.2397
  0
LINE
  8
LAYER_1
 10
434.9797
 20
-24.2397
 11
434.6689
 21
-24.2397
  0
LINE
  8
LAYER_1
 10
434.6689
 20
-24.2397
 11
434.6689
 21
-21.7854
  0
LINE
  8
LAYER_1
 10
434.6689
 20
-21.7854
 11
434.9797
 21
-21.7854
  0
LINE
  8
LAYER_1
 10
434.9797
 20
-21.7854
 11
434.9797
 21
-22.287
  0
ARC
  8
LAYER_1
 10
435.9003
 20
-22.8783
 40
1.0941
 50
128.1836958
 51
147.2859099
  0
ARC
  8
LAYER_1
 10
435.8725
 20
-22.7975
 40
1.0138
 50
94.72061871
 51
129.7725865
  0
ARC
  8
LAYER_1
 10
435.8453
 20
-22.7039
 40
0.9185
 50
89.95863166
 51
93.51281454
  0
ARC
  8
LAYER_1
 10
435.8652
 20
-22.6769
 40
0.8917
 50
53.91062343
 51
91.23682227
  0
ARC
  8
LAYER_1
 10
435.9166
 20
-22.5667
 40
0.7728
 50
51.18261751
 51
52.17312697
  0
ENDBLK
  0
BLOCK
  8
LAYER_1
  2
AIGNBL01020016
 70
64
 10
0
 20
0
 30
0
  3
AIGNBL01020016
  0
LINE
  8
LAYER_1
 10
438.7775
 20
-23.8097
 11
439.8437
 21
-20.7464
  0
LINE
  8
LAYER_1
 10
439.8437
 20
-20.7464
 11
440.2212
 21
-20.7464
  0
LINE
  8
LAYER_1
 10
440.2212
 20
-20.7464
 11
438.9554
 21
-24.2397
  0
LINE
  8
LAYER_1
 10
438.9554
 20
-24.2397
 11
438.6
 21
-24.2397
  0
LINE
  8
LAYER_1
 10
438.6
 20
-24.2397
 11
437.3342
 21
-20.7464
  0
LINE
  8
LAYER_1
 10
437.3342
 20
-20.7464
 11
437.7117
 21
-20.7464
  0
LINE
  8
LAYER_1
 10
437.7117
 20
-20.7464
 11
438.7775
 21
-23.8097
  0
ENDBLK
  0
BLOCK
  8
LAYER_1
  2
AIGNBL01020017
 70
64
 10
0
 20
0
 30
0
  3
AIGNBL01020017
  0
ARC
  8
LAYER_1
 10
442.1867
 20
-22.6882
 40
0.8773
 50
12.60535839
 51
49.78015098
  0
ARC
  8
LAYER_1
 10
441.0772
 20
-23.0114
 40
2.032
 50
358.7043305
 51
14.67021056
  0
LINE
  8
LAYER_1
 10
443.1086
 20
-23.0573
 11
441.2429
 21
-23.0573
  0
ARC
  8
LAYER_1
 10
442.4073
 20
-23.0545
 40
1.1644
 50
180.139925
 51
212.9375528
  0
ARC
  8
LAYER_1
 10
441.9181
 20
-23.3136
 40
0.6149
 50
217.4603672
 51
231.0501941
  0
ARC
  8
LAYER_1
 10
442.0353
 20
-23.1737
 40
0.7974
 50
230.8249409
 51
270.5110491
  0
ARC
  8
LAYER_1
 10
442.048
 20
-23.1694
 40
0.8016
 50
269.5985724
 51
309.0654377
  0
ARC
  8
LAYER_1
 10
442.1934
 20
-23.3514
 40
0.5687
 50
309.2491961
 51
349.8638721
  0
LINE
  8
LAYER_1
 10
442.7532
 20
-23.4515
 11
443.064
 21
-23.4515
  0
ARC
  8
LAYER_1
 10
442.2435
 20
-23.3593
 40
0.8257
 50
314.9077558
 51
353.5891389
  0
ARC
  8
LAYER_1
 10
442.2901
 20
-23.3842
 40
0.7753
 50
308.7397602
 51
313.7625305
  0
ARC
  8
LAYER_1
 10
442.0633
 20
-23.1046
 40
1.1353
 50
268.9430762
 51
308.8390436
  0
ARC
  8
LAYER_1
 10
442.0248
 20
-23.0127
 40
1.2272
 50
239.2938933
 51
270.8216948
  0
ARC
  8
LAYER_1
 10
441.9751
 20
-23.1404
 40
1.0922
 50
230.9770072
 51
238.1151405
  0
ARC
  8
LAYER_1
 10
441.887
 20
-23.2586
 40
0.9449
 50
194.4739004
 51
230.6139941
  0
ARC
  8
LAYER_1
 10
442.621
 20
-23.0365
 40
1.7114
 50
178.8974963
 51
195.5311997
  0
ARC
  8
LAYER_1
 10
442.3734
 20
-22.9687
 40
1.464
 50
152.2522295
 51
181.3642106
  0
ARC
  8
LAYER_1
 10
441.924
 20
-22.782
 40
0.9802
 50
128.8196472
 51
149.67893
  0
ARC
  8
LAYER_1
 10
441.9649
 20
-22.8464
 40
1.0561
 50
94.54669966
 51
128.3632401
  0
ARC
  8
LAYER_1
 10
442.0333
 20
-23.1925
 40
1.4071
 50
89.62882822
 51
96.20374131
  0
ARC
  8
LAYER_1
 10
442.0608
 20
-22.9473
 40
1.1621
 50
58.70061417
 51
90.90531606
  0
ARC
  8
LAYER_1
 10
442.1182
 20
-22.8063
 40
1.012
 50
51.13492566
 51
57.33000345
  0
ARC
  8
LAYER_1
 10
441.8821
 20
-22.7985
 40
0.8932
 50
0.632316343
 51
37.95011538
  0
ARC
  8
LAYER_1
 10
442.1848
 20
-22.6235
 40
0.549
 50
42.98287442
 51
50.89905263
  0
ARC
  8
LAYER_1
 10
442.0665
 20
-22.7847
 40
0.7489
 50
51.64880035
 51
91.8404337
  0
ARC
  8
LAYER_1
 10
442.0202
 20
-22.8559
 40
0.82
 50
88.45202663
 51
126.5776357
  0
ARC
  8
LAYER_1
 10
442.0252
 20
-22.8045
 40
0.7824
 50
129.1106692
 51
178.83415
  0
LINE
  8
LAYER_1
 10
441.2429
 20
-22.7886
 11
442.7753
 21
-22.7886
  0
ENDBLK
  0
BLOCK
  8
LAYER_1
  2
AIGNBL01020018
 70
64
 10
0
 20
0
 30
0
  3
AIGNBL01020018
  0
ARC
  8
LAYER_1
 10
445.092
 20
-22.6519
 40
0.8377
 50
1.677130822
 51
51.05752676
  0
LINE
  8
LAYER_1
 10
445.9293
 20
-22.6274
 11
445.596
 21
-22.6274
  0
ARC
  8
LAYER_1
 10
444.952
 20
-22.6452
 40
0.6443
 50
1.58055456
 51
45.70579646
  0
ARC
  8
LAYER_1
 10
445.1027
 20
-22.5415
 40
0.4662
 50
50.0789695
 51
50.95457144
  0
ARC
  8
LAYER_1
 10
444.9786
 20
-22.7144
 40
0.6787
 50
52.00926155
 51
92.23108404
  0
ARC
  8
LAYER_1
 10
444.947
 20
-22.8397
 40
0.8035
 50
89.62616826
 51
129.0168295
  0
ARC
  8
LAYER_1
 10
444.9532
 20
-22.8326
 40
0.802
 50
129.680504
 51
169.2395922
  0
ARC
  8
LAYER_1
 10
445.6381
 20
-23.0066
 40
1.508
 50
167.6045047
 51
180.5658615
  0
ARC
  8
LAYER_1
 10
445.3417
 20
-23.0664
 40
1.2124
 50
177.8771714
 51
209.7670297
  0
ARC
  8
LAYER_1
 10
444.8244
 20
-23.3077
 40
0.6453
 50
213.9768855
 51
231.0731946
  0
ARC
  8
LAYER_1
 10
444.9151
 20
-23.2127
 40
0.7763
 50
230.2735397
 51
269.4517866
  0
ARC
  8
LAYER_1
 10
444.9279
 20
-23.3538
 40
0.6354
 50
268.1802574
 51
306.6648982
  0
ARC
  8
LAYER_1
 10
444.8768
 20
-23.3437
 40
0.6749
 50
309.6324237
 51
331.4085902
  0
ARC
  8
LAYER_1
 10
444.4423
 20
-23.1195
 40
1.1638
 50
331.95394
 51
352.4559225
  0
LINE
  8
LAYER_1
 10
445.596
 20
-23.2723
 11
445.9293
 21
-23.2723
  0
ARC
  8
LAYER_1
 10
444.7456
 20
-23.2032
 40
1.1857
 50
324.474546
 51
356.6583966
  0
ARC
  8
LAYER_1
 10
445.1207
 20
-23.4171
 40
0.7574
 50
308.8650125
 51
321.1503435
  0
ARC
  8
LAYER_1
 10
444.94
 20
-23.1997
 40
1.0401
 50
269.4368966
 51
309.1018168
  0
ARC
  8
LAYER_1
 10
444.9056
 20
-23.0201
 40
1.2199
 50
239.4731668
 51
271.135496
  0
ARC
  8
LAYER_1
 10
444.8117
 20
-23.2456
 40
0.9785
 50
231.0725901
 51
237.5015114
  0
ARC
  8
LAYER_1
 10
444.8343
 20
-23.2216
 40
1.0113
 50
196.2076981
 51
230.9284391
  0
ARC
  8
LAYER_1
 10
445.3847
 20
-23.0504
 40
1.5877
 50
178.9571715
 51
196.5979576
  0
ARC
  8
LAYER_1
 10
445.2608
 20
-22.9866
 40
1.464
 50
152.2522295
 51
181.3642106
  0
ARC
  8
LAYER_1
 10
444.8114
 20
-22.7999
 40
0.9802
 50
128.8196472
 51
149.67893
  0
ARC
  8
LAYER_1
 10
444.9158
 20
-22.9385
 40
1.1537
 50
88.19172
 51
128.5461335
  0
ARC
  8
LAYER_1
 10
444.973
 20
-22.8744
 40
1.0892
 50
57.48337982
 51
91.09649987
  0
ARC
  8
LAYER_1
 10
445.0414
 20
-22.7162
 40
0.9195
 50
51.1229112
 51
55.77503012
  0
ENDBLK
  0
BLOCK
  8
LAYER_1
  2
AIGNBL01020019
 70
64
 10
0
 20
0
 30
0
  3
AIGNBL01020019
  0
LINE
  8
LAYER_1
 10
446.9955
 20
-22.0541
 11
446.618
 21
-22.0541
  0
LINE
  8
LAYER_1
 10
446.618
 20
-22.0541
 11
446.618
 21
-21.7854
  0
LINE
  8
LAYER_1
 10
446.618
 20
-21.7854
 11
446.9955
 21
-21.7854
  0
LINE
  8
LAYER_1
 10
446.9955
 20
-21.7854
 11
446.9955
 21
-21.1047
  0
LINE
  8
LAYER_1
 10
446.9955
 20
-21.1047
 11
447.3064
 21
-21.1047
  0
LINE
  8
LAYER_1
 10
447.3064
 20
-21.1047
 11
447.3064
 21
-21.7854
  0
LINE
  8
LAYER_1
 10
447.3064
 20
-21.7854
 11
447.9505
 21
-21.7854
  0
LINE
  8
LAYER_1
 10
447.9505
 20
-21.7854
 11
447.9505
 21
-22.0541
  0
LINE
  8
LAYER_1
 10
447.9505
 20
-22.0541
 11
447.3064
 21
-22.0541
  0
LINE
  8
LAYER_1
 10
447.3064
 20
-22.0541
 11
447.3064
 21
-23.756
  0
ARC
  8
LAYER_1
 10
447.5015
 20
-23.7698
 40
0.1956
 50
175.9633327
 51
228.9327347
  0
ARC
  8
LAYER_1
 10
447.562
 20
-23.6222
 40
0.3504
 50
237.3514
 51
275.4152849
  0
ARC
  8
LAYER_1
 10
447.5234
 20
-21.9247
 40
2.0476
 50
272.0075937
 51
283.3168135
  0
LINE
  8
LAYER_1
 10
447.995
 20
-23.9172
 11
447.995
 21
-24.1859
  0
ARC
  8
LAYER_1
 10
447.5865
 20
-22.6744
 40
1.5657
 50
268.6807438
 51
285.1216927
  0
ARC
  8
LAYER_1
 10
447.5042
 20
-23.5405
 40
0.7007
 50
237.6083723
 51
273.7890716
  0
ARC
  8
LAYER_1
 10
447.3773
 20
-23.8407
 40
0.3831
 50
175.3615279
 51
229.5523501
  0
LINE
  8
LAYER_1
 10
446.9955
 20
-23.8097
 11
446.9955
 21
-22.0541
  0
ENDBLK
  0
BLOCK
  8
LAYER_1
  2
AIGNBL0102001A
 70
64
 10
0
 20
0
 30
0
  3
AIGNBL0102001A
  0
ARC
  8
LAYER_1
 10
449.8195
 20
-22.9712
 40
1.1858
 50
50.66048807
 51
90.17320777
  0
ARC
  8
LAYER_1
 10
449.964
 20
-22.796
 40
0.9587
 50
14.7613227
 51
50.70004692
  0
ARC
  8
LAYER_1
 10
449.3514
 20
-22.9778
 40
1.5975
 50
359.0734531
 51
15.46741135
  0
ARC
  8
LAYER_1
 10
449.4601
 20
-23.0417
 40
1.4891
 50
332.9296754
 51
1.46551095
  0
ARC
  8
LAYER_1
 10
450.0029
 20
-23.2682
 40
0.9038
 50
308.9611357
 51
330.0560601
  0
ARC
  8
LAYER_1
 10
449.8169
 20
-23.0467
 40
1.193
 50
269.9511589
 51
309.2151452
  0
ARC
  8
LAYER_1
 10
449.8121
 20
-23.0554
 40
1.1844
 50
230.6348894
 51
270.1844284
  0
ARC
  8
LAYER_1
 10
449.6614
 20
-23.2366
 40
0.9487
 50
194.5571008
 51
230.7288295
  0
ARC
  8
LAYER_1
 10
450.3437
 20
-23.0326
 40
1.6605
 50
179.000404
 51
195.4530529
  0
ARC
  8
LAYER_1
 10
450.1176
 20
-22.9676
 40
1.4346
 50
152.440143
 51
181.4386246
  0
ARC
  8
LAYER_1
 10
449.6342
 20
-22.7656
 40
0.9137
 50
128.8590762
 51
149.64206
  0
ARC
  8
LAYER_1
 10
449.8149
 20
-22.9777
 40
1.1923
 50
89.95302455
 51
129.2276577
  0
ARC
  8
LAYER_1
 10
449.7856
 20
-22.8071
 40
0.7484
 50
129.941227
 51
170.5112719
  0
ARC
  8
LAYER_1
 10
450.5379
 20
-22.9902
 40
1.5217
 50
168.3809413
 51
180.5052149
  0
ARC
  8
LAYER_1
 10
450.228
 20
-23.0485
 40
1.2125
 50
177.8795135
 51
209.7652959
  0
ARC
  8
LAYER_1
 10
449.7105
 20
-23.2899
 40
0.6452
 50
213.9717645
 51
231.0723404
  0
ARC
  8
LAYER_1
 10
449.8088
 20
-23.1737
 40
0.7974
 50
230.8249409
 51
270.5110491
  0
ARC
  8
LAYER_1
 10
449.8214
 20
-23.1691
 40
0.8019
 50
269.6052449
 51
309.0587652
  0
ARC
  8
LAYER_1
 10
449.8474
 20
-23.2215
 40
0.7449
 50
310.0444612
 51
350.8169273
  0
ARC
  8
LAYER_1
 10
449.0241
 20
-23.0196
 40
1.5914
 50
348.3690332
 51
0.5754868321
  0
ARC
  8
LAYER_1
 10
449.4539
 20
-22.9618
 40
1.1623
 50
357.9391698
 51
30.40125814
  0
ARC
  8
LAYER_1
 10
449.9119
 20
-22.7465
 40
0.6599
 50
34.40806127
 51
51.0552368
  0
ARC
  8
LAYER_1
 10
449.8216
 20
-22.8556
 40
0.8015
 50
50.93185275
 51
90.40413715
  0
ARC
  8
LAYER_1
 10
449.8107
 20
-22.857
 40
0.8029
 50
89.63079039
 51
129.0332197
  0
ENDBLK
  0
BLOCK
  8
LAYER_1
  2
AIGNBL0102001B
 70
64
 10
0
 20
0
 30
0
  3
AIGNBL0102001B
  0
ARC
  8
LAYER_1
 10
453.0278
 20
-23.1367
 40
1.0473
 50
91.95645751
 51
126.0369085
  0
ARC
  8
LAYER_1
 10
452.9738
 20
-23.0256
 40
0.926
 50
127.3779545
 51
128.8913016
  0
ARC
  8
LAYER_1
 10
453.2136
 20
-23.3072
 40
1.2957
 50
129.3286197
 51
159.9071987
  0
ARC
  8
LAYER_1
 10
453.548
 20
-23.4718
 40
1.6668
 50
158.5415452
 51
163.6865828
  0
LINE
  8
LAYER_1
 10
451.9483
 20
-23.0036
 11
451.9483
 21
-24.2397
  0
LINE
  8
LAYER_1
 10
451.9483
 20
-24.2397
 11
451.6374
 21
-24.2397
  0
LINE
  8
LAYER_1
 10
451.6374
 20
-24.2397
 11
451.6374
 21
-21.7854
  0
LINE
  8
LAYER_1
 10
451.6374
 20
-21.7854
 11
451.9483
 21
-21.7854
  0
LINE
  8
LAYER_1
 10
451.9483
 20
-21.7854
 11
451.9483
 21
-22.4303
  0
ARC
  8
LAYER_1
 10
452.8706
 20
-22.8758
 40
1.0242
 50
126.6565608
 51
154.2193804
  0
ARC
  8
LAYER_1
 10
453.0213
 20
-23.0216
 40
1.2317
 50
96.74246499
 51
128.2300082
  0
ARC
  8
LAYER_1
 10
453.1209
 20
-23.4381
 40
1.6578
 50
94.45845648
 51
98.47084945
  0
LINE
  8
LAYER_1
 10
452.992
 20
-21.7854
 11
452.992
 21
-22.09
  0
ENDBLK
  0
BLOCK
  8
LAYER_1
  2
AIGNBL0102001C
 70
64
 10
0
 20
0
 30
0
  3
AIGNBL0102001C
  0
ARC
  8
LAYER_1
 10
457.049
 20
-22.1097
 40
1.3727
 50
22.00928352
 51
51.65969012
  0
ARC
  8
LAYER_1
 10
457.0163
 20
-22.097
 40
1.3984
 50
3.959104602
 51
21.02496721
  0
LINE
  8
LAYER_1
 10
458.4114
 20
-22.0004
 11
458.056
 21
-22.0004
  0
ARC
  8
LAYER_1
 10
456.7669
 20
-22.2106
 40
1.3062
 50
9.261399988
 51
39.89698667
  0
ARC
  8
LAYER_1
 10
457.0327
 20
-22.0375
 40
0.9919
 50
42.07267282
 51
51.06594556
  0
ARC
  8
LAYER_1
 10
457.0479
 20
-22.0181
 40
0.9673
 50
51.04363883
 51
90.80293306
  0
ARC
  8
LAYER_1
 10
457.0342
 20
-22.0578
 40
1.0069
 50
89.996563
 51
129.7623857
  0
ARC
  8
LAYER_1
 10
457.1127
 20
-22.1654
 40
1.1398
 50
129.3376781
 51
161.8421636
  0
ARC
  8
LAYER_1
 10
457.9455
 20
-22.4593
 40
2.0228
 50
161.2831493
 51
181.7180446
  0
ARC
  8
LAYER_1
 10
458.0247
 20
-22.5745
 40
2.1018
 50
178.5111965
 51
202.8880035
  0
ARC
  8
LAYER_1
 10
456.9685
 20
-22.9671
 40
0.9773
 50
205.7650824
 51
230.4033087
  0
ARC
  8
LAYER_1
 10
456.9545
 20
-22.9521
 40
0.9802
 50
231.5974735
 51
266.9414492
  0
ARC
  8
LAYER_1
 10
457.0065
 20
-22.6545
 40
1.2806
 50
265.3256022
 51
270.2400934
  0
ARC
  8
LAYER_1
 10
457.033
 20
-22.8453
 40
1.09
 50
268.8929536
 51
302.4954904
  0
ARC
  8
LAYER_1
 10
457.102
 20
-23.0051
 40
0.9186
 50
304.2203888
 51
308.8772074
  0
ARC
  8
LAYER_1
 10
457.06
 20
-22.9804
 40
0.9643
 50
309.8958196
 51
345.795109
  0
ARC
  8
LAYER_1
 10
456.2327
 20
-22.7036
 40
1.8354
 50
343.7549687
 51
353.4159697
  0
LINE
  8
LAYER_1
 10
458.056
 20
-22.914
 11
458.4114
 21
-22.914
  0
ARC
  8
LAYER_1
 10
456.6459
 20
-22.7848
 40
1.7702
 50
329.5078978
 51
355.8140748
  0
ARC
  8
LAYER_1
 10
457.2653
 20
-23.0965
 40
1.0793
 50
309.0116689
 51
327.0809059
  0
ARC
  8
LAYER_1
 10
457.0749
 20
-22.8483
 40
1.392
 50
268.3271999
 51
308.6710366
  0
ARC
  8
LAYER_1
 10
457.018
 20
-22.6823
 40
1.5574
 50
242.6567896
 51
270.6013374
  0
ARC
  8
LAYER_1
 10
456.9868
 20
-22.796
 40
1.4424
 50
231.0159497
 51
241.6813926
  0
ARC
  8
LAYER_1
 10
456.8453
 20
-22.9861
 40
1.2056
 50
198.8302321
 51
230.5608761
  0
ARC
  8
LAYER_1
 10
457.5921
 20
-22.6866
 40
2.0096
 50
188.8838404
 51
200.0383134
  0
ARC
  8
LAYER_1
 10
458.7406
 20
-22.5061
 40
3.1722
 50
179.6025196
 51
188.9018879
  0
ARC
  8
LAYER_1
 10
457.6976
 20
-22.4531
 40
2.1294
 50
156.9925413
 51
180.8352744
  0
ARC
  8
LAYER_1
 10
457.1175
 20
-22.253
 40
1.5178
 50
128.7210216
 51
155.3846892
  0
ARC
  8
LAYER_1
 10
457.0834
 20
-22.1768
 40
1.4372
 50
100.5839788
 51
129.5577329
  0
ARC
  8
LAYER_1
 10
457.0336
 20
-22.0509
 40
1.3045
 50
89.97137602
 51
99.4529387
  0
ARC
  8
LAYER_1
 10
457.053
 20
-22.1712
 40
1.425
 50
61.295461
 51
90.75165687
  0
ARC
  8
LAYER_1
 10
457.1022
 20
-22.0247
 40
1.2731
 50
51.16628827
 51
60.06998139
  0
ENDBLK
  0
BLOCK
  8
LAYER_1
  2
AIGNBL0102001D
 70
64
 10
0
 20
0
 30
0
  3
AIGNBL0102001D
  0
ARC
  8
LAYER_1
 10
460.2361
 20
-22.9714
 40
1.186
 50
50.66407849
 51
90.1744078
  0
ARC
  8
LAYER_1
 10
460.3802
 20
-22.7962
 40
0.9592
 50
14.76823995
 51
50.68858398
  0
ARC
  8
LAYER_1
 10
459.7686
 20
-22.9778
 40
1.597
 50
359.0745588
 51
15.47326638
  0
ARC
  8
LAYER_1
 10
459.8769
 20
-23.0416
 40
1.489
 50
332.9248548
 51
1.463570552
  0
ARC
  8
LAYER_1
 10
460.4192
 20
-23.268
 40
0.9042
 50
308.9730079
 51
330.0558863
  0
ARC
  8
LAYER_1
 10
460.2335
 20
-23.0462
 40
1.1935
 50
269.9536806
 51
309.2078331
  0
ARC
  8
LAYER_1
 10
460.2287
 20
-23.0554
 40
1.1844
 50
230.6348894
 51
270.1844284
  0
ARC
  8
LAYER_1
 10
460.0783
 20
-23.2366
 40
0.9488
 50
194.5538734
 51
230.7167103
  0
ARC
  8
LAYER_1
 10
460.7606
 20
-23.0326
 40
1.6608
 50
179.000954
 51
195.4509897
  0
ARC
  8
LAYER_1
 10
460.5346
 20
-22.9676
 40
1.4349
 50
152.4453306
 51
181.4378286
  0
ARC
  8
LAYER_1
 10
460.051
 20
-22.7656
 40
0.9138
 50
128.8710069
 51
149.6490253
  0
ARC
  8
LAYER_1
 10
460.2315
 20
-22.9777
 40
1.1923
 50
89.95302455
 51
129.2276577
  0
ARC
  8
LAYER_1
 10
460.2024
 20
-22.8071
 40
0.7485
 50
129.9572066
 51
170.513785
  0
ARC
  8
LAYER_1
 10
460.9549
 20
-22.9902
 40
1.5219
 50
168.3825372
 51
180.5048727
  0
ARC
  8
LAYER_1
 10
460.645
 20
-23.0484
 40
1.2128
 50
177.8808615
 51
209.7571183
  0
ARC
  8
LAYER_1
 10
460.1272
 20
-23.29
 40
0.6452
 50
213.9608257
 51
231.0572481
  0
ARC
  8
LAYER_1
 10
460.2254
 20
-23.1735
 40
0.7975
 50
230.8292577
 51
270.5067322
  0
ARC
  8
LAYER_1
 10
460.2381
 20
-23.169
 40
0.802
 50
269.6014655
 51
309.0555381
  0
ARC
  8
LAYER_1
 10
460.2637
 20
-23.2213
 40
0.7453
 50
310.0589858
 51
350.8067204
  0
ARC
  8
LAYER_1
 10
459.4416
 20
-23.0196
 40
1.5906
 50
348.3621131
 51
0.5748288015
  0
ARC
  8
LAYER_1
 10
459.8706
 20
-22.9619
 40
1.1623
 50
357.9424682
 51
30.405245
  0
ARC
  8
LAYER_1
 10
460.3283
 20
-22.7467
 40
0.6602
 50
34.40440476
 51
51.04012059
  0
ARC
  8
LAYER_1
 10
460.2382
 20
-22.8556
 40
0.8015
 50
50.93274761
 51
90.41024883
  0
ARC
  8
LAYER_1
 10
460.2274
 20
-22.8571
 40
0.803
 50
89.63522685
 51
129.0287832
  0
ENDBLK
  0
BLOCK
  8
LAYER_1
  2
AIGNBL0102001E
 70
64
 10
0
 20
0
 30
0
  3
AIGNBL0102001E
  0
ARC
  8
LAYER_1
 10
463.4443
 20
-23.1363
 40
1.047
 50
91.95051192
 51
126.0421698
  0
ARC
  8
LAYER_1
 10
463.3899
 20
-23.0244
 40
0.9247
 50
127.3934354
 51
128.9084137
  0
ARC
  8
LAYER_1
 10
463.6319
 20
-23.3088
 40
1.298
 50
129.3388101
 51
160.172392
  0
ARC
  8
LAYER_1
 10
463.9725
 20
-23.4751
 40
1.6753
 50
158.7720401
 51
163.6528483
  0
LINE
  8
LAYER_1
 10
462.3649
 20
-23.0036
 11
462.3649
 21
-24.2397
  0
LINE
  8
LAYER_1
 10
462.3649
 20
-24.2397
 11
462.0541
 21
-24.2397
  0
LINE
  8
LAYER_1
 10
462.0541
 20
-24.2397
 11
462.0541
 21
-21.7854
  0
LINE
  8
LAYER_1
 10
462.0541
 20
-21.7854
 11
462.3649
 21
-21.7854
  0
LINE
  8
LAYER_1
 10
462.3649
 20
-21.7854
 11
462.3649
 21
-22.4303
  0
ARC
  8
LAYER_1
 10
463.2883
 20
-22.8769
 40
1.0257
 50
126.6660176
 51
154.191822
  0
ARC
  8
LAYER_1
 10
463.4377
 20
-23.021
 40
1.231
 50
96.7347369
 51
128.2380372
  0
ARC
  8
LAYER_1
 10
463.5376
 20
-23.4386
 40
1.6582
 50
94.45866182
 51
98.47013404
  0
LINE
  8
LAYER_1
 10
463.4087
 20
-21.7854
 11
463.4087
 21
-22.09
  0
ENDBLK
  0
BLOCK
  8
LAYER_1
  2
AIGNBL0102001F
 70
64
 10
0
 20
0
 30
0
  3
AIGNBL0102001F
  0
LINE
  8
LAYER_1
 10
464.4082
 20
-24.9025
 11
464.0974
 21
-24.9025
  0
LINE
  8
LAYER_1
 10
464.0974
 20
-24.9025
 11
464.0974
 21
-21.7854
  0
LINE
  8
LAYER_1
 10
464.0974
 20
-21.7854
 11
464.4082
 21
-21.7854
  0
LINE
  8
LAYER_1
 10
464.4082
 20
-21.7854
 11
464.4082
 21
-22.2512
  0
ARC
  8
LAYER_1
 10
465.3275
 20
-22.8413
 40
1.0924
 50
128.1682586
 51
147.3013471
  0
ARC
  8
LAYER_1
 10
465.2054
 20
-22.6596
 40
0.8742
 50
89.84713268
 51
129.236819
  0
ARC
  8
LAYER_1
 10
465.2248
 20
-22.7497
 40
0.9645
 50
55.40604137
 51
91.0140482
  0
ARC
  8
LAYER_1
 10
465.2668
 20
-22.6527
 40
0.861
 50
51.11842627
 51
54.045517
  0
ARC
  8
LAYER_1
 10
465.1698
 20
-22.7682
 40
1.0118
 50
16.22539222
 51
50.9453717
  0
ARC
  8
LAYER_1
 10
464.6218
 20
-22.9391
 40
1.5858
 50
358.9631509
 51
16.62197133
  0
ARC
  8
LAYER_1
 10
464.5176
 20
-23.012
 40
1.6903
 50
334.4952782
 51
1.496786031
  0
ARC
  8
LAYER_1
 10
465.2106
 20
-23.2906
 40
0.946
 50
309.1087364
 51
331.6557623
  0
ARC
  8
LAYER_1
 10
465.1992
 20
-23.2725
 40
0.9673
 50
269.1970669
 51
308.9563612
  0
ARC
  8
LAYER_1
 10
465.1865
 20
-23.3565
 40
0.8832
 50
230.9724547
 51
269.9435936
  0
ARC
  8
LAYER_1
 10
465.0884
 20
-23.4378
 40
0.7587
 50
206.2948612
 51
232.85753
  0
LINE
  8
LAYER_1
 10
464.4082
 20
-23.7739
 11
464.4082
 21
-24.9025
  0
ARC
  8
LAYER_1
 10
465.1794
 20
-23.3366
 40
0.6371
 50
309.5633366
 51
332.3165664
  0
ARC
  8
LAYER_1
 10
464.8556
 20
-23.172
 40
1.0003
 50
332.5874375
 51
348.2770634
  0
ARC
  8
LAYER_1
 10
463.9877
 20
-22.993
 40
1.8865
 50
348.308443
 51
0.7642331344
  0
ARC
  8
LAYER_1
 10
464.3806
 20
-22.9351
 40
1.4937
 50
358.7453536
 51
14.80159161
  0
ARC
  8
LAYER_1
 10
465.1371
 20
-22.7291
 40
0.7098
 50
14.32230116
 51
48.50946212
  0
ARC
  8
LAYER_1
 10
465.1988
 20
-22.7073
 40
0.6533
 50
51.30164547
 51
91.16128832
  0
ARC
  8
LAYER_1
 10
465.1782
 20
-22.7882
 40
0.7341
 50
89.4213325
 51
128.7184087
  0
ARC
  8
LAYER_1
 10
465.2285
 20
-22.8341
 40
0.8015
 50
129.4672988
 51
169.0444422
  0
ARC
  8
LAYER_1
 10
465.849
 20
-22.9904
 40
1.4408
 50
167.6325628
 51
180.5241893
  0
ARC
  8
LAYER_1
 10
465.6165
 20
-23.0419
 40
1.2089
 50
178.1861176
 51
209.90735
  0
ARC
  8
LAYER_1
 10
465.1748
 20
-23.2432
 40
0.7271
 50
213.5089469
 51
231.1761067
  0
ARC
  8
LAYER_1
 10
465.1674
 20
-23.2671
 40
0.7039
 50
230.4282119
 51
269.6573665
  0
ARC
  8
LAYER_1
 10
465.1731
 20
-23.3071
 40
0.664
 50
269.1481116
 51
308.364136
  0
ENDBLK
  0
BLOCK
  8
LAYER_1
  2
AIGNBL01020020
 70
64
 10
0
 20
0
 30
0
  3
AIGNBL01020020
  0
LINE
  8
LAYER_1
 10
467.3398
 20
-23.8635
 11
467.3398
 21
-24.2397
  0
LINE
  8
LAYER_1
 10
467.3398
 20
-24.2397
 11
466.8956
 21
-24.2397
  0
LINE
  8
LAYER_1
 10
466.8956
 20
-24.2397
 11
466.8956
 21
-23.8635
  0
LINE
  8
LAYER_1
 10
466.8956
 20
-23.8635
 11
467.3398
 21
-23.8635
  0
ENDBLK
  0
BLOCK
  8
LAYER_1
  2
AIGNBL01010002
 70
64
 10
0
 20
0
 30
0
  3
AIGNBL01010002
  0
LINE
  8
LAYER_1
 10
339.2192
 20
-16.6014
 11
469.2192
 21
-16.6014
  0
LINE
  8
LAYER_1
 10
339.2192
 20
-26.6014
 11
469.2192
 21
-26.6014
  0
LINE
  8
LAYER_1
 10
339.2192
 20
-66.6014
 11
339.2192
 21
-16.6014
  0
LINE
  8
LAYER_1
 10
359.2192
 20
-66.6014
 11
359.2192
 21
-26.6014
  0
LINE
  8
LAYER_1
 10
424.2192
 20
-66.6014
 11
424.2192
 21
-26.6014
  0
LINE
  8
LAYER_1
 10
404.2192
 20
-66.6014
 11
404.2192
 21
-26.6014
  0
LINE
  8
LAYER_1
 10
339.2192
 20
-36.6014
 11
469.2192
 21
-36.6014
  0
LINE
  8
LAYER_1
 10
339.2192
 20
-46.6014
 11
469.2192
 21
-46.6014
  0
LINE
  8
LAYER_1
 10
339.2192
 20
-56.6014
 11
469.2192
 21
-56.6014
  0
LINE
  8
LAYER_1
 10
469.2192
 20
-66.6014
 11
192.2192
 21
-66.6014
  0
LINE
  8
LAYER_1
 10
192.2192
 20
-66.6014
 11
192.2192
 21
123.3986
  0
LINE
  8
LAYER_1
 10
192.2192
 20
123.3986
 11
469.2192
 21
123.3986
  0
LINE
  8
LAYER_1
 10
469.2192
 20
123.3986
 11
469.2192
 21
-66.6014
  0
ENDBLK
  0
BLOCK
  8
LAYER_1
  2
AIGNBL01010003
 70
64
 10
0
 20
0
 30
0
  3
AIGNBL01010003
  0
INSERT
  8
LAYER_1
  2
AIGNBL01020004
 10
0
 20
0
 30
0
  0
INSERT
  8
LAYER_1
  2
AIGNBL01020005
 10
0
 20
0
 30
0
  0
LINE
  8
LAYER_1
 10
364.1738
 20
-18.593
 11
364.1738
 21
-19.3256
  0
LINE
  8
LAYER_1
 10
364.1738
 20
-19.3256
 11
366.1251
 21
-19.3256
  0
LINE
  8
LAYER_1
 10
366.1251
 20
-19.3256
 11
366.1251
 21
-19.6099
  0
LINE
  8
LAYER_1
 10
366.1251
 20
-19.6099
 11
363.692
 21
-19.6099
  0
LINE
  8
LAYER_1
 10
363.692
 20
-19.6099
 11
363.692
 21
-21.1532
  0
LINE
  8
LAYER_1
 10
363.692
 20
-21.1532
 11
364.519
 21
-21.1532
  0
LINE
  8
LAYER_1
 10
364.519
 20
-21.1532
 11
364.519
 21
-20.3293
  0
LINE
  8
LAYER_1
 10
364.519
 20
-20.3293
 11
366.1213
 21
-20.3293
  0
LINE
  8
LAYER_1
 10
366.1213
 20
-20.3293
 11
366.1213
 21
-21.951
  0
LINE
  8
LAYER_1
 10
366.1213
 20
-21.951
 11
367.0387
 21
-21.951
  0
LINE
  8
LAYER_1
 10
367.0387
 20
-21.951
 11
367.0387
 21
-20.3293
  0
LINE
  8
LAYER_1
 10
367.0387
 20
-20.3293
 11
368.654
 21
-20.3293
  0
LINE
  8
LAYER_1
 10
368.654
 20
-20.3293
 11
368.654
 21
-21.1532
  0
LINE
  8
LAYER_1
 10
368.654
 20
-21.1532
 11
369.5196
 21
-21.1532
  0
LINE
  8
LAYER_1
 10
369.5196
 20
-21.1532
 11
369.5196
 21
-19.6099
  0
LINE
  8
LAYER_1
 10
369.5196
 20
-19.6099
 11
367.0425
 21
-19.6099
  0
LINE
  8
LAYER_1
 10
367.0425
 20
-19.6099
 11
367.0425
 21
-19.3256
  0
LINE
  8
LAYER_1
 10
367.0425
 20
-19.3256
 11
369.0001
 21
-19.3256
  0
LINE
  8
LAYER_1
 10
369.0001
 20
-19.3256
 11
369.0001
 21
-18.593
  0
LINE
  8
LAYER_1
 10
369.0001
 20
-18.593
 11
364.1738
 21
-18.593
  0
LINE
  8
LAYER_1
 10
364.6708
 20
-21.0494
 11
365.8505
 21
-21.0494
  0
LINE
  8
LAYER_1
 10
365.8505
 20
-21.0494
 11
365.8505
 21
-20.5839
  0
LINE
  8
LAYER_1
 10
365.8505
 20
-20.5839
 11
364.6708
 21
-20.5839
  0
LINE
  8
LAYER_1
 10
364.6708
 20
-20.5839
 11
364.6708
 21
-21.0494
  0
LINE
  8
LAYER_1
 10
364.5286
 20
-21.7545
 11
365.8504
 21
-21.7545
  0
LINE
  8
LAYER_1
 10
365.8504
 20
-21.7545
 11
365.8504
 21
-21.2892
  0
LINE
  8
LAYER_1
 10
365.8504
 20
-21.2892
 11
364.5286
 21
-21.2892
  0
LINE
  8
LAYER_1
 10
364.5286
 20
-21.2892
 11
364.5286
 21
-21.7545
  0
LINE
  8
LAYER_1
 10
367.3094
 20
-21.0494
 11
368.4891
 21
-21.0494
  0
LINE
  8
LAYER_1
 10
368.4891
 20
-21.0494
 11
368.4891
 21
-20.5839
  0
LINE
  8
LAYER_1
 10
368.4891
 20
-20.5839
 11
367.3094
 21
-20.5839
  0
LINE
  8
LAYER_1
 10
367.3094
 20
-20.5839
 11
367.3094
 21
-21.0494
  0
LINE
  8
LAYER_1
 10
367.3094
 20
-21.7545
 11
368.6377
 21
-21.7545
  0
LINE
  8
LAYER_1
 10
368.6377
 20
-21.7545
 11
368.6377
 21
-21.2892
  0
LINE
  8
LAYER_1
 10
368.6377
 20
-21.2892
 11
367.3094
 21
-21.2892
  0
LINE
  8
LAYER_1
 10
367.3094
 20
-21.2892
 11
367.3094
 21
-21.7545
  0
INSERT
  8
LAYER_1
  2
AIGNBL01020006
 10
0
 20
0
 30
0
  0
INSERT
  8
LAYER_1
  2
AIGNBL01020007
 10
0
 20
0
 30
0
  0
INSERT
  8
LAYER_1
  2
AIGNBL01020008
 10
0
 20
0
 30
0
  0
LINE
  8
LAYER_1
 10
341.8364
 20
-18.5614
 11
343.3768
 21
-18.5614
  0
LINE
  8
LAYER_1
 10
343.3768
 20
-18.5614
 11
345.4843
 21
-23.0789
  0
LINE
  8
LAYER_1
 10
345.4843
 20
-23.0789
 11
345.4843
 21
-22.3097
  0
LINE
  8
LAYER_1
 10
345.4843
 20
-22.3097
 11
347.0269
 21
-22.3097
  0
LINE
  8
LAYER_1
 10
347.0269
 20
-22.3097
 11
347.0269
 21
-24.6193
  0
LINE
  8
LAYER_1
 10
347.0269
 20
-24.6193
 11
344.7191
 21
-24.6193
  0
LINE
  8
LAYER_1
 10
344.7191
 20
-24.6193
 11
343.3729
 21
-21.7969
  0
LINE
  8
LAYER_1
 10
343.3729
 20
-21.7969
 11
343.3729
 21
-24.6193
  0
LINE
  8
LAYER_1
 10
343.3729
 20
-24.6193
 11
341.8364
 21
-24.6193
  0
LINE
  8
LAYER_1
 10
341.8364
 20
-24.6193
 11
341.8364
 21
-18.5614
  0
INSERT
  8
LAYER_1
  2
AIGNBL01020009
 10
0
 20
0
 30
0
  0
ARC
  8
LAYER_1
 10
395.565
 20
-22.2422
 40
1.991
 50
311.8582543
 51
336.6691081
  0
ARC
  8
LAYER_1
 10
395.1562
 20
-22.0387
 40
2.4471
 50
336.0851003
 51
355.051428
  0
LINE
  8
LAYER_1
 10
397.5942
 20
-22.2498
 11
397.5942
 21
-19.0493
  0
LINE
  8
LAYER_1
 10
397.5942
 20
-19.0493
 11
396.408
 21
-19.0493
  0
LINE
  8
LAYER_1
 10
396.408
 20
-19.0493
 11
396.408
 21
-21.9151
  0
ARC
  8
LAYER_1
 10
394.89
 20
-21.874
 40
1.5185
 50
331.8956217
 51
358.4504934
  0
ARC
  8
LAYER_1
 10
395.6789
 20
-22.2196
 40
0.6633
 50
317.1782762
 51
326.1116703
  0
ARC
  8
LAYER_1
 10
394.7329
 20
-21.265
 40
2.0068
 50
296.3435913
 51
315.5475613
  0
LINE
  8
LAYER_1
 10
395.6234
 20
-23.0634
 11
395.6234
 21
-24.2581
  0
ARC
  8
LAYER_1
 10
395.6737
 20
-23.1227
 40
1.1365
 50
267.4610933
 51
280.8274917
  0
ARC
  8
LAYER_1
 10
395.5499
 20
-22.3867
 40
1.8828
 50
280.3224193
 51
303.5060525
  0
ARC
  8
LAYER_1
 10
395.2636
 20
-21.8976
 40
2.4488
 50
302.7749121
 51
311.7314667
  0
ARC
  8
LAYER_1
 10
383.8004
 20
-21.2369
 40
1.9121
 50
200.4586691
 51
212.6743406
  0
ARC
  8
LAYER_1
 10
360.7721
 20
-29.6321
 40
22.5988
 50
19.99339328
 51
22.95988574
  0
ARC
  8
LAYER_1
 10
378.5757
 20
-22.195
 40
3.306
 50
24.64219126
 51
41.47959493
  0
ARC
  8
LAYER_1
 10
379.6496
 20
-21.3145
 40
1.9189
 50
43.02136381
 51
66.4525374
  0
ARC
  8
LAYER_1
 10
379.6874
 20
-21.2722
 40
1.8651
 50
66.99773131
 51
74.27463074
  0
ARC
  8
LAYER_1
 10
379.337
 20
-22.5663
 40
3.2057
 50
74.51389392
 51
94.05361784
  0
ARC
  8
LAYER_1
 10
379.3782
 20
-23.458
 40
4.0982
 50
93.74752603
 51
109.4964459
  0
ARC
  8
LAYER_1
 10
379.2577
 20
-23.2494
 40
3.8616
 50
108.8443826
 51
117.7785401
  0
ARC
  8
LAYER_1
 10
368.4297
 20
-19.7136
 40
9.0291
 50
353.3550611
 51
359.2434011
  0
ARC
  8
LAYER_1
 10
374.5409
 20
-20.4782
 40
2.871
 50
340.8460147
 51
354.3997743
  0
ARC
  8
LAYER_1
 10
375.9267
 20
-20.8638
 40
1.4382
 50
308.1960555
 51
337.240372
  0
ARC
  8
LAYER_1
 10
376.1282
 20
-21.1609
 40
1.0804
 50
298.9411123
 51
309.5405453
  0
LINE
  8
LAYER_1
 10
376.651
 20
-22.1064
 11
376.651
 21
-23.3788
  0
ARC
  8
LAYER_1
 10
376.0752
 20
-20.8091
 40
2.6334
 50
282.629217
 51
311.7889792
  0
ARC
  8
LAYER_1
 10
376.6903
 20
-21.591
 40
1.6417
 50
313.9680024
 51
325.0993696
  0
ARC
  8
LAYER_1
 10
376.0172
 20
-21.1667
 40
2.4368
 50
325.9722368
 51
337.2435268
  0
ARC
  8
LAYER_1
 10
374.3874
 20
-20.4759
 40
4.207
 50
337.1535495
 51
344.91421
  0
ARC
  8
LAYER_1
 10
372.4917
 20
-19.9463
 40
6.1753
 50
344.7481064
 51
353.2474184
  0
ARC
  8
LAYER_1
 10
379.4182
 20
-22.45
 40
1.947
 50
90.61781687
 51
114.0708883
  0
ARC
  8
LAYER_1
 10
379.3924
 20
-21.5938
 40
1.0907
 50
61.474306
 51
89.74539799
  0
ARC
  8
LAYER_1
 10
379.5398
 20
-21.2581
 40
0.7259
 50
38.2714468
 51
59.04055946
  0
ARC
  8
LAYER_1
 10
378.8898
 20
-21.7619
 40
1.5482
 50
25.3011504
 51
38.01183044
  0
ARC
  8
LAYER_1
 10
373.9447
 20
-24.0904
 40
7.0141
 50
19.69622915
 51
25.23323144
  0
ARC
  8
LAYER_1
 10
386.8883
 20
-19.5396
 40
6.7064
 50
199.0304142
 51
214.1619839
  0
ARC
  8
LAYER_1
 10
385.1305
 20
-20.5955
 40
4.6604
 50
215.5556146
 51
216.3864829
  0
ARC
  8
LAYER_1
 10
383.6277
 20
-21.6697
 40
2.8135
 50
216.9324038
 51
237.9526107
  0
ARC
  8
LAYER_1
 10
383.2023
 20
-22.3143
 40
2.0414
 50
238.4737585
 51
260.7134162
  0
ARC
  8
LAYER_1
 10
383.0009
 20
-23.1943
 40
1.1418
 50
263.5627283
 51
265.8887812
  0
LINE
  8
LAYER_1
 10
382.919
 20
-24.3332
 11
382.919
 21
-22.9742
  0
ARC
  8
LAYER_1
 10
383.2856
 20
-22.147
 40
0.9048
 50
229.9708589
 51
246.0997112
  0
ARC
  8
LAYER_1
 10
384.3591
 20
-20.8366
 40
2.5987
 50
213.4542661
 51
230.4296508
  0
LINE
  8
LAYER_1
 10
382.0323
 20
-19.8796
 11
381.4167
 21
-19.8796
  0
LINE
  8
LAYER_1
 10
381.4167
 20
-19.8796
 11
381.2577
 21
-18.8814
  0
LINE
  8
LAYER_1
 10
381.2577
 20
-18.8814
 11
381.874
 21
-18.8814
  0
LINE
  8
LAYER_1
 10
381.874
 20
-18.8814
 11
382.0323
 21
-19.8796
  0
LINE
  8
LAYER_1
 10
382.961
 20
-19.8796
 11
382.3451
 21
-19.8796
  0
LINE
  8
LAYER_1
 10
382.3451
 20
-19.8796
 11
382.1864
 21
-18.8814
  0
LINE
  8
LAYER_1
 10
382.1864
 20
-18.8814
 11
382.8028
 21
-18.8814
  0
LINE
  8
LAYER_1
 10
382.8028
 20
-18.8814
 11
382.961
 21
-19.8796
  0
ARC
  8
LAYER_1
 10
383.2874
 20
-19.5626
 40
1.2598
 50
294.8462392
 51
325.7593989
  0
ARC
  8
LAYER_1
 10
383.529
 20
-20.0818
 40
0.6873
 50
280.6862667
 51
294.7597554
  0
LINE
  8
LAYER_1
 10
383.6564
 20
-20.7571
 11
383.6564
 21
-22.0072
  0
ARC
  8
LAYER_1
 10
383.3302
 20
-19.5708
 40
2.4581
 50
277.6254386
 51
308.0006082
  0
ARC
  8
LAYER_1
 10
383.7283
 20
-20.2052
 40
1.7148
 50
310.5709449
 51
312.1651282
  0
ARC
  8
LAYER_1
 10
383.2548
 20
-19.7505
 40
2.3702
 50
313.2688841
 51
336.1288754
  0
ARC
  8
LAYER_1
 10
382.4912
 20
-19.2963
 40
3.254
 50
334.2571503
 51
342.7179381
  0
LINE
  8
LAYER_1
 10
385.5983
 20
-20.263
 11
388.0254
 21
-20.263
  0
ARC
  8
LAYER_1
 10
383.9605
 20
-20.476
 40
4.0705
 50
346.9025011
 51
2.999941785
  0
ARC
  8
LAYER_1
 10
385.2653
 20
-20.7848
 40
2.7296
 50
327.7013818
 51
347.0097259
  0
ARC
  8
LAYER_1
 10
386.0602
 20
-21.2401
 40
1.8149
 50
312.9843281
 51
326.4412197
  0
ARC
  8
LAYER_1
 10
386.1042
 20
-21.2473
 40
1.7799
 50
298.6772297
 51
312.1042011
  0
ARC
  8
LAYER_1
 10
385.6612
 20
-20.4337
 40
2.7063
 50
288.7192833
 51
298.64049
  0
ARC
  8
LAYER_1
 10
385.0087
 20
-18.4569
 40
4.7879
 50
273.6020975
 51
288.52267
  0
ARC
  8
LAYER_1
 10
384.7034
 20
-16.1994
 40
7.062
 50
268.3271717
 51
274.9240462
  0
LINE
  8
LAYER_1
 10
384.4972
 20
-23.2584
 11
384.4972
 21
-24.3879
  0
ARC
  8
LAYER_1
 10
384.9083
 20
-16.1363
 40
8.2618
 50
267.1475499
 51
278.4142478
  0
ARC
  8
LAYER_1
 10
385.3299
 20
-18.8538
 40
5.5119
 50
278.2131806
 51
291.6024907
  0
ARC
  8
LAYER_1
 10
386.2539
 20
-21.293
 40
2.9041
 50
292.3703177
 51
310.8518436
  0
ARC
  8
LAYER_1
 10
386.8402
 20
-22.0381
 40
1.9575
 50
312.1363704
 51
321.4360617
  0
ARC
  8
LAYER_1
 10
386.2915
 20
-21.2741
 40
2.8742
 50
316.3403134
 51
335.9447601
  0
ARC
  8
LAYER_1
 10
384.9154
 20
-20.6215
 40
4.3969
 50
335.488256
 51
350.554217
  0
ARC
  8
LAYER_1
 10
382.2578
 20
-20.0996
 40
7.1046
 50
349.9195385
 51
2.135290941
  0
ARC
  8
LAYER_1
 10
382.2559
 20
-20.0083
 40
7.1036
 50
1.398744845
 51
7.163066818
  0
LINE
  8
LAYER_1
 10
389.3041
 20
-19.1225
 11
384.6179
 21
-19.1225
  0
ARC
  8
LAYER_1
 10
379.5034
 20
-18.5735
 40
5.1439
 50
346.1210031
 51
353.873627
  0
ARC
  8
LAYER_1
 10
382.4839
 20
-19.3403
 40
2.0667
 50
333.2191461
 51
346.9369516
  0
ARC
  8
LAYER_1
 10
377.313
 20
-106.144
 40
86.7721
 50
78.78700631
 51
80.56640675
  0
LINE
  8
LAYER_1
 10
391.5353
 20
-20.5454
 11
391.5353
 21
-18.9096
  0
LINE
  8
LAYER_1
 10
391.5353
 20
-18.9096
 11
390.238
 21
-18.9096
  0
LINE
  8
LAYER_1
 10
390.238
 20
-18.9096
 11
390.238
 21
-24.3878
  0
LINE
  8
LAYER_1
 10
390.238
 20
-24.3878
 11
391.5353
 21
-24.3878
  0
LINE
  8
LAYER_1
 10
391.5353
 20
-24.3878
 11
391.5353
 21
-21.7936
  0
ARC
  8
LAYER_1
 10
391.7544
 20
-24.3619
 40
2.5777
 50
85.26912846
 51
94.87697352
  0
ARC
  8
LAYER_1
 10
391.4896
 20
-28.0073
 40
6.2326
 50
76.32160786
 51
85.60637667
  0
ARC
  8
LAYER_1
 10
382.6287
 20
-65.0935
 40
44.3625
 50
73.58294073
 51
76.52865465
  0
LINE
  8
LAYER_1
 10
395.1668
 20
-22.5396
 11
395.1668
 21
-21.2884
  0
ARC
  8
LAYER_1
 10
391.9543
 20
-31.4196
 40
10.6283
 50
72.40665783
 51
77.87678181
  0
ARC
  8
LAYER_1
 10
398.831
 20
-20.9171
 40
3.2368
 50
288.2682375
 51
307.5749128
  0
ARC
  8
LAYER_1
 10
398.3475
 20
-19.5973
 40
4.6418
 50
274.0145895
 51
288.8290898
  0
ARC
  8
LAYER_1
 10
398.3475
 20
-20.3924
 40
3.8491
 50
268.360011
 51
274.8439918
  0
LINE
  8
LAYER_1
 10
398.2373
 20
-24.2399
 11
398.2373
 21
-18.8434
  0
LINE
  8
LAYER_1
 10
398.2373
 20
-18.8434
 11
399.526
 21
-18.8434
  0
LINE
  8
LAYER_1
 10
399.526
 20
-18.8434
 11
399.526
 21
-22.8383
  0
ARC
  8
LAYER_1
 10
399.4378
 20
-22.1335
 40
0.7103
 50
277.1314049
 51
295.958207
  0
ARC
  8
LAYER_1
 10
399.2208
 20
-21.686
 40
1.2076
 50
295.9193969
 51
325.4807177
  0
ARC
  8
LAYER_1
 10
398.8556
 20
-21.3577
 40
1.6958
 50
323.3344126
 51
327.8455613
  0
ARC
  8
LAYER_1
 10
399.0925
 20
-21.5329
 40
1.4022
 50
328.753104
 51
343.5635435
  0
ARC
  8
LAYER_1
 10
397.8799
 20
-21.1696
 40
2.6681
 50
343.4495362
 51
352.9514753
  0
ARC
  8
LAYER_1
 10
395.812
 20
-20.9074
 40
4.7525
 50
352.8742823
 51
4.069265984
  0
LINE
  8
LAYER_1
 10
400.5525
 20
-20.5702
 11
401.738
 21
-20.5702
  0
ARC
  8
LAYER_1
 10
395.9928
 20
-20.8034
 40
5.75
 50
348.7691617
 51
2.324459127
  0
ARC
  8
LAYER_1
 10
398.089
 20
-21.2257
 40
3.6116
 50
332.2799632
 51
348.8629354
  0
ARC
  8
LAYER_1
 10
399.5668
 20
-21.96
 40
1.9623
 50
309.1184749
 51
331.1898301
  0
ENDBLK
  0
BLOCK
  8
LAYER_1
  2
AIGNBL0101000A
 70
64
 10
0
 20
0
 30
0
  3
AIGNBL0101000A
  0
INSERT
  8
LAYER_1
  2
AIGNBL0102000B
 10
0
 20
0
 30
0
  0
INSERT
  8
LAYER_1
  2
AIGNBL0102000C
 10
0
 20
0
 30
0
  0
INSERT
  8
LAYER_1
  2
AIGNBL0102000D
 10
0
 20
0
 30
0
  0
INSERT
  8
LAYER_1
  2
AIGNBL0102000E
 10
0
 20
0
 30
0
  0
INSERT
  8
LAYER_1
  2
AIGNBL0102000F
 10
0
 20
0
 30
0
  0
INSERT
  8
LAYER_1
  2
AIGNBL01020010
 10
0
 20
0
 30
0
  0
INSERT
  8
LAYER_1
  2
AIGNBL01020011
 10
0
 20
0
 30
0
  0
INSERT
  8
LAYER_1
  2
AIGNBL01020012
 10
0
 20
0
 30
0
  0
INSERT
  8
LAYER_1
  2
AIGNBL01020013
 10
0
 20
0
 30
0
  0
INSERT
  8
LAYER_1
  2
AIGNBL01020014
 10
0
 20
0
 30
0
  0
INSERT
  8
LAYER_1
  2
AIGNBL01020015
 10
0
 20
0
 30
0
  0
INSERT
  8
LAYER_1
  2
AIGNBL01020016
 10
0
 20
0
 30
0
  0
INSERT
  8
LAYER_1
  2
AIGNBL01020017
 10
0
 20
0
 30
0
  0
INSERT
  8
LAYER_1
  2
AIGNBL01020018
 10
0
 20
0
 30
0
  0
INSERT
  8
LAYER_1
  2
AIGNBL01020019
 10
0
 20
0
 30
0
  0
INSERT
  8
LAYER_1
  2
AIGNBL0102001A
 10
0
 20
0
 30
0
  0
INSERT
  8
LAYER_1
  2
AIGNBL0102001B
 10
0
 20
0
 30
0
  0
INSERT
  8
LAYER_1
  2
AIGNBL0102001C
 10
0
 20
0
 30
0
  0
INSERT
  8
LAYER_1
  2
AIGNBL0102001D
 10
0
 20
0
 30
0
  0
INSERT
  8
LAYER_1
  2
AIGNBL0102001E
 10
0
 20
0
 30
0
  0
INSERT
  8
LAYER_1
  2
AIGNBL0102001F
 10
0
 20
0
 30
0
  0
INSERT
  8
LAYER_1
  2
AIGNBL01020020
 10
0
 20
0
 30
0
  0
ENDBLK
  0
BLOCK
  8
LAYER_2
  2
AIGNBL02010002
 70
64
 10
0
 20
0
 30
0
  3
AIGNBL02010002
  0
ENDBLK
  0
BLOCK
  8
LAYER_2
  2
AIGNBL02010003
 70
64
 10
0
 20
0
 30
0
  3
AIGNBL02010003
  0
ENDBLK
  0
BLOCK
  8
LAYER_2
  2
AIGNBL02010004
 70
64
 10
0
 20
0
 30
0
  3
AIGNBL02010004
  0
ENDBLK
  0
BLOCK
  8
LAYER_2
  2
AIGNBL02010005
 70
64
 10
0
 20
0
 30
0
  3
AIGNBL02010005
  0
ENDBLK
  0
BLOCK
  8
LAYER_2
  2
AIGNBL02010006
 70
64
 10
0
 20
0
 30
0
  3
AIGNBL02010006
  0
ENDBLK
  0
BLOCK
  8
LAYER_2
  2
AIGNBL02010007
 70
64
 10
0
 20
0
 30
0
  3
AIGNBL02010007
  0
ENDBLK
  0
BLOCK
  8
LAYER_2
  2
AIGNBL02010008
 70
64
 10
0
 20
0
 30
0
  3
AIGNBL02010008
  0
LINE
  8
LAYER_2
 10
393.9903
 20
34.4044
 11
390.9903
 21
34.4044
  0
LINE
  8
LAYER_2
 10
390.9903
 20
34.4044
 11
390.9903
 21
27.4044
  0
LINE
  8
LAYER_2
 10
390.9903
 20
27.4044
 11
393.9903
 21
27.4044
  0
LINE
  8
LAYER_2
 10
393.9903
 20
27.4044
 11
393.9903
 21
34.4044
  0
ENDBLK
  0
BLOCK
  8
LAYER_2
  2
AIGNBL02010009
 70
64
 10
0
 20
0
 30
0
  3
AIGNBL02010009
  0
LINE
  8
LAYER_2
 10
287.3947
 20
31.9044
 11
299.3947
 21
31.9044
  0
LINE
  8
LAYER_2
 10
299.3947
 20
31.9044
 11
299.3947
 21
27.4044
  0
LINE
  8
LAYER_2
 10
299.3947
 20
27.4044
 11
287.3947
 21
27.4044
  0
LINE
  8
LAYER_2
 10
287.3947
 20
27.4044
 11
287.3947
 21
31.9044
  0
ENDBLK
  0
BLOCK
  8
LAYER_2
  2
AIGNBL0201000A
 70
64
 10
0
 20
0
 30
0
  3
AIGNBL0201000A
  0
ENDBLK
  0
BLOCK
  8
LAYER_2
  2
AIGNBL0201000B
 70
64
 10
0
 20
0
 30
0
  3
AIGNBL0201000B
  0
ENDBLK
  0
BLOCK
  8
LAYER_2
  2
AIGNBL0201000C
 70
64
 10
0
 20
0
 30
0
  3
AIGNBL0201000C
  0
ENDBLK
  0
BLOCK
  8
LAYER_2
  2
AIGNBL0201000D
 70
64
 10
0
 20
0
 30
0
  3
AIGNBL0201000D
  0
LINE
  8
LAYER_2
 10
268.3947
 20
-5.128
 11
318.3947
 21
-5.128
  0
LINE
  8
LAYER_2
 10
318.3947
 20
-5.128
 11
318.3947
 21
-35.128
  0
LINE
  8
LAYER_2
 10
318.3947
 20
-35.128
 11
268.3947
 21
-35.128
  0
LINE
  8
LAYER_2
 10
268.3947
 20
-35.128
 11
268.3947
 21
-5.128
  0
ENDBLK
  0
BLOCK
  8
LAYER_2
  2
AIGNBL0201000E
 70
64
 10
0
 20
0
 30
0
  3
AIGNBL0201000E
  0
LINE
  8
LAYER_2
 10
277.3947
 20
-35.128
 11
309.3947
 21
-35.128
  0
LINE
  8
LAYER_2
 10
309.3947
 20
-35.128
 11
309.3947
 21
-44.128
  0
LINE
  8
LAYER_2
 10
309.3947
 20
-44.128
 11
277.3947
 21
-44.128
  0
LINE
  8
LAYER_2
 10
277.3947
 20
-44.128
 11
277.3947
 21
-35.128
  0
ENDBLK
  0
BLOCK
  8
LAYER_2
  2
AIGNBL0201000F
 70
64
 10
0
 20
0
 30
0
  3
AIGNBL0201000F
  0
LINE
  8
LAYER_2
 10
287.3947
 20
-44.128
 11
299.3947
 21
-44.128
  0
LINE
  8
LAYER_2
 10
299.3947
 20
-44.128
 11
299.3947
 21
-41.128
  0
LINE
  8
LAYER_2
 10
299.3947
 20
-41.128
 11
287.3947
 21
-41.128
  0
LINE
  8
LAYER_2
 10
287.3947
 20
-41.128
 11
287.3947
 21
-44.128
  0
ENDBLK
  0
BLOCK
  8
LAYER_2
  2
AIGNBL02010010
 70
64
 10
0
 20
0
 30
0
  3
AIGNBL02010010
  0
LINE
  8
LAYER_2
 10
272.3947
 20
-5.128
 11
314.3947
 21
-5.128
  0
LINE
  8
LAYER_2
 10
314.3947
 20
-5.128
 11
314.3947
 21
-22.128
  0
LINE
  8
LAYER_2
 10
314.3947
 20
-22.128
 11
272.3947
 21
-22.128
  0
LINE
  8
LAYER_2
 10
272.3947
 20
-22.128
 11
272.3947
 21
-5.128
  0
ENDBLK
  0
BLOCK
  8
LAYER_2
  2
AIGNBL02010011
 70
64
 10
0
 20
0
 30
0
  3
AIGNBL02010011
  0
LINE
  8
LAYER_2
 10
272.3947
 20
-5.128
 11
314.3947
 21
-5.128
  0
LINE
  8
LAYER_2
 10
314.3947
 20
-5.128
 11
314.3947
 21
-5.528
  0
LINE
  8
LAYER_2
 10
314.3947
 20
-5.528
 11
272.3947
 21
-5.528
  0
LINE
  8
LAYER_2
 10
272.3947
 20
-5.528
 11
272.3947
 21
-5.128
  0
ENDBLK
  0
BLOCK
  8
LAYER_2
  2
AIGNBL02010012
 70
64
 10
0
 20
0
 30
0
  3
AIGNBL02010012
  0
LINE
  8
LAYER_2
 10
274.3947
 20
-6.028
 11
274.3947
 21
-5.528
  0
LINE
  8
LAYER_2
 10
274.3947
 20
-5.528
 11
272.3947
 21
-5.528
  0
LINE
  8
LAYER_2
 10
272.3947
 20
-5.528
 11
272.3947
 21
-6.028
  0
ENDBLK
  0
BLOCK
  8
LAYER_2
  2
AIGNBL02010013
 70
64
 10
0
 20
0
 30
0
  3
AIGNBL02010013
  0
LINE
  8
LAYER_2
 10
272.3947
 20
-7.028
 11
272.3947
 21
-22.128
  0
ENDBLK
  0
BLOCK
  8
LAYER_2
  2
AIGNBL02010014
 70
64
 10
0
 20
0
 30
0
  3
AIGNBL02010014
  0
LINE
  8
LAYER_2
 10
274.3947
 20
-20.128
 11
274.3947
 21
-7.028
  0
ENDBLK
  0
BLOCK
  8
LAYER_2
  2
AIGNBL02010015
 70
64
 10
0
 20
0
 30
0
  3
AIGNBL02010015
  0
ARC
  8
LAYER_2
 10
272.3822
 20
-6.9047
 40
0.1239
 50
275.7816516
 51
324.8679142
  0
ARC
  8
LAYER_2
 10
272.1119
 20
-6.7049
 40
0.46
 50
323.893436
 51
346.4777874
  0
ARC
  8
LAYER_2
 10
271.5115
 20
-6.5372
 40
1.0833
 50
345.2765548
 51
0.4857156511
  0
ARC
  8
LAYER_2
 10
271.5993
 20
-6.5094
 40
0.9956
 50
358.932369
 51
18.33524759
  0
ARC
  8
LAYER_2
 10
272.3168
 20
-6.2479
 40
0.2333
 50
12.7928133
 51
70.50097785
  0
ENDBLK
  0
BLOCK
  8
LAYER_2
  2
AIGNBL02010016
 70
64
 10
0
 20
0
 30
0
  3
AIGNBL02010016
  0
ARC
  8
LAYER_2
 10
274.4072
 20
-6.9047
 40
0.1239
 50
215.1402505
 51
264.234808
  0
ARC
  8
LAYER_2
 10
274.6773
 20
-6.7051
 40
0.4598
 50
193.5119178
 51
216.1072185
  0
ARC
  8
LAYER_2
 10
275.2785
 20
-6.5372
 40
1.0839
 50
179.5130866
 51
194.7138817
  0
ARC
  8
LAYER_2
 10
275.1905
 20
-6.5094
 40
0.996
 50
161.6741091
 51
181.0698752
  0
ARC
  8
LAYER_2
 10
274.4725
 20
-6.2479
 40
0.2332
 50
109.4771065
 51
167.2160367
  0
ENDBLK
  0
BLOCK
  8
LAYER_2
  2
AIGNBL02010017
 70
64
 10
0
 20
0
 30
0
  3
AIGNBL02010017
  0
LINE
  8
LAYER_2
 10
284.3947
 20
-6.028
 11
284.3947
 21
-5.528
  0
LINE
  8
LAYER_2
 10
284.3947
 20
-5.528
 11
282.3947
 21
-5.528
  0
LINE
  8
LAYER_2
 10
282.3947
 20
-5.528
 11
282.3947
 21
-6.028
  0
ENDBLK
  0
BLOCK
  8
LAYER_2
  2
AIGNBL02010018
 70
64
 10
0
 20
0
 30
0
  3
AIGNBL02010018
  0
LINE
  8
LAYER_2
 10
282.3947
 20
-7.028
 11
282.3947
 21
-20.128
  0
ENDBLK
  0
BLOCK
  8
LAYER_2
  2
AIGNBL02010019
 70
64
 10
0
 20
0
 30
0
  3
AIGNBL02010019
  0
ENDBLK
  0
BLOCK
  8
LAYER_2
  2
AIGNBL0201001A
 70
64
 10
0
 20
0
 30
0
  3
AIGNBL0201001A
  0
LINE
  8
LAYER_2
 10
284.3947
 20
-20.128
 11
284.3947
 21
-7.028
  0
ENDBLK
  0
BLOCK
  8
LAYER_2
  2
AIGNBL0201001B
 70
64
 10
0
 20
0
 30
0
  3
AIGNBL0201001B
  0
ARC
  8
LAYER_2
 10
282.3822
 20
-6.9047
 40
0.1239
 50
275.7816516
 51
324.8679142
  0
ARC
  8
LAYER_2
 10
282.1119
 20
-6.7049
 40
0.46
 50
323.893436
 51
346.4777874
  0
ARC
  8
LAYER_2
 10
281.5115
 20
-6.5372
 40
1.0833
 50
345.2765548
 51
0.4857156511
  0
ARC
  8
LAYER_2
 10
281.5993
 20
-6.5094
 40
0.9956
 50
358.932369
 51
18.33524759
  0
ARC
  8
LAYER_2
 10
282.3168
 20
-6.2479
 40
0.2333
 50
12.7928133
 51
70.50097785
  0
ENDBLK
  0
BLOCK
  8
LAYER_2
  2
AIGNBL0201001C
 70
64
 10
0
 20
0
 30
0
  3
AIGNBL0201001C
  0
ARC
  8
LAYER_2
 10
284.4072
 20
-6.9047
 40
0.1239
 50
215.1402505
 51
264.234808
  0
ARC
  8
LAYER_2
 10
284.6773
 20
-6.7051
 40
0.4598
 50
193.5119178
 51
216.1072185
  0
ARC
  8
LAYER_2
 10
285.2785
 20
-6.5372
 40
1.0839
 50
179.5130866
 51
194.7138817
  0
ARC
  8
LAYER_2
 10
285.1905
 20
-6.5094
 40
0.996
 50
161.6741091
 51
181.0698752
  0
ARC
  8
LAYER_2
 10
284.4725
 20
-6.2479
 40
0.2332
 50
109.4771065
 51
167.2160367
  0
ENDBLK
  0
BLOCK
  8
LAYER_2
  2
AIGNBL0201001D
 70
64
 10
0
 20
0
 30
0
  3
AIGNBL0201001D
  0
LINE
  8
LAYER_2
 10
294.3947
 20
-6.028
 11
294.3947
 21
-5.528
  0
LINE
  8
LAYER_2
 10
294.3947
 20
-5.528
 11
292.3947
 21
-5.528
  0
LINE
  8
LAYER_2
 10
292.3947
 20
-5.528
 11
292.3947
 21
-6.028
  0
ENDBLK
  0
BLOCK
  8
LAYER_2
  2
AIGNBL0201001E
 70
64
 10
0
 20
0
 30
0
  3
AIGNBL0201001E
  0
LINE
  8
LAYER_2
 10
292.3947
 20
-7.028
 11
292.3947
 21
-20.128
  0
ENDBLK
  0
BLOCK
  8
LAYER_2
  2
AIGNBL0201001F
 70
64
 10
0
 20
0
 30
0
  3
AIGNBL0201001F
  0
LINE
  8
LAYER_2
 10
294.3947
 20
-20.128
 11
294.3947
 21
-7.028
  0
ENDBLK
  0
BLOCK
  8
LAYER_2
  2
AIGNBL02010020
 70
64
 10
0
 20
0
 30
0
  3
AIGNBL02010020
  0
ARC
  8
LAYER_2
 10
292.3822
 20
-6.9047
 40
0.1239
 50
275.7816516
 51
324.8679142
  0
ARC
  8
LAYER_2
 10
292.1119
 20
-6.7049
 40
0.46
 50
323.893436
 51
346.4777874
  0
ARC
  8
LAYER_2
 10
291.5115
 20
-6.5372
 40
1.0833
 50
345.2765548
 51
0.4857156511
  0
ARC
  8
LAYER_2
 10
291.5993
 20
-6.5094
 40
0.9956
 50
358.932369
 51
18.33524759
  0
ARC
  8
LAYER_2
 10
292.3168
 20
-6.2479
 40
0.2333
 50
12.7928133
 51
70.50097785
  0
ENDBLK
  0
BLOCK
  8
LAYER_2
  2
AIGNBL02010021
 70
64
 10
0
 20
0
 30
0
  3
AIGNBL02010021
  0
ARC
  8
LAYER_2
 10
294.4072
 20
-6.9047
 40
0.1239
 50
215.1402505
 51
264.234808
  0
ARC
  8
LAYER_2
 10
294.6773
 20
-6.7051
 40
0.4598
 50
193.5119178
 51
216.1072185
  0
ARC
  8
LAYER_2
 10
295.2785
 20
-6.5372
 40
1.0839
 50
179.5130866
 51
194.7138817
  0
ARC
  8
LAYER_2
 10
295.1905
 20
-6.5094
 40
0.996
 50
161.6741091
 51
181.0698752
  0
ARC
  8
LAYER_2
 10
294.4725
 20
-6.2479
 40
0.2332
 50
109.4771065
 51
167.2160367
  0
ENDBLK
  0
BLOCK
  8
LAYER_2
  2
AIGNBL02010022
 70
64
 10
0
 20
0
 30
0
  3
AIGNBL02010022
  0
LINE
  8
LAYER_2
 10
304.3947
 20
-6.028
 11
304.3947
 21
-5.528
  0
LINE
  8
LAYER_2
 10
304.3947
 20
-5.528
 11
302.3947
 21
-5.528
  0
LINE
  8
LAYER_2
 10
302.3947
 20
-5.528
 11
302.3947
 21
-6.028
  0
ENDBLK
  0
BLOCK
  8
LAYER_2
  2
AIGNBL02010023
 70
64
 10
0
 20
0
 30
0
  3
AIGNBL02010023
  0
LINE
  8
LAYER_2
 10
302.3947
 20
-7.028
 11
302.3947
 21
-20.128
  0
ENDBLK
  0
BLOCK
  8
LAYER_2
  2
AIGNBL02010024
 70
64
 10
0
 20
0
 30
0
  3
AIGNBL02010024
  0
LINE
  8
LAYER_2
 10
304.3947
 20
-20.128
 11
304.3947
 21
-7.028
  0
ENDBLK
  0
BLOCK
  8
LAYER_2
  2
AIGNBL02010025
 70
64
 10
0
 20
0
 30
0
  3
AIGNBL02010025
  0
ARC
  8
LAYER_2
 10
302.3822
 20
-6.9047
 40
0.1239
 50
275.7816516
 51
324.8679142
  0
ARC
  8
LAYER_2
 10
302.1119
 20
-6.7049
 40
0.46
 50
323.893436
 51
346.4777874
  0
ARC
  8
LAYER_2
 10
301.5115
 20
-6.5372
 40
1.0833
 50
345.2765548
 51
0.4857156511
  0
ARC
  8
LAYER_2
 10
301.5993
 20
-6.5094
 40
0.9956
 50
358.932369
 51
18.33524759
  0
ARC
  8
LAYER_2
 10
302.3168
 20
-6.2479
 40
0.2333
 50
12.7928133
 51
70.50097785
  0
ENDBLK
  0
BLOCK
  8
LAYER_2
  2
AIGNBL02010026
 70
64
 10
0
 20
0
 30
0
  3
AIGNBL02010026
  0
ARC
  8
LAYER_2
 10
304.4072
 20
-6.9047
 40
0.1239
 50
215.1402505
 51
264.234808
  0
ARC
  8
LAYER_2
 10
304.6773
 20
-6.7051
 40
0.4598
 50
193.5119178
 51
216.1072185
  0
ARC
  8
LAYER_2
 10
305.2785
 20
-6.5372
 40
1.0839
 50
179.5130866
 51
194.7138817
  0
ARC
  8
LAYER_2
 10
305.1905
 20
-6.5094
 40
0.996
 50
161.6741091
 51
181.0698752
  0
ARC
  8
LAYER_2
 10
304.4725
 20
-6.2479
 40
0.2332
 50
109.4771065
 51
167.2160367
  0
ENDBLK
  0
BLOCK
  8
LAYER_2
  2
AIGNBL02010027
 70
64
 10
0
 20
0
 30
0
  3
AIGNBL02010027
  0
LINE
  8
LAYER_2
 10
314.3947
 20
-6.028
 11
314.3947
 21
-5.528
  0
LINE
  8
LAYER_2
 10
314.3947
 20
-5.528
 11
312.3947
 21
-5.528
  0
LINE
  8
LAYER_2
 10
312.3947
 20
-5.528
 11
312.3947
 21
-6.028
  0
ENDBLK
  0
BLOCK
  8
LAYER_2
  2
AIGNBL02010028
 70
64
 10
0
 20
0
 30
0
  3
AIGNBL02010028
  0
LINE
  8
LAYER_2
 10
312.3947
 20
-7.028
 11
312.3947
 21
-20.128
  0
ENDBLK
  0
BLOCK
  8
LAYER_2
  2
AIGNBL02010029
 70
64
 10
0
 20
0
 30
0
  3
AIGNBL02010029
  0
LINE
  8
LAYER_2
 10
314.3947
 20
-22.128
 11
314.3947
 21
-7.028
  0
ENDBLK
  0
BLOCK
  8
LAYER_2
  2
AIGNBL0201002A
 70
64
 10
0
 20
0
 30
0
  3
AIGNBL0201002A
  0
ARC
  8
LAYER_2
 10
312.3822
 20
-6.9047
 40
0.1239
 50
275.7816516
 51
324.8679142
  0
ARC
  8
LAYER_2
 10
312.1119
 20
-6.7049
 40
0.46
 50
323.893436
 51
346.4777874
  0
ARC
  8
LAYER_2
 10
311.5115
 20
-6.5372
 40
1.0833
 50
345.2765548
 51
0.4857156511
  0
ARC
  8
LAYER_2
 10
311.5993
 20
-6.5094
 40
0.9956
 50
358.932369
 51
18.33524759
  0
ARC
  8
LAYER_2
 10
312.3168
 20
-6.2479
 40
0.2333
 50
12.7928133
 51
70.50097785
  0
ENDBLK
  0
BLOCK
  8
LAYER_2
  2
AIGNBL0201002B
 70
64
 10
0
 20
0
 30
0
  3
AIGNBL0201002B
  0
ARC
  8
LAYER_2
 10
314.4072
 20
-6.9047
 40
0.1239
 50
215.1402505
 51
264.234808
  0
ARC
  8
LAYER_2
 10
314.6773
 20
-6.7051
 40
0.4598
 50
193.5119178
 51
216.1072185
  0
ARC
  8
LAYER_2
 10
315.2785
 20
-6.5372
 40
1.0839
 50
179.5130866
 51
194.7138817
  0
ARC
  8
LAYER_2
 10
315.1905
 20
-6.5094
 40
0.996
 50
161.6741091
 51
181.0698752
  0
ARC
  8
LAYER_2
 10
314.4725
 20
-6.2479
 40
0.2332
 50
109.4771065
 51
167.2160367
  0
ENDBLK
  0
BLOCK
  8
LAYER_2
  2
AIGNBL0201002C
 70
64
 10
0
 20
0
 30
0
  3
AIGNBL0201002C
  0
LINE
  8
LAYER_2
 10
312.3947
 20
-20.128
 11
304.3947
 21
-20.128
  0
ENDBLK
  0
BLOCK
  8
LAYER_2
  2
AIGNBL0201002D
 70
64
 10
0
 20
0
 30
0
  3
AIGNBL0201002D
  0
LINE
  8
LAYER_2
 10
302.3947
 20
-20.128
 11
294.3947
 21
-20.128
  0
ENDBLK
  0
BLOCK
  8
LAYER_2
  2
AIGNBL0201002E
 70
64
 10
0
 20
0
 30
0
  3
AIGNBL0201002E
  0
LINE
  8
LAYER_2
 10
292.3947
 20
-20.128
 11
284.3947
 21
-20.128
  0
ENDBLK
  0
BLOCK
  8
LAYER_2
  2
AIGNBL0201002F
 70
64
 10
0
 20
0
 30
0
  3
AIGNBL0201002F
  0
LINE
  8
LAYER_2
 10
282.3947
 20
-20.128
 11
274.3947
 21
-20.128
  0
ENDBLK
  0
BLOCK
  8
LAYER_2
  2
AIGNBL02010030
 70
64
 10
0
 20
0
 30
0
  3
AIGNBL02010030
  0
LINE
  8
LAYER_2
 10
274.3947
 20
-14.728
 11
282.3947
 21
-14.728
  0
ENDBLK
  0
BLOCK
  8
LAYER_2
  2
AIGNBL02010031
 70
64
 10
0
 20
0
 30
0
  3
AIGNBL02010031
  0
LINE
  8
LAYER_2
 10
284.3947
 20
-14.728
 11
292.3947
 21
-14.728
  0
ENDBLK
  0
BLOCK
  8
LAYER_2
  2
AIGNBL02010032
 70
64
 10
0
 20
0
 30
0
  3
AIGNBL02010032
  0
LINE
  8
LAYER_2
 10
294.3947
 20
-14.728
 11
302.3947
 21
-14.728
  0
ENDBLK
  0
BLOCK
  8
LAYER_2
  2
AIGNBL02010033
 70
64
 10
0
 20
0
 30
0
  3
AIGNBL02010033
  0
LINE
  8
LAYER_2
 10
304.3947
 20
-14.728
 11
312.3947
 21
-14.728
  0
ENDBLK
  0
BLOCK
  8
LAYER_2
  2
AIGNBL02010034
 70
64
 10
0
 20
0
 30
0
  3
AIGNBL02010034
  0
LINE
  8
LAYER_2
 10
274.3947
 20
-16.728
 11
282.3947
 21
-16.728
  0
ENDBLK
  0
BLOCK
  8
LAYER_2
  2
AIGNBL02010035
 70
64
 10
0
 20
0
 30
0
  3
AIGNBL02010035
  0
LINE
  8
LAYER_2
 10
284.3947
 20
-16.728
 11
292.3947
 21
-16.728
  0
ENDBLK
  0
BLOCK
  8
LAYER_2
  2
AIGNBL02010036
 70
64
 10
0
 20
0
 30
0
  3
AIGNBL02010036
  0
LINE
  8
LAYER_2
 10
294.3947
 20
-16.728
 11
302.3947
 21
-16.728
  0
ENDBLK
  0
BLOCK
  8
LAYER_2
  2
AIGNBL02010037
 70
64
 10
0
 20
0
 30
0
  3
AIGNBL02010037
  0
LINE
  8
LAYER_2
 10
304.3947
 20
-16.728
 11
312.3947
 21
-16.728
  0
ENDBLK
  0
BLOCK
  8
LAYER_2
  2
AIGNBL02010038
 70
64
 10
0
 20
0
 30
0
  3
AIGNBL02010038
  0
LINE
  8
LAYER_2
 10
274.3947
 20
-14.728
 11
282.3947
 21
-14.728
  0
LINE
  8
LAYER_2
 10
282.3947
 20
-14.728
 11
282.3947
 21
-14.228
  0
LINE
  8
LAYER_2
 10
282.3947
 20
-14.228
 11
274.3947
 21
-14.228
  0
LINE
  8
LAYER_2
 10
274.3947
 20
-14.228
 11
274.3947
 21
-14.728
  0
ENDBLK
  0
BLOCK
  8
LAYER_2
  2
AIGNBL02010039
 70
64
 10
0
 20
0
 30
0
  3
AIGNBL02010039
  0
LINE
  8
LAYER_2
 10
275.3947
 20
-12.728
 11
281.3947
 21
-12.728
  0
LINE
  8
LAYER_2
 10
281.3947
 20
-12.728
 11
281.3947
 21
-12.228
  0
LINE
  8
LAYER_2
 10
281.3947
 20
-12.228
 11
275.3947
 21
-12.228
  0
LINE
  8
LAYER_2
 10
275.3947
 20
-12.228
 11
275.3947
 21
-12.728
  0
ENDBLK
  0
BLOCK
  8
LAYER_2
  2
AIGNBL0201003A
 70
64
 10
0
 20
0
 30
0
  3
AIGNBL0201003A
  0
LINE
  8
LAYER_2
 10
275.8947
 20
-12.228
 11
280.8947
 21
-12.228
  0
ARC
  8
LAYER_2
 10
280.8947
 20
-11.728
 40
0.5
 50
270.003762
 51
359.996238
  0
LINE
  8
LAYER_2
 10
281.3947
 20
-11.728
 11
281.3947
 21
-11.228
  0
ARC
  8
LAYER_2
 10
279.8947
 20
-11.228
 40
1.5
 50
0.0004552417656
 51
89.99954475
  0
LINE
  8
LAYER_2
 10
279.8947
 20
-9.728
 11
276.8947
 21
-9.728
  0
ARC
  8
LAYER_2
 10
276.8947
 20
-11.228
 40
1.5
 50
89.99874585
 51
180.0012542
  0
LINE
  8
LAYER_2
 10
275.3947
 20
-11.228
 11
275.3947
 21
-11.728
  0
ARC
  8
LAYER_2
 10
275.8947
 20
-11.728
 40
0.5
 50
179.9986345
 51
270.0013655
  0
ENDBLK
  0
BLOCK
  8
LAYER_2
  2
AIGNBL0201003B
 70
64
 10
0
 20
0
 30
0
  3
AIGNBL0201003B
  0
LINE
  8
LAYER_2
 10
277.0947
 20
-13.728
 11
277.0947
 21
-14.228
  0
LINE
  8
LAYER_2
 10
277.0947
 20
-14.228
 11
279.6947
 21
-14.228
  0
LINE
  8
LAYER_2
 10
279.6947
 20
-14.228
 11
279.6947
 21
-13.728
  0
ENDBLK
  0
BLOCK
  8
LAYER_2
  2
AIGNBL0201003C
 70
64
 10
0
 20
0
 30
0
  3
AIGNBL0201003C
  0
LINE
  8
LAYER_2
 10
277.0947
 20
-13.728
 11
276.0947
 21
-13.728
  0
ENDBLK
  0
BLOCK
  8
LAYER_2
  2
AIGNBL0201003D
 70
64
 10
0
 20
0
 30
0
  3
AIGNBL0201003D
  0
LINE
  8
LAYER_2
 10
276.0947
 20
-13.728
 11
274.3947
 21
-14.228
  0
ENDBLK
  0
BLOCK
  8
LAYER_2
  2
AIGNBL0201003E
 70
64
 10
0
 20
0
 30
0
  3
AIGNBL0201003E
  0
LINE
  8
LAYER_2
 10
274.3947
 20
-14.228
 11
274.3947
 21
-13.228
  0
ENDBLK
  0
BLOCK
  8
LAYER_2
  2
AIGNBL0201003F
 70
64
 10
0
 20
0
 30
0
  3
AIGNBL0201003F
  0
LINE
  8
LAYER_2
 10
274.3947
 20
-13.228
 11
276.0947
 21
-12.728
  0
ENDBLK
  0
BLOCK
  8
LAYER_2
  2
AIGNBL02010040
 70
64
 10
0
 20
0
 30
0
  3
AIGNBL02010040
  0
LINE
  8
LAYER_2
 10
276.0947
 20
-12.728
 11
277.0947
 21
-12.728
  0
ENDBLK
  0
BLOCK
  8
LAYER_2
  2
AIGNBL02010041
 70
64
 10
0
 20
0
 30
0
  3
AIGNBL02010041
  0
LINE
  8
LAYER_2
 10
277.0947
 20
-12.728
 11
277.448
 21
-13.0818
  0
ENDBLK
  0
BLOCK
  8
LAYER_2
  2
AIGNBL02010042
 70
64
 10
0
 20
0
 30
0
  3
AIGNBL02010042
  0
LINE
  8
LAYER_2
 10
279.6947
 20
-13.728
 11
280.6947
 21
-13.728
  0
ENDBLK
  0
BLOCK
  8
LAYER_2
  2
AIGNBL02010043
 70
64
 10
0
 20
0
 30
0
  3
AIGNBL02010043
  0
LINE
  8
LAYER_2
 10
280.6947
 20
-13.728
 11
282.3947
 21
-14.228
  0
ENDBLK
  0
BLOCK
  8
LAYER_2
  2
AIGNBL02010044
 70
64
 10
0
 20
0
 30
0
  3
AIGNBL02010044
  0
LINE
  8
LAYER_2
 10
282.3947
 20
-14.228
 11
282.3947
 21
-13.228
  0
ENDBLK
  0
BLOCK
  8
LAYER_2
  2
AIGNBL02010045
 70
64
 10
0
 20
0
 30
0
  3
AIGNBL02010045
  0
LINE
  8
LAYER_2
 10
282.3947
 20
-13.228
 11
280.6947
 21
-12.728
  0
ENDBLK
  0
BLOCK
  8
LAYER_2
  2
AIGNBL02010046
 70
64
 10
0
 20
0
 30
0
  3
AIGNBL02010046
  0
LINE
  8
LAYER_2
 10
280.6947
 20
-12.728
 11
279.6947
 21
-12.728
  0
ENDBLK
  0
BLOCK
  8
LAYER_2
  2
AIGNBL02010047
 70
64
 10
0
 20
0
 30
0
  3
AIGNBL02010047
  0
LINE
  8
LAYER_2
 10
279.6947
 20
-12.728
 11
279.3389
 21
-13.0793
  0
ENDBLK
  0
BLOCK
  8
LAYER_2
  2
AIGNBL02010048
 70
64
 10
0
 20
0
 30
0
  3
AIGNBL02010048
  0
LINE
  8
LAYER_2
 10
279.3389
 20
-13.0793
 11
277.448
 21
-13.0793
  0
ENDBLK
  0
BLOCK
  8
LAYER_2
  2
AIGNBL02010049
 70
64
 10
0
 20
0
 30
0
  3
AIGNBL02010049
  0
LINE
  8
LAYER_2
 10
285.3947
 20
-12.728
 11
291.3947
 21
-12.728
  0
LINE
  8
LAYER_2
 10
291.3947
 20
-12.728
 11
291.3947
 21
-12.228
  0
LINE
  8
LAYER_2
 10
291.3947
 20
-12.228
 11
285.3947
 21
-12.228
  0
LINE
  8
LAYER_2
 10
285.3947
 20
-12.228
 11
285.3947
 21
-12.728
  0
ENDBLK
  0
BLOCK
  8
LAYER_2
  2
AIGNBL0201004A
 70
64
 10
0
 20
0
 30
0
  3
AIGNBL0201004A
  0
LINE
  8
LAYER_2
 10
285.8947
 20
-12.228
 11
290.8947
 21
-12.228
  0
ARC
  8
LAYER_2
 10
290.8947
 20
-11.728
 40
0.5
 50
270.0037619
 51
359.9962381
  0
LINE
  8
LAYER_2
 10
291.3947
 20
-11.728
 11
291.3947
 21
-11.228
  0
ARC
  8
LAYER_2
 10
289.8947
 20
-11.228
 40
1.5
 50
0.0004551940579
 51
89.99954479
  0
LINE
  8
LAYER_2
 10
289.8947
 20
-9.728
 11
286.8947
 21
-9.728
  0
ARC
  8
LAYER_2
 10
286.8947
 20
-11.228
 40
1.5
 50
89.9987459
 51
180.0012541
  0
LINE
  8
LAYER_2
 10
285.3947
 20
-11.228
 11
285.3947
 21
-11.728
  0
ARC
  8
LAYER_2
 10
285.8947
 20
-11.728
 40
0.5
 50
179.9986347
 51
270.0013653
  0
ENDBLK
  0
BLOCK
  8
LAYER_2
  2
AIGNBL0201004B
 70
64
 10
0
 20
0
 30
0
  3
AIGNBL0201004B
  0
LINE
  8
LAYER_2
 10
287.0947
 20
-13.728
 11
287.0947
 21
-14.228
  0
LINE
  8
LAYER_2
 10
287.0947
 20
-14.228
 11
289.6947
 21
-14.228
  0
LINE
  8
LAYER_2
 10
289.6947
 20
-14.228
 11
289.6947
 21
-13.728
  0
ENDBLK
  0
BLOCK
  8
LAYER_2
  2
AIGNBL0201004C
 70
64
 10
0
 20
0
 30
0
  3
AIGNBL0201004C
  0
LINE
  8
LAYER_2
 10
287.0947
 20
-13.728
 11
286.0947
 21
-13.728
  0
ENDBLK
  0
BLOCK
  8
LAYER_2
  2
AIGNBL0201004D
 70
64
 10
0
 20
0
 30
0
  3
AIGNBL0201004D
  0
LINE
  8
LAYER_2
 10
286.0947
 20
-13.728
 11
284.3947
 21
-14.228
  0
ENDBLK
  0
BLOCK
  8
LAYER_2
  2
AIGNBL0201004E
 70
64
 10
0
 20
0
 30
0
  3
AIGNBL0201004E
  0
LINE
  8
LAYER_2
 10
284.3947
 20
-14.228
 11
284.3947
 21
-13.228
  0
ENDBLK
  0
BLOCK
  8
LAYER_2
  2
AIGNBL0201004F
 70
64
 10
0
 20
0
 30
0
  3
AIGNBL0201004F
  0
LINE
  8
LAYER_2
 10
284.3947
 20
-13.228
 11
286.0947
 21
-12.728
  0
ENDBLK
  0
BLOCK
  8
LAYER_2
  2
AIGNBL02010050
 70
64
 10
0
 20
0
 30
0
  3
AIGNBL02010050
  0
LINE
  8
LAYER_2
 10
286.0947
 20
-12.728
 11
287.0947
 21
-12.728
  0
ENDBLK
  0
BLOCK
  8
LAYER_2
  2
AIGNBL02010051
 70
64
 10
0
 20
0
 30
0
  3
AIGNBL02010051
  0
LINE
  8
LAYER_2
 10
287.0947
 20
-12.728
 11
287.448
 21
-13.0818
  0
ENDBLK
  0
BLOCK
  8
LAYER_2
  2
AIGNBL02010052
 70
64
 10
0
 20
0
 30
0
  3
AIGNBL02010052
  0
LINE
  8
LAYER_2
 10
289.6947
 20
-13.728
 11
290.6947
 21
-13.728
  0
ENDBLK
  0
BLOCK
  8
LAYER_2
  2
AIGNBL02010053
 70
64
 10
0
 20
0
 30
0
  3
AIGNBL02010053
  0
LINE
  8
LAYER_2
 10
290.6947
 20
-13.728
 11
292.3947
 21
-14.228
  0
ENDBLK
  0
BLOCK
  8
LAYER_2
  2
AIGNBL02010054
 70
64
 10
0
 20
0
 30
0
  3
AIGNBL02010054
  0
LINE
  8
LAYER_2
 10
292.3947
 20
-14.228
 11
292.3947
 21
-13.228
  0
ENDBLK
  0
BLOCK
  8
LAYER_2
  2
AIGNBL02010055
 70
64
 10
0
 20
0
 30
0
  3
AIGNBL02010055
  0
LINE
  8
LAYER_2
 10
292.3947
 20
-13.228
 11
290.6947
 21
-12.728
  0
ENDBLK
  0
BLOCK
  8
LAYER_2
  2
AIGNBL02010056
 70
64
 10
0
 20
0
 30
0
  3
AIGNBL02010056
  0
LINE
  8
LAYER_2
 10
290.6947
 20
-12.728
 11
289.6947
 21
-12.728
  0
ENDBLK
  0
BLOCK
  8
LAYER_2
  2
AIGNBL02010057
 70
64
 10
0
 20
0
 30
0
  3
AIGNBL02010057
  0
LINE
  8
LAYER_2
 10
289.6947
 20
-12.728
 11
289.3389
 21
-13.0793
  0
ENDBLK
  0
BLOCK
  8
LAYER_2
  2
AIGNBL02010058
 70
64
 10
0
 20
0
 30
0
  3
AIGNBL02010058
  0
LINE
  8
LAYER_2
 10
289.3389
 20
-13.0793
 11
287.448
 21
-13.0793
  0
ENDBLK
  0
BLOCK
  8
LAYER_2
  2
AIGNBL02010059
 70
64
 10
0
 20
0
 30
0
  3
AIGNBL02010059
  0
LINE
  8
LAYER_2
 10
305.3947
 20
-12.728
 11
311.3947
 21
-12.728
  0
LINE
  8
LAYER_2
 10
311.3947
 20
-12.728
 11
311.3947
 21
-12.228
  0
LINE
  8
LAYER_2
 10
311.3947
 20
-12.228
 11
305.3947
 21
-12.228
  0
LINE
  8
LAYER_2
 10
305.3947
 20
-12.228
 11
305.3947
 21
-12.728
  0
ENDBLK
  0
BLOCK
  8
LAYER_2
  2
AIGNBL0201005A
 70
64
 10
0
 20
0
 30
0
  3
AIGNBL0201005A
  0
LINE
  8
LAYER_2
 10
305.8947
 20
-12.228
 11
310.8947
 21
-12.228
  0
ARC
  8
LAYER_2
 10
310.8947
 20
-11.728
 40
0.5
 50
270.0037616
 51
359.9962384
  0
LINE
  8
LAYER_2
 10
311.3947
 20
-11.728
 11
311.3947
 21
-11.228
  0
ARC
  8
LAYER_2
 10
309.8947
 20
-11.228
 40
1.5
 50
0.0004550985486
 51
89.99954489
  0
LINE
  8
LAYER_2
 10
309.8947
 20
-9.728
 11
306.8947
 21
-9.728
  0
ARC
  8
LAYER_2
 10
306.8947
 20
-11.228
 40
1.5
 50
89.998746
 51
180.001254
  0
LINE
  8
LAYER_2
 10
305.3947
 20
-11.228
 11
305.3947
 21
-11.728
  0
ARC
  8
LAYER_2
 10
305.8947
 20
-11.728
 40
0.5
 50
179.9986349
 51
270.001365
  0
ENDBLK
  0
BLOCK
  8
LAYER_2
  2
AIGNBL0201005B
 70
64
 10
0
 20
0
 30
0
  3
AIGNBL0201005B
  0
LINE
  8
LAYER_2
 10
307.0947
 20
-13.728
 11
307.0947
 21
-14.228
  0
LINE
  8
LAYER_2
 10
307.0947
 20
-14.228
 11
309.6947
 21
-14.228
  0
LINE
  8
LAYER_2
 10
309.6947
 20
-14.228
 11
309.6947
 21
-13.728
  0
ENDBLK
  0
BLOCK
  8
LAYER_2
  2
AIGNBL0201005C
 70
64
 10
0
 20
0
 30
0
  3
AIGNBL0201005C
  0
LINE
  8
LAYER_2
 10
307.0947
 20
-13.728
 11
306.0947
 21
-13.728
  0
ENDBLK
  0
BLOCK
  8
LAYER_2
  2
AIGNBL0201005D
 70
64
 10
0
 20
0
 30
0
  3
AIGNBL0201005D
  0
LINE
  8
LAYER_2
 10
306.0947
 20
-13.728
 11
304.3947
 21
-14.228
  0
ENDBLK
  0
BLOCK
  8
LAYER_2
  2
AIGNBL0201005E
 70
64
 10
0
 20
0
 30
0
  3
AIGNBL0201005E
  0
LINE
  8
LAYER_2
 10
304.3947
 20
-14.228
 11
304.3947
 21
-13.228
  0
ENDBLK
  0
BLOCK
  8
LAYER_2
  2
AIGNBL0201005F
 70
64
 10
0
 20
0
 30
0
  3
AIGNBL0201005F
  0
LINE
  8
LAYER_2
 10
304.3947
 20
-13.228
 11
306.0947
 21
-12.728
  0
ENDBLK
  0
BLOCK
  8
LAYER_2
  2
AIGNBL02010060
 70
64
 10
0
 20
0
 30
0
  3
AIGNBL02010060
  0
LINE
  8
LAYER_2
 10
306.0947
 20
-12.728
 11
307.0947
 21
-12.728
  0
ENDBLK
  0
BLOCK
  8
LAYER_2
  2
AIGNBL02010061
 70
64
 10
0
 20
0
 30
0
  3
AIGNBL02010061
  0
LINE
  8
LAYER_2
 10
307.0947
 20
-12.728
 11
307.448
 21
-13.0818
  0
ENDBLK
  0
BLOCK
  8
LAYER_2
  2
AIGNBL02010062
 70
64
 10
0
 20
0
 30
0
  3
AIGNBL02010062
  0
LINE
  8
LAYER_2
 10
309.6947
 20
-13.728
 11
310.6947
 21
-13.728
  0
ENDBLK
  0
BLOCK
  8
LAYER_2
  2
AIGNBL02010063
 70
64
 10
0
 20
0
 30
0
  3
AIGNBL02010063
  0
LINE
  8
LAYER_2
 10
310.6947
 20
-13.728
 11
312.3947
 21
-14.228
  0
ENDBLK
  0
BLOCK
  8
LAYER_2
  2
AIGNBL02010064
 70
64
 10
0
 20
0
 30
0
  3
AIGNBL02010064
  0
LINE
  8
LAYER_2
 10
312.3947
 20
-14.228
 11
312.3947
 21
-13.228
  0
ENDBLK
  0
BLOCK
  8
LAYER_2
  2
AIGNBL02010065
 70
64
 10
0
 20
0
 30
0
  3
AIGNBL02010065
  0
LINE
  8
LAYER_2
 10
312.3947
 20
-13.228
 11
310.6947
 21
-12.728
  0
ENDBLK
  0
BLOCK
  8
LAYER_2
  2
AIGNBL02010066
 70
64
 10
0
 20
0
 30
0
  3
AIGNBL02010066
  0
LINE
  8
LAYER_2
 10
310.6947
 20
-12.728
 11
309.6947
 21
-12.728
  0
ENDBLK
  0
BLOCK
  8
LAYER_2
  2
AIGNBL02010067
 70
64
 10
0
 20
0
 30
0
  3
AIGNBL02010067
  0
LINE
  8
LAYER_2
 10
309.6947
 20
-12.728
 11
309.3389
 21
-13.0793
  0
ENDBLK
  0
BLOCK
  8
LAYER_2
  2
AIGNBL02010068
 70
64
 10
0
 20
0
 30
0
  3
AIGNBL02010068
  0
LINE
  8
LAYER_2
 10
309.3389
 20
-13.0793
 11
307.448
 21
-13.0793
  0
ENDBLK
  0
BLOCK
  8
LAYER_2
  2
AIGNBL02010069
 70
64
 10
0
 20
0
 30
0
  3
AIGNBL02010069
  0
LINE
  8
LAYER_2
 10
284.3947
 20
-14.728
 11
292.3947
 21
-14.728
  0
LINE
  8
LAYER_2
 10
292.3947
 20
-14.728
 11
292.3947
 21
-14.228
  0
LINE
  8
LAYER_2
 10
292.3947
 20
-14.228
 11
284.3947
 21
-14.228
  0
LINE
  8
LAYER_2
 10
284.3947
 20
-14.228
 11
284.3947
 21
-14.728
  0
ENDBLK
  0
BLOCK
  8
LAYER_2
  2
AIGNBL0201006A
 70
64
 10
0
 20
0
 30
0
  3
AIGNBL0201006A
  0
LINE
  8
LAYER_2
 10
294.3947
 20
-14.728
 11
302.3947
 21
-14.728
  0
LINE
  8
LAYER_2
 10
302.3947
 20
-14.728
 11
302.3947
 21
-14.228
  0
LINE
  8
LAYER_2
 10
302.3947
 20
-14.228
 11
294.3947
 21
-14.228
  0
LINE
  8
LAYER_2
 10
294.3947
 20
-14.228
 11
294.3947
 21
-14.728
  0
ENDBLK
  0
BLOCK
  8
LAYER_2
  2
AIGNBL0201006B
 70
64
 10
0
 20
0
 30
0
  3
AIGNBL0201006B
  0
LINE
  8
LAYER_2
 10
304.3947
 20
-14.728
 11
312.3947
 21
-14.728
  0
LINE
  8
LAYER_2
 10
312.3947
 20
-14.728
 11
312.3947
 21
-14.228
  0
LINE
  8
LAYER_2
 10
312.3947
 20
-14.228
 11
304.3947
 21
-14.228
  0
LINE
  8
LAYER_2
 10
304.3947
 20
-14.228
 11
304.3947
 21
-14.728
  0
ENDBLK
  0
BLOCK
  8
LAYER_2
  2
AIGNBL0201006C
 70
64
 10
0
 20
0
 30
0
  3
AIGNBL0201006C
  0
ARC
  8
LAYER_2
 10
301.0111
 20
-14.2345
 40
0.3836
 50
0.9718649367
 51
30.69137462
  0
ARC
  8
LAYER_2
 10
300.7672
 20
-14.3837
 40
0.6695
 50
31.01809634
 51
49.75000993
  0
ARC
  8
LAYER_2
 10
300.3086
 20
-14.9209
 40
1.3759
 50
49.62691743
 51
62.61750652
  0
ARC
  8
LAYER_2
 10
299.6813
 20
-16.1125
 40
2.7225
 50
62.42936732
 51
71.58601043
  0
ARC
  8
LAYER_2
 10
298.8227
 20
-18.7248
 40
5.4722
 50
71.69620873
 51
85.50628075
  0
ARC
  8
LAYER_2
 10
298.4037
 20
-21.9334
 40
8.7054
 50
84.41132593
 51
90.05913836
  0
ARC
  8
LAYER_2
 10
298.3601
 20
-21.1904
 40
7.9624
 50
89.75129069
 51
102.1258218
  0
ARC
  8
LAYER_2
 10
297.421
 20
-16.7948
 40
3.4677
 50
102.2102792
 51
119.0030309
  0
ARC
  8
LAYER_2
 10
296.2599
 20
-14.6226
 40
1.0056
 50
121.1525364
 51
138.3461645
  0
ARC
  8
LAYER_2
 10
295.8397
 20
-14.2525
 40
0.4457
 50
138.0003902
 51
176.8549175
  0
ENDBLK
  0
BLOCK
  8
LAYER_2
  2
AIGNBL0201006D
 70
64
 10
0
 20
0
 30
0
  3
AIGNBL0201006D
  0
ENDBLK
  0
BLOCK
  8
LAYER_2
  2
AIGNBL0201006E
 70
64
 10
0
 20
0
 30
0
  3
AIGNBL0201006E
  0
ENDBLK
  0
BLOCK
  8
LAYER_2
  2
AIGNBL0201006F
 70
64
 10
0
 20
0
 30
0
  3
AIGNBL0201006F
  0
ENDBLK
  0
BLOCK
  8
LAYER_2
  2
AIGNBL02010070
 70
64
 10
0
 20
0
 30
0
  3
AIGNBL02010070
  0
LINE
  8
LAYER_2
 10
391.1903
 20
52.0044
 11
393.1903
 21
52.0044
  0
ENDBLK
  0
BLOCK
  8
LAYER_2
  2
AIGNBL02010071
 70
64
 10
0
 20
0
 30
0
  3
AIGNBL02010071
  0
LINE
  8
LAYER_2
 10
393.1903
 20
52.0044
 11
393.1903
 21
54.0044
  0
ENDBLK
  0
BLOCK
  8
LAYER_2
  2
AIGNBL02010072
 70
64
 10
0
 20
0
 30
0
  3
AIGNBL02010072
  0
LINE
  8
LAYER_2
 10
393.1903
 20
54.0044
 11
393.9903
 21
52.0044
  0
ENDBLK
  0
BLOCK
  8
LAYER_2
  2
AIGNBL02010073
 70
64
 10
0
 20
0
 30
0
  3
AIGNBL02010073
  0
LINE
  8
LAYER_2
 10
393.9903
 20
52.0044
 11
393.9903
 21
48.9044
  0
ENDBLK
  0
BLOCK
  8
LAYER_2
  2
AIGNBL02010074
 70
64
 10
0
 20
0
 30
0
  3
AIGNBL02010074
  0
LINE
  8
LAYER_2
 10
393.5903
 20
87.0044
 11
393.2077
 21
84.2306
  0
ENDBLK
  0
BLOCK
  8
LAYER_2
  2
AIGNBL02010075
 70
64
 10
0
 20
0
 30
0
  3
AIGNBL02010075
  0
LINE
  8
LAYER_2
 10
392.1903
 20
87.0044
 11
393.2077
 21
84.2306
  0
ENDBLK
  0
BLOCK
  8
LAYER_3
  2
AIGNBL03010002
 70
64
 10
0
 20
0
 30
0
  3
AIGNBL03010002
  0
LINE
  8
LAYER_3
 62
3
 10
267.7697
 20
106.9044
 11
250.0751
 21
106.9044
  0
ENDBLK
  0
BLOCK
  8
LAYER_3
  2
AIGNBL03010003
 70
64
 10
0
 20
0
 30
0
  3
AIGNBL03010003
  0
LINE
  8
LAYER_3
 62
3
 10
267.7697
 20
31.9044
 11
250.0751
 21
31.9044
  0
ENDBLK
  0
BLOCK
  8
LAYER_3
  2
AIGNBL03010004
 70
64
 10
0
 20
0
 30
0
  3
AIGNBL03010004
  0
LINE
  8
LAYER_3
 62
3
 10
251.3251
 20
104.4044
 11
251.3251
 21
34.4044
  0
ENDBLK
  0
BLOCK
  8
LAYER_3
  2
AIGNBL03010005
 70
64
 10
0
 20
0
 30
0
  3
AIGNBL03010005
  0
LINE
  8
LAYER_3
 62
3
 10
250.9085
 20
104.4044
 11
251.3251
 21
106.9044
  0
LINE
  8
LAYER_3
 62
3
 10
251.3251
 20
106.9044
 11
251.7418
 21
104.4044
  0
LINE
  8
LAYER_3
 62
3
 10
251.7418
 20
104.4044
 11
250.9085
 21
104.4044
  0
ENDBLK
  0
BLOCK
  8
LAYER_3
  2
AIGNBL03010006
 70
64
 10
0
 20
0
 30
0
  3
AIGNBL03010006
  0
LINE
  8
LAYER_3
 62
3
 10
250.9085
 20
34.4044
 11
251.3251
 21
31.9044
  0
LINE
  8
LAYER_3
 62
3
 10
251.3251
 20
31.9044
 11
251.7418
 21
34.4044
  0
LINE
  8
LAYER_3
 62
3
 10
251.7418
 20
34.4044
 11
250.9085
 21
34.4044
  0
ENDBLK
  0
BLOCK
  8
LAYER_3
  2
AIGNBL03010007
 70
64
 10
0
 20
0
 30
0
  3
AIGNBL03010007
  0
TEXT
  8
LAYER_3
 10
250.6576
 20
67.4519
 11
250.6576
 21
67.4519
 40
3.7421
 41
0.5
 50
89.99999999
 62
3
  1
75
  0
ENDBLK
  0
BLOCK
  8
LAYER_3
  2
AIGNBL03010008
 70
64
 10
0
 20
0
 30
0
  3
AIGNBL03010008
  0
LINE
  8
LAYER_3
 62
3
 10
268.3947
 20
31.2794
 11
268.3947
 21
13.3057
  0
ENDBLK
  0
BLOCK
  8
LAYER_3
  2
AIGNBL03010009
 70
64
 10
0
 20
0
 30
0
  3
AIGNBL03010009
  0
LINE
  8
LAYER_3
 62
3
 10
318.3947
 20
31.2794
 11
318.3947
 21
13.3057
  0
ENDBLK
  0
BLOCK
  8
LAYER_3
  2
AIGNBL0301000A
 70
64
 10
0
 20
0
 30
0
  3
AIGNBL0301000A
  0
LINE
  8
LAYER_3
 62
3
 10
270.8947
 20
14.5557
 11
315.8947
 21
14.5557
  0
ENDBLK
  0
BLOCK
  8
LAYER_3
  2
AIGNBL0301000B
 70
64
 10
0
 20
0
 30
0
  3
AIGNBL0301000B
  0
LINE
  8
LAYER_3
 62
3
 10
270.8947
 20
14.9724
 11
268.3947
 21
14.5557
  0
LINE
  8
LAYER_3
 62
3
 10
268.3947
 20
14.5557
 11
270.8947
 21
14.1391
  0
LINE
  8
LAYER_3
 62
3
 10
270.8947
 20
14.1391
 11
270.8947
 21
14.9724
  0
ENDBLK
  0
BLOCK
  8
LAYER_3
  2
AIGNBL0301000C
 70
64
 10
0
 20
0
 30
0
  3
AIGNBL0301000C
  0
LINE
  8
LAYER_3
 62
3
 10
315.8947
 20
14.9724
 11
318.3947
 21
14.5557
  0
LINE
  8
LAYER_3
 62
3
 10
318.3947
 20
14.5557
 11
315.8947
 21
14.1391
  0
LINE
  8
LAYER_3
 62
3
 10
315.8947
 20
14.1391
 11
315.8947
 21
14.9724
  0
ENDBLK
  0
BLOCK
  8
LAYER_3
  2
AIGNBL0301000D
 70
64
 10
0
 20
0
 30
0
  3
AIGNBL0301000D
  0
TEXT
  8
LAYER_3
 10
291.4659
 20
15.2234
 11
291.4659
 21
15.2234
 40
3.7421
 41
0.5
 62
3
  1
50
  0
ENDBLK
  0
BLOCK
  8
LAYER_3
  2
AIGNBL0301000E
 70
64
 10
0
 20
0
 30
0
  3
AIGNBL0301000E
  0
LINE
  8
LAYER_3
 62
3
 10
393.9903
 20
26.7794
 11
393.9903
 21
13.3057
  0
ENDBLK
  0
BLOCK
  8
LAYER_3
  2
AIGNBL0301000F
 70
64
 10
0
 20
0
 30
0
  3
AIGNBL0301000F
  0
LINE
  8
LAYER_3
 62
3
 10
354.9903
 20
26.7794
 11
354.9903
 21
13.3057
  0
ENDBLK
  0
BLOCK
  8
LAYER_3
  2
AIGNBL03010010
 70
64
 10
0
 20
0
 30
0
  3
AIGNBL03010010
  0
LINE
  8
LAYER_3
 62
3
 10
391.2768
 20
14.5557
 11
357.4903
 21
14.5557
  0
ENDBLK
  0
BLOCK
  8
LAYER_3
  2
AIGNBL03010011
 70
64
 10
0
 20
0
 30
0
  3
AIGNBL03010011
  0
LINE
  8
LAYER_3
 62
3
 10
391.2768
 20
14.9823
 11
393.8364
 21
14.5557
  0
LINE
  8
LAYER_3
 62
3
 10
393.8364
 20
14.5557
 11
391.2768
 21
14.1291
  0
LINE
  8
LAYER_3
 62
3
 10
391.2768
 20
14.1291
 11
391.2768
 21
14.9823
  0
ENDBLK
  0
BLOCK
  8
LAYER_3
  2
AIGNBL03010012
 70
64
 10
0
 20
0
 30
0
  3
AIGNBL03010012
  0
LINE
  8
LAYER_3
 62
3
 10
357.4903
 20
14.9724
 11
354.9903
 21
14.5557
  0
LINE
  8
LAYER_3
 62
3
 10
354.9903
 20
14.5557
 11
357.4903
 21
14.1391
  0
LINE
  8
LAYER_3
 62
3
 10
357.4903
 20
14.1391
 11
357.4903
 21
14.9724
  0
ENDBLK
  0
BLOCK
  8
LAYER_3
  2
AIGNBL03010013
 70
64
 10
0
 20
0
 30
0
  3
AIGNBL03010013
  0
TEXT
  8
LAYER_3
 10
372.0528
 20
15.2243
 11
372.0528
 21
15.2243
 40
3.7421
 41
0.5
 62
3
  1
39
  0
ENDBLK
  0
BLOCK
  8
LAYER_3
  2
AIGNBL03010014
 70
64
 10
0
 20
0
 30
0
  3
AIGNBL03010014
  0
LINE
  8
LAYER_3
 62
3
 10
267.7697
 20
-5.128
 11
250.0751
 21
-5.128
  0
ENDBLK
  0
BLOCK
  8
LAYER_3
  2
AIGNBL03010015
 70
64
 10
0
 20
0
 30
0
  3
AIGNBL03010015
  0
LINE
  8
LAYER_3
 62
3
 10
267.7697
 20
-44.128
 11
250.0751
 21
-44.128
  0
ENDBLK
  0
BLOCK
  8
LAYER_3
  2
AIGNBL03010016
 70
64
 10
0
 20
0
 30
0
  3
AIGNBL03010016
  0
LINE
  8
LAYER_3
 62
3
 10
251.3251
 20
-7.628
 11
251.3251
 21
-41.628
  0
ENDBLK
  0
BLOCK
  8
LAYER_3
  2
AIGNBL03010017
 70
64
 10
0
 20
0
 30
0
  3
AIGNBL03010017
  0
LINE
  8
LAYER_3
 62
3
 10
250.9085
 20
-7.628
 11
251.3251
 21
-5.128
  0
LINE
  8
LAYER_3
 62
3
 10
251.3251
 20
-5.128
 11
251.7418
 21
-7.628
  0
LINE
  8
LAYER_3
 62
3
 10
251.7418
 20
-7.628
 11
250.9085
 21
-7.628
  0
ENDBLK
  0
BLOCK
  8
LAYER_3
  2
AIGNBL03010018
 70
64
 10
0
 20
0
 30
0
  3
AIGNBL03010018
  0
LINE
  8
LAYER_3
 62
3
 10
250.9085
 20
-41.628
 11
251.3251
 21
-44.128
  0
LINE
  8
LAYER_3
 62
3
 10
251.3251
 20
-44.128
 11
251.7418
 21
-41.628
  0
LINE
  8
LAYER_3
 62
3
 10
251.7418
 20
-41.628
 11
250.9085
 21
-41.628
  0
ENDBLK
  0
BLOCK
  8
LAYER_3
  2
AIGNBL03010019
 70
64
 10
0
 20
0
 30
0
  3
AIGNBL03010019
  0
TEXT
  8
LAYER_3
 10
250.6566
 20
-26.5655
 11
250.6566
 21
-26.5655
 40
3.7421
 41
0.5
 50
89.99999999
 62
3
  1
39
  0
ENDBLK
  0
BLOCK
  8
LAYER_4
  2
AIGNBL04010002
 70
64
 10
0
 20
0
 30
0
  3
AIGNBL04010002
  0
LINE
  8
LAYER_4
 10
268.3947
 20
106.9044
 11
318.3947
 21
106.9044
  0
LINE
  8
LAYER_4
 10
318.3947
 20
106.9044
 11
318.3947
 21
31.9044
  0
LINE
  8
LAYER_4
 10
318.3947
 20
31.9044
 11
268.3947
 21
31.9044
  0
LINE
  8
LAYER_4
 10
268.3947
 20
31.9044
 11
268.3947
 21
106.9044
  0
ENDBLK
  0
BLOCK
  8
LAYER_4
  2
AIGNBL04010003
 70
64
 10
0
 20
0
 30
0
  3
AIGNBL04010003
  0
LINE
  8
LAYER_4
 10
272.3947
 20
31.9044
 11
272.3947
 21
46.9044
  0
ENDBLK
  0
BLOCK
  8
LAYER_4
  2
AIGNBL04010004
 70
64
 10
0
 20
0
 30
0
  3
AIGNBL04010004
  0
ARC
  8
LAYER_4
 10
273.3947
 20
46.9044
 40
1
 50
90.00006683
 51
179.9999331
  0
ENDBLK
  0
BLOCK
  8
LAYER_4
  2
AIGNBL04010005
 70
64
 10
0
 20
0
 30
0
  3
AIGNBL04010005
  0
LINE
  8
LAYER_4
 10
273.3947
 20
47.9044
 11
313.3947
 21
47.9044
  0
ENDBLK
  0
BLOCK
  8
LAYER_4
  2
AIGNBL04010006
 70
64
 10
0
 20
0
 30
0
  3
AIGNBL04010006
  0
LINE
  8
LAYER_4
 10
314.3947
 20
46.9044
 11
314.3947
 21
31.9044
  0
ENDBLK
  0
BLOCK
  8
LAYER_4
  2
AIGNBL04010007
 70
64
 10
0
 20
0
 30
0
  3
AIGNBL04010007
  0
ARC
  8
LAYER_4
 10
313.3947
 20
46.9044
 40
1
 50
0.002630343882
 51
89.99736964
  0
ENDBLK
  0
BLOCK
  8
LAYER_4
  2
AIGNBL04010008
 70
64
 10
0
 20
0
 30
0
  3
AIGNBL04010008
  0
LINE
  8
LAYER_4
 10
272.3947
 20
46.4044
 11
314.3947
 21
46.4044
  0
ENDBLK
  0
BLOCK
  8
LAYER_4
  2
AIGNBL04010009
 70
64
 10
0
 20
0
 30
0
  3
AIGNBL04010009
  0
LINE
  8
LAYER_4
 10
272.3947
 20
46.4044
 11
314.3947
 21
46.4044
  0
LINE
  8
LAYER_4
 10
314.3947
 20
46.4044
 11
314.3947
 21
43.4044
  0
LINE
  8
LAYER_4
 10
314.3947
 20
43.4044
 11
272.3947
 21
43.4044
  0
LINE
  8
LAYER_4
 10
272.3947
 20
43.4044
 11
272.3947
 21
46.4044
  0
ENDBLK
  0
BLOCK
  8
LAYER_4
  2
AIGNBL0401000A
 70
64
 10
0
 20
0
 30
0
  3
AIGNBL0401000A
  0
LINE
  8
LAYER_4
 10
272.3947
 20
43.4044
 11
274.3947
 21
43.4044
  0
LINE
  8
LAYER_4
 10
274.3947
 20
43.4044
 11
274.3947
 21
31.9044
  0
LINE
  8
LAYER_4
 10
274.3947
 20
31.9044
 11
272.3947
 21
31.9044
  0
LINE
  8
LAYER_4
 10
272.3947
 20
31.9044
 11
272.3947
 21
43.4044
  0
ENDBLK
  0
BLOCK
  8
LAYER_4
  2
AIGNBL0401000B
 70
64
 10
0
 20
0
 30
0
  3
AIGNBL0401000B
  0
LINE
  8
LAYER_4
 10
274.3947
 20
43.4044
 11
282.3947
 21
43.4044
  0
LINE
  8
LAYER_4
 10
282.3947
 20
43.4044
 11
282.3947
 21
31.9044
  0
LINE
  8
LAYER_4
 10
282.3947
 20
31.9044
 11
274.3947
 21
31.9044
  0
LINE
  8
LAYER_4
 10
274.3947
 20
31.9044
 11
274.3947
 21
43.4044
  0
ENDBLK
  0
BLOCK
  8
LAYER_4
  2
AIGNBL0401000C
 70
64
 10
0
 20
0
 30
0
  3
AIGNBL0401000C
  0
LINE
  8
LAYER_4
 10
282.3947
 20
43.4044
 11
284.3947
 21
43.4044
  0
LINE
  8
LAYER_4
 10
284.3947
 20
43.4044
 11
284.3947
 21
31.9044
  0
LINE
  8
LAYER_4
 10
284.3947
 20
31.9044
 11
282.3947
 21
31.9044
  0
LINE
  8
LAYER_4
 10
282.3947
 20
31.9044
 11
282.3947
 21
43.4044
  0
ENDBLK
  0
BLOCK
  8
LAYER_4
  2
AIGNBL0401000D
 70
64
 10
0
 20
0
 30
0
  3
AIGNBL0401000D
  0
LINE
  8
LAYER_4
 10
284.3947
 20
43.4044
 11
292.3947
 21
43.4044
  0
LINE
  8
LAYER_4
 10
292.3947
 20
43.4044
 11
292.3947
 21
31.9044
  0
LINE
  8
LAYER_4
 10
292.3947
 20
31.9044
 11
284.3947
 21
31.9044
  0
LINE
  8
LAYER_4
 10
284.3947
 20
31.9044
 11
284.3947
 21
43.4044
  0
ENDBLK
  0
BLOCK
  8
LAYER_4
  2
AIGNBL0401000E
 70
64
 10
0
 20
0
 30
0
  3
AIGNBL0401000E
  0
LINE
  8
LAYER_4
 10
292.3947
 20
43.4044
 11
294.3947
 21
43.4044
  0
LINE
  8
LAYER_4
 10
294.3947
 20
43.4044
 11
294.3947
 21
31.9044
  0
LINE
  8
LAYER_4
 10
294.3947
 20
31.9044
 11
292.3947
 21
31.9044
  0
LINE
  8
LAYER_4
 10
292.3947
 20
31.9044
 11
292.3947
 21
43.4044
  0
ENDBLK
  0
BLOCK
  8
LAYER_4
  2
AIGNBL0401000F
 70
64
 10
0
 20
0
 30
0
  3
AIGNBL0401000F
  0
LINE
  8
LAYER_4
 10
294.3947
 20
43.4044
 11
302.3947
 21
43.4044
  0
LINE
  8
LAYER_4
 10
302.3947
 20
43.4044
 11
302.3947
 21
31.9044
  0
LINE
  8
LAYER_4
 10
302.3947
 20
31.9044
 11
294.3947
 21
31.9044
  0
LINE
  8
LAYER_4
 10
294.3947
 20
31.9044
 11
294.3947
 21
43.4044
  0
ENDBLK
  0
BLOCK
  8
LAYER_4
  2
AIGNBL04010010
 70
64
 10
0
 20
0
 30
0
  3
AIGNBL04010010
  0
LINE
  8
LAYER_4
 10
302.3947
 20
43.4044
 11
304.3947
 21
43.4044
  0
LINE
  8
LAYER_4
 10
304.3947
 20
43.4044
 11
304.3947
 21
31.9044
  0
LINE
  8
LAYER_4
 10
304.3947
 20
31.9044
 11
302.3947
 21
31.9044
  0
LINE
  8
LAYER_4
 10
302.3947
 20
31.9044
 11
302.3947
 21
43.4044
  0
ENDBLK
  0
BLOCK
  8
LAYER_4
  2
AIGNBL04010011
 70
64
 10
0
 20
0
 30
0
  3
AIGNBL04010011
  0
LINE
  8
LAYER_4
 10
304.3947
 20
43.4044
 11
312.3947
 21
43.4044
  0
LINE
  8
LAYER_4
 10
312.3947
 20
43.4044
 11
312.3947
 21
31.9044
  0
LINE
  8
LAYER_4
 10
312.3947
 20
31.9044
 11
304.3947
 21
31.9044
  0
LINE
  8
LAYER_4
 10
304.3947
 20
31.9044
 11
304.3947
 21
43.4044
  0
ENDBLK
  0
BLOCK
  8
LAYER_4
  2
AIGNBL04010012
 70
64
 10
0
 20
0
 30
0
  3
AIGNBL04010012
  0
LINE
  8
LAYER_4
 10
312.3947
 20
43.4044
 11
314.3947
 21
43.4044
  0
LINE
  8
LAYER_4
 10
314.3947
 20
43.4044
 11
314.3947
 21
31.9044
  0
LINE
  8
LAYER_4
 10
314.3947
 20
31.9044
 11
312.3947
 21
31.9044
  0
LINE
  8
LAYER_4
 10
312.3947
 20
31.9044
 11
312.3947
 21
43.4044
  0
ENDBLK
  0
BLOCK
  8
LAYER_4
  2
AIGNBL04010013
 70
64
 10
0
 20
0
 30
0
  3
AIGNBL04010013
  0
LINE
  8
LAYER_4
 10
276.8947
 20
43.4044
 11
279.8947
 21
43.4044
  0
LINE
  8
LAYER_4
 10
279.8947
 20
43.4044
 11
279.8947
 21
44.6044
  0
LINE
  8
LAYER_4
 10
279.8947
 20
44.6044
 11
276.8947
 21
44.6044
  0
LINE
  8
LAYER_4
 10
276.8947
 20
44.6044
 11
276.8947
 21
43.4044
  0
ENDBLK
  0
BLOCK
  8
LAYER_4
  2
AIGNBL04010014
 70
64
 10
0
 20
0
 30
0
  3
AIGNBL04010014
  0
LINE
  8
LAYER_4
 10
286.8947
 20
43.4044
 11
289.8947
 21
43.4044
  0
LINE
  8
LAYER_4
 10
289.8947
 20
43.4044
 11
289.8947
 21
44.6044
  0
LINE
  8
LAYER_4
 10
289.8947
 20
44.6044
 11
286.8947
 21
44.6044
  0
LINE
  8
LAYER_4
 10
286.8947
 20
44.6044
 11
286.8947
 21
43.4044
  0
ENDBLK
  0
BLOCK
  8
LAYER_4
  2
AIGNBL04010015
 70
64
 10
0
 20
0
 30
0
  3
AIGNBL04010015
  0
LINE
  8
LAYER_4
 10
296.8947
 20
43.4044
 11
299.8947
 21
43.4044
  0
LINE
  8
LAYER_4
 10
299.8947
 20
43.4044
 11
299.8947
 21
44.6044
  0
LINE
  8
LAYER_4
 10
299.8947
 20
44.6044
 11
296.8947
 21
44.6044
  0
LINE
  8
LAYER_4
 10
296.8947
 20
44.6044
 11
296.8947
 21
43.4044
  0
ENDBLK
  0
BLOCK
  8
LAYER_4
  2
AIGNBL04010016
 70
64
 10
0
 20
0
 30
0
  3
AIGNBL04010016
  0
LINE
  8
LAYER_4
 10
306.8947
 20
43.4044
 11
309.8947
 21
43.4044
  0
LINE
  8
LAYER_4
 10
309.8947
 20
43.4044
 11
309.8947
 21
44.6044
  0
LINE
  8
LAYER_4
 10
309.8947
 20
44.6044
 11
306.8947
 21
44.6044
  0
LINE
  8
LAYER_4
 10
306.8947
 20
44.6044
 11
306.8947
 21
43.4044
  0
ENDBLK
  0
BLOCK
  8
LAYER_4
  2
AIGNBL04010017
 70
64
 10
0
 20
0
 30
0
  3
AIGNBL04010017
  0
LINE
  8
LAYER_4
 10
272.3947
 20
31.9044
 11
274.3947
 21
31.9044
  0
LINE
  8
LAYER_4
 10
274.3947
 20
31.9044
 11
274.3947
 21
33.9044
  0
LINE
  8
LAYER_4
 10
274.3947
 20
33.9044
 11
272.3947
 21
33.9044
  0
LINE
  8
LAYER_4
 10
272.3947
 20
33.9044
 11
272.3947
 21
31.9044
  0
ENDBLK
  0
BLOCK
  8
LAYER_4
  2
AIGNBL04010018
 70
64
 10
0
 20
0
 30
0
  3
AIGNBL04010018
  0
LINE
  8
LAYER_4
 10
282.3947
 20
31.9044
 11
284.3947
 21
31.9044
  0
LINE
  8
LAYER_4
 10
284.3947
 20
31.9044
 11
284.3947
 21
33.9044
  0
LINE
  8
LAYER_4
 10
284.3947
 20
33.9044
 11
282.3947
 21
33.9044
  0
LINE
  8
LAYER_4
 10
282.3947
 20
33.9044
 11
282.3947
 21
31.9044
  0
ENDBLK
  0
BLOCK
  8
LAYER_4
  2
AIGNBL04010019
 70
64
 10
0
 20
0
 30
0
  3
AIGNBL04010019
  0
LINE
  8
LAYER_4
 10
292.3947
 20
31.9044
 11
294.3947
 21
31.9044
  0
LINE
  8
LAYER_4
 10
294.3947
 20
31.9044
 11
294.3947
 21
33.9044
  0
LINE
  8
LAYER_4
 10
294.3947
 20
33.9044
 11
292.3947
 21
33.9044
  0
LINE
  8
LAYER_4
 10
292.3947
 20
33.9044
 11
292.3947
 21
31.9044
  0
ENDBLK
  0
BLOCK
  8
LAYER_4
  2
AIGNBL0401001A
 70
64
 10
0
 20
0
 30
0
  3
AIGNBL0401001A
  0
LINE
  8
LAYER_4
 10
302.3947
 20
31.9044
 11
304.3947
 21
31.9044
  0
LINE
  8
LAYER_4
 10
304.3947
 20
31.9044
 11
304.3947
 21
33.9044
  0
LINE
  8
LAYER_4
 10
304.3947
 20
33.9044
 11
302.3947
 21
33.9044
  0
LINE
  8
LAYER_4
 10
302.3947
 20
33.9044
 11
302.3947
 21
31.9044
  0
ENDBLK
  0
BLOCK
  8
LAYER_4
  2
AIGNBL0401001B
 70
64
 10
0
 20
0
 30
0
  3
AIGNBL0401001B
  0
LINE
  8
LAYER_4
 10
312.3947
 20
31.9044
 11
314.3947
 21
31.9044
  0
LINE
  8
LAYER_4
 10
314.3947
 20
31.9044
 11
314.3947
 21
33.9044
  0
LINE
  8
LAYER_4
 10
314.3947
 20
33.9044
 11
312.3947
 21
33.9044
  0
LINE
  8
LAYER_4
 10
312.3947
 20
33.9044
 11
312.3947
 21
31.9044
  0
ENDBLK
  0
BLOCK
  8
LAYER_4
  2
AIGNBL0401001C
 70
64
 10
0
 20
0
 30
0
  3
AIGNBL0401001C
  0
ARC
  8
LAYER_4
 10
278.3947
 20
38.4044
 40
3
 50
90.00002228
 51
179.9999777
  0
ARC
  8
LAYER_4
 10
278.3947
 20
38.4044
 40
3
 50
0.0008769198005
 51
89.99912307
  0
ARC
  8
LAYER_4
 10
278.3947
 20
38.4044
 40
3
 50
269.9999778
 51
2.224339394e-005
  0
ARC
  8
LAYER_4
 10
278.3947
 20
38.4044
 40
3
 50
179.999123
 51
270.000877
  0
ENDBLK
  0
BLOCK
  8
LAYER_4
  2
AIGNBL0401001D
 70
64
 10
0
 20
0
 30
0
  3
AIGNBL0401001D
  0
ENDBLK
  0
BLOCK
  8
LAYER_4
  2
AIGNBL0401001E
 70
64
 10
0
 20
0
 30
0
  3
AIGNBL0401001E
  0
LINE
  8
LAYER_4
 10
282.3947
 20
42.4044
 11
274.3947
 21
42.4044
  0
LINE
  8
LAYER_4
 10
274.3947
 20
42.4044
 11
274.3947
 21
34.4044
  0
LINE
  8
LAYER_4
 10
274.3947
 20
34.4044
 11
282.3947
 21
34.4044
  0
LINE
  8
LAYER_4
 10
282.3947
 20
34.4044
 11
282.3947
 21
42.4044
  0
ENDBLK
  0
BLOCK
  8
LAYER_4
  2
AIGNBL0401001F
 70
64
 10
0
 20
0
 30
0
  3
AIGNBL0401001F
  0
LINE
  8
LAYER_4
 10
278.8947
 20
38.9044
 11
278.8947
 21
39.9044
  0
LINE
  8
LAYER_4
 10
278.8947
 20
39.9044
 11
277.8947
 21
39.9044
  0
LINE
  8
LAYER_4
 10
277.8947
 20
39.9044
 11
277.8947
 21
38.9044
  0
ENDBLK
  0
BLOCK
  8
LAYER_4
  2
AIGNBL04010020
 70
64
 10
0
 20
0
 30
0
  3
AIGNBL04010020
  0
LINE
  8
LAYER_4
 10
277.8947
 20
37.9044
 11
277.8947
 21
36.9044
  0
LINE
  8
LAYER_4
 10
277.8947
 20
36.9044
 11
278.8947
 21
36.9044
  0
LINE
  8
LAYER_4
 10
278.8947
 20
36.9044
 11
278.8947
 21
37.9044
  0
ENDBLK
  0
BLOCK
  8
LAYER_4
  2
AIGNBL04010021
 70
64
 10
0
 20
0
 30
0
  3
AIGNBL04010021
  0
LINE
  8
LAYER_4
 10
278.8947
 20
38.9044
 11
279.8947
 21
38.9044
  0
LINE
  8
LAYER_4
 10
279.8947
 20
38.9044
 11
279.8947
 21
37.9044
  0
LINE
  8
LAYER_4
 10
279.8947
 20
37.9044
 11
278.8947
 21
37.9044
  0
ENDBLK
  0
BLOCK
  8
LAYER_4
  2
AIGNBL04010022
 70
64
 10
0
 20
0
 30
0
  3
AIGNBL04010022
  0
LINE
  8
LAYER_4
 10
277.8947
 20
37.9044
 11
276.8947
 21
37.9044
  0
LINE
  8
LAYER_4
 10
276.8947
 20
37.9044
 11
276.8947
 21
38.9044
  0
LINE
  8
LAYER_4
 10
276.8947
 20
38.9044
 11
277.8947
 21
38.9044
  0
ENDBLK
  0
BLOCK
  8
LAYER_4
  2
AIGNBL04010023
 70
64
 10
0
 20
0
 30
0
  3
AIGNBL04010023
  0
ARC
  8
LAYER_4
 10
288.3947
 20
38.4044
 40
3
 50
90.00002231
 51
179.9999777
  0
ARC
  8
LAYER_4
 10
288.3947
 20
38.4044
 40
3
 50
0.0008768959308
 51
89.99912309
  0
ARC
  8
LAYER_4
 10
288.3947
 20
38.4044
 40
3
 50
269.9999777
 51
2.226726509e-005
  0
ARC
  8
LAYER_4
 10
288.3947
 20
38.4044
 40
3
 50
179.9991231
 51
270.0008769
  0
ENDBLK
  0
BLOCK
  8
LAYER_4
  2
AIGNBL04010024
 70
64
 10
0
 20
0
 30
0
  3
AIGNBL04010024
  0
LINE
  8
LAYER_4
 10
292.3947
 20
42.4044
 11
284.3947
 21
42.4044
  0
LINE
  8
LAYER_4
 10
284.3947
 20
42.4044
 11
284.3947
 21
34.4044
  0
LINE
  8
LAYER_4
 10
284.3947
 20
34.4044
 11
292.3947
 21
34.4044
  0
LINE
  8
LAYER_4
 10
292.3947
 20
34.4044
 11
292.3947
 21
42.4044
  0
ENDBLK
  0
BLOCK
  8
LAYER_4
  2
AIGNBL04010025
 70
64
 10
0
 20
0
 30
0
  3
AIGNBL04010025
  0
LINE
  8
LAYER_4
 10
288.8947
 20
38.9044
 11
288.8947
 21
39.9044
  0
LINE
  8
LAYER_4
 10
288.8947
 20
39.9044
 11
287.8947
 21
39.9044
  0
LINE
  8
LAYER_4
 10
287.8947
 20
39.9044
 11
287.8947
 21
38.9044
  0
ENDBLK
  0
BLOCK
  8
LAYER_4
  2
AIGNBL04010026
 70
64
 10
0
 20
0
 30
0
  3
AIGNBL04010026
  0
LINE
  8
LAYER_4
 10
287.8947
 20
37.9044
 11
287.8947
 21
36.9044
  0
LINE
  8
LAYER_4
 10
287.8947
 20
36.9044
 11
288.8947
 21
36.9044
  0
LINE
  8
LAYER_4
 10
288.8947
 20
36.9044
 11
288.8947
 21
37.9044
  0
ENDBLK
  0
BLOCK
  8
LAYER_4
  2
AIGNBL04010027
 70
64
 10
0
 20
0
 30
0
  3
AIGNBL04010027
  0
LINE
  8
LAYER_4
 10
288.8947
 20
38.9044
 11
289.8947
 21
38.9044
  0
LINE
  8
LAYER_4
 10
289.8947
 20
38.9044
 11
289.8947
 21
37.9044
  0
LINE
  8
LAYER_4
 10
289.8947
 20
37.9044
 11
288.8947
 21
37.9044
  0
ENDBLK
  0
BLOCK
  8
LAYER_4
  2
AIGNBL04010028
 70
64
 10
0
 20
0
 30
0
  3
AIGNBL04010028
  0
LINE
  8
LAYER_4
 10
287.8947
 20
37.9044
 11
286.8947
 21
37.9044
  0
LINE
  8
LAYER_4
 10
286.8947
 20
37.9044
 11
286.8947
 21
38.9044
  0
LINE
  8
LAYER_4
 10
286.8947
 20
38.9044
 11
287.8947
 21
38.9044
  0
ENDBLK
  0
BLOCK
  8
LAYER_4
  2
AIGNBL04010029
 70
64
 10
0
 20
0
 30
0
  3
AIGNBL04010029
  0
ARC
  8
LAYER_4
 10
298.3947
 20
38.4044
 40
3
 50
90.00002233
 51
179.9999776
  0
ARC
  8
LAYER_4
 10
298.3947
 20
38.4044
 40
3
 50
0.0008768720548
 51
89.99912312
  0
ARC
  8
LAYER_4
 10
298.3947
 20
38.4044
 40
3
 50
269.9999777
 51
2.229114265e-005
  0
ARC
  8
LAYER_4
 10
298.3947
 20
38.4044
 40
3
 50
179.9991231
 51
270.0008769
  0
ENDBLK
  0
BLOCK
  8
LAYER_4
  2
AIGNBL0401002A
 70
64
 10
0
 20
0
 30
0
  3
AIGNBL0401002A
  0
LINE
  8
LAYER_4
 10
302.3947
 20
42.4044
 11
294.3947
 21
42.4044
  0
LINE
  8
LAYER_4
 10
294.3947
 20
42.4044
 11
294.3947
 21
34.4044
  0
LINE
  8
LAYER_4
 10
294.3947
 20
34.4044
 11
302.3947
 21
34.4044
  0
LINE
  8
LAYER_4
 10
302.3947
 20
34.4044
 11
302.3947
 21
42.4044
  0
ENDBLK
  0
BLOCK
  8
LAYER_4
  2
AIGNBL0401002B
 70
64
 10
0
 20
0
 30
0
  3
AIGNBL0401002B
  0
ARC
  8
LAYER_4
 10
308.3947
 20
38.4044
 40
3
 50
90.00002235
 51
179.9999776
  0
ARC
  8
LAYER_4
 10
308.3947
 20
38.4044
 40
3
 50
0.0008768481913
 51
89.99912314
  0
ARC
  8
LAYER_4
 10
308.3947
 20
38.4044
 40
3
 50
269.9999777
 51
2.231500767e-005
  0
ARC
  8
LAYER_4
 10
308.3947
 20
38.4044
 40
3
 50
179.9991231
 51
270.0008769
  0
ENDBLK
  0
BLOCK
  8
LAYER_4
  2
AIGNBL0401002C
 70
64
 10
0
 20
0
 30
0
  3
AIGNBL0401002C
  0
LINE
  8
LAYER_4
 10
312.3947
 20
42.4044
 11
304.3947
 21
42.4044
  0
LINE
  8
LAYER_4
 10
304.3947
 20
42.4044
 11
304.3947
 21
34.4044
  0
LINE
  8
LAYER_4
 10
304.3947
 20
34.4044
 11
312.3947
 21
34.4044
  0
LINE
  8
LAYER_4
 10
312.3947
 20
34.4044
 11
312.3947
 21
42.4044
  0
ENDBLK
  0
BLOCK
  8
LAYER_4
  2
AIGNBL0401002D
 70
64
 10
0
 20
0
 30
0
  3
AIGNBL0401002D
  0
LINE
  8
LAYER_4
 10
308.8947
 20
38.9044
 11
308.8947
 21
39.9044
  0
LINE
  8
LAYER_4
 10
308.8947
 20
39.9044
 11
307.8947
 21
39.9044
  0
LINE
  8
LAYER_4
 10
307.8947
 20
39.9044
 11
307.8947
 21
38.9044
  0
ENDBLK
  0
BLOCK
  8
LAYER_4
  2
AIGNBL0401002E
 70
64
 10
0
 20
0
 30
0
  3
AIGNBL0401002E
  0
LINE
  8
LAYER_4
 10
307.8947
 20
37.9044
 11
307.8947
 21
36.9044
  0
LINE
  8
LAYER_4
 10
307.8947
 20
36.9044
 11
308.8947
 21
36.9044
  0
LINE
  8
LAYER_4
 10
308.8947
 20
36.9044
 11
308.8947
 21
37.9044
  0
ENDBLK
  0
BLOCK
  8
LAYER_4
  2
AIGNBL0401002F
 70
64
 10
0
 20
0
 30
0
  3
AIGNBL0401002F
  0
LINE
  8
LAYER_4
 10
308.8947
 20
38.9044
 11
309.8947
 21
38.9044
  0
LINE
  8
LAYER_4
 10
309.8947
 20
38.9044
 11
309.8947
 21
37.9044
  0
LINE
  8
LAYER_4
 10
309.8947
 20
37.9044
 11
308.8947
 21
37.9044
  0
ENDBLK
  0
BLOCK
  8
LAYER_4
  2
AIGNBL04010030
 70
64
 10
0
 20
0
 30
0
  3
AIGNBL04010030
  0
LINE
  8
LAYER_4
 10
307.8947
 20
37.9044
 11
306.8947
 21
37.9044
  0
LINE
  8
LAYER_4
 10
306.8947
 20
37.9044
 11
306.8947
 21
38.9044
  0
LINE
  8
LAYER_4
 10
306.8947
 20
38.9044
 11
307.8947
 21
38.9044
  0
ENDBLK
  0
BLOCK
  8
LAYER_4
  2
AIGNBL04010031
 70
64
 10
0
 20
0
 30
0
  3
AIGNBL04010031
  0
LINE
  8
LAYER_4
 10
354.9903
 20
106.9044
 11
384.9903
 21
106.9044
  0
LINE
  8
LAYER_4
 10
384.9903
 20
106.9044
 11
384.9903
 21
31.9044
  0
LINE
  8
LAYER_4
 10
384.9903
 20
31.9044
 11
354.9903
 21
31.9044
  0
LINE
  8
LAYER_4
 10
354.9903
 20
31.9044
 11
354.9903
 21
106.9044
  0
ENDBLK
  0
BLOCK
  8
LAYER_4
  2
AIGNBL04010032
 70
64
 10
0
 20
0
 30
0
  3
AIGNBL04010032
  0
LINE
  8
LAYER_4
 10
393.9903
 20
104.4044
 11
393.9903
 21
89.9044
  0
ENDBLK
  0
BLOCK
  8
LAYER_4
  2
AIGNBL04010033
 70
64
 10
0
 20
0
 30
0
  3
AIGNBL04010033
  0
LINE
  8
LAYER_4
 10
393.9903
 20
34.4044
 11
393.9903
 21
48.9044
  0
ENDBLK
  0
BLOCK
  8
LAYER_4
  2
AIGNBL04010034
 70
64
 10
0
 20
0
 30
0
  3
AIGNBL04010034
  0
LINE
  8
LAYER_4
 10
391.1903
 20
87.0044
 11
393.5903
 21
87.0044
  0
ENDBLK
  0
BLOCK
  8
LAYER_4
  2
AIGNBL04010035
 70
64
 10
0
 20
0
 30
0
  3
AIGNBL04010035
  0
LINE
  8
LAYER_4
 10
393.5903
 20
87.0044
 11
393.9903
 21
89.9044
  0
ENDBLK
  0
BLOCK
  8
LAYER_4
  2
AIGNBL04010036
 70
64
 10
0
 20
0
 30
0
  3
AIGNBL04010036
  0
LINE
  8
LAYER_4
 10
393.9903
 20
34.4044
 11
393.9903
 21
48.9044
  0
ENDBLK
  0
BLOCK
  8
LAYER_4
  2
AIGNBL04010037
 70
64
 10
0
 20
0
 30
0
  3
AIGNBL04010037
  0
LINE
  8
LAYER_4
 10
391.1903
 20
87.0044
 11
391.1903
 21
52.0044
  0
ENDBLK
  0
BLOCK
  8
LAYER_4
  2
AIGNBL04010038
 70
64
 10
0
 20
0
 30
0
  3
AIGNBL04010038
  0
LINE
  8
LAYER_4
 10
391.1903
 20
52.0044
 11
393.9903
 21
48.9044
  0
ENDBLK
  0
BLOCK
  8
LAYER_4
  2
AIGNBL04010039
 70
64
 10
0
 20
0
 30
0
  3
AIGNBL04010039
  0
LINE
  8
LAYER_4
 10
393.9903
 20
104.4044
 11
384.9903
 21
104.4044
  0
ENDBLK
  0
BLOCK
  8
LAYER_4
  2
AIGNBL0401003A
 70
64
 10
0
 20
0
 30
0
  3
AIGNBL0401003A
  0
LINE
  8
LAYER_4
 10
393.9903
 20
34.4044
 11
385.0107
 21
34.4044
  0
ENDBLK
  0
ENDSEC
  0
SECTION
  2
ENTITIES
  0
INSERT
  8
LAYER_1
  2
AIGNBL01010002
 10
0
 20
0
 30
0
  0
TEXT
  8
LAYER_1
 10
348.9088
 20
-30.5741
 11
348.9088
 21
-30.5741
 40
3.1044
 41
0.5
 72
1
  1
品名
  0
TEXT
  8
LAYER_1
 10
348.9088
 20
-35.2308
 11
348.9088
 21
-35.2308
 40
3.1044
 41
0.5
 72
1
  1
PRODUCT
  0
TEXT
  8
LAYER_1
 10
414.219
 20
-30.5741
 11
414.219
 21
-30.5741
 40
3.1044
 41
0.5
 72
1
  1
型式
  0
TEXT
  8
LAYER_1
 10
414.219
 20
-35.2308
 11
414.219
 21
-35.2308
 40
3.1044
 41
0.5
 72
1
  1
TYPE
  0
TEXT
  8
LAYER_1
 10
414.219
 20
-40.4516
 11
414.219
 21
-40.4516
 40
3.1044
 41
0.5
 72
1
  1
単位
  0
TEXT
  8
LAYER_1
 10
414.219
 20
-45.1084
 11
414.219
 21
-45.1084
 40
3.1044
 41
0.5
 72
1
  1
UNIT
  0
TEXT
  8
LAYER_1
 10
414.219
 20
-60.5799
 11
414.219
 21
-60.5799
 40
3.4815
 41
0.5
 72
1
  1
設計
  0
TEXT
  8
LAYER_1
 10
414.2191
 20
-65.802
 11
414.2191
 21
-65.802
 40
3.4815
 41
0.5
 72
1
  1
DESIGNED
  0
TEXT
  8
LAYER_1
 10
349.219
 20
-40.4517
 11
349.219
 21
-40.4517
 40
3.1044
 41
0.5
 72
1
  1
寸法
  0
TEXT
  8
LAYER_1
 10
349.219
 20
-45.1085
 11
349.219
 21
-45.1085
 40
3.1044
 41
0.5
 72
1
  1
SIZE
  0
TEXT
  8
LAYER_1
 10
349.219
 20
-60.5801
 11
349.219
 21
-60.5801
 40
3.1044
 41
0.5
 72
1
  1
材質
  0
TEXT
  8
LAYER_1
 10
349.219
 20
-65.2368
 11
349.219
 21
-65.2368
 40
3.1044
 41
0.5
 72
1
  1
MATERIAL
  0
TEXT
  8
LAYER_1
 10
349.7268
 20
-50.452
 11
349.7268
 21
-50.452
 40
3.1044
 41
0.5
 72
1
  1
ネジ
  0
TEXT
  8
LAYER_1
 10
349.219
 20
-55.1087
 11
349.219
 21
-55.1087
 40
3.1044
 41
0.5
 72
1
  1
SCREW
  0
TEXT
  8
LAYER_1
 10
413.9088
 20
-50.4519
 11
413.9088
 21
-50.4519
 40
3.1044
 41
0.5
 72
1
  1
日付
  0
TEXT
  8
LAYER_1
 10
413.9088
 20
-55.1086
 11
413.9088
 21
-55.1086
 40
3.1044
 41
0.5
 72
1
  1
DATE
  0
TEXT
  8
LAYER_1
 10
380.3575
 20
-43.2231
 11
380.3575
 21
-43.2231
 40
3.6689
 41
0.5
 72
1
  1
W50×H75×D39
  0
TEXT
  8
LAYER_1
 10
446.7193
 20
-43.2231
 11
446.7193
 21
-43.2231
 40
3.6689
 41
0.5
 72
1
  1
mm
  0
TEXT
  8
LAYER_1
 10
446.7193
 20
-33.2231
 11
446.7193
 21
-33.2231
 40
3.6689
 41
0.5
 72
1
  1
NR-TEL
  0
TEXT
  8
LAYER_1
 10
446.7193
 20
-53.2231
 11
446.7193
 21
-53.2231
 40
3.6689
 41
0.5
 72
1
  1
2017.07.24
  0
TEXT
  8
LAYER_1
 10
446.719
 20
-63.2231
 11
446.719
 21
-63.2231
 40
3.6689
 41
0.5
 72
1
  1
戸森 幹二
  0
TEXT
  8
LAYER_1
 10
381.7193
 20
-63.2231
 11
381.7193
 21
-63.2231
 40
3.6689
 41
0.5
 72
1
  1
ABS 黒
  0
TEXT
  8
LAYER_1
 10
381.7193
 20
-30.8515
 11
381.7193
 21
-30.8515
 40
3.1044
 41
0.5
 72
1
  1
電話回線用
  0
TEXT
  8
LAYER_1
 10
383.5683
 20
-35.5083
 11
383.5683
 21
-35.5083
 40
3.1044
 41
0.5
 72
1
  1
モリブデン避雷器
  0
TEXT
  8
LAYER_1
 10
383.9476
 20
-50.8515
 11
383.9476
 21
-50.8515
 40
3.1044
 41
0.5
 72
1
  1
黄銅 ニッケルメッキ
  0
TEXT
  8
LAYER_1
 10
381.7193
 20
-55.5083
 11
381.7193
 21
-55.5083
 40
3.1044
 41
0.5
 72
1
  1
M3.5
  0
INSERT
  8
LAYER_1
  2
AIGNBL01010003
 10
0
 20
0
 30
0
  0
INSERT
  8
LAYER_1
  2
AIGNBL0101000A
 10
0
 20
0
 30
0
  0
INSERT
  8
LAYER_2
  2
AIGNBL02010002
 10
0
 20
0
 30
0
  0
INSERT
  8
LAYER_2
  2
AIGNBL02010003
 10
0
 20
0
 30
0
  0
INSERT
  8
LAYER_2
  2
AIGNBL02010004
 10
0
 20
0
 30
0
  0
INSERT
  8
LAYER_2
  2
AIGNBL02010005
 10
0
 20
0
 30
0
  0
INSERT
  8
LAYER_2
  2
AIGNBL02010006
 10
0
 20
0
 30
0
  0
INSERT
  8
LAYER_2
  2
AIGNBL02010007
 10
0
 20
0
 30
0
  0
INSERT
  8
LAYER_2
  2
AIGNBL02010008
 10
0
 20
0
 30
0
  0
INSERT
  8
LAYER_2
  2
AIGNBL02010009
 10
0
 20
0
 30
0
  0
INSERT
  8
LAYER_2
  2
AIGNBL0201000A
 10
0
 20
0
 30
0
  0
INSERT
  8
LAYER_2
  2
AIGNBL0201000B
 10
0
 20
0
 30
0
  0
INSERT
  8
LAYER_2
  2
AIGNBL0201000C
 10
0
 20
0
 30
0
  0
INSERT
  8
LAYER_2
  2
AIGNBL0201000D
 10
0
 20
0
 30
0
  0
INSERT
  8
LAYER_2
  2
AIGNBL0201000E
 10
0
 20
0
 30
0
  0
INSERT
  8
LAYER_2
  2
AIGNBL0201000F
 10
0
 20
0
 30
0
  0
INSERT
  8
LAYER_2
  2
AIGNBL02010010
 10
0
 20
0
 30
0
  0
INSERT
  8
LAYER_2
  2
AIGNBL02010011
 10
0
 20
0
 30
0
  0
INSERT
  8
LAYER_2
  2
AIGNBL02010012
 10
0
 20
0
 30
0
  0
INSERT
  8
LAYER_2
  2
AIGNBL02010013
 10
0
 20
0
 30
0
  0
INSERT
  8
LAYER_2
  2
AIGNBL02010014
 10
0
 20
0
 30
0
  0
INSERT
  8
LAYER_2
  2
AIGNBL02010015
 10
0
 20
0
 30
0
  0
INSERT
  8
LAYER_2
  2
AIGNBL02010016
 10
0
 20
0
 30
0
  0
INSERT
  8
LAYER_2
  2
AIGNBL02010017
 10
0
 20
0
 30
0
  0
INSERT
  8
LAYER_2
  2
AIGNBL02010018
 10
0
 20
0
 30
0
  0
INSERT
  8
LAYER_2
  2
AIGNBL02010019
 10
0
 20
0
 30
0
  0
INSERT
  8
LAYER_2
  2
AIGNBL0201001A
 10
0
 20
0
 30
0
  0
INSERT
  8
LAYER_2
  2
AIGNBL0201001B
 10
0
 20
0
 30
0
  0
INSERT
  8
LAYER_2
  2
AIGNBL0201001C
 10
0
 20
0
 30
0
  0
INSERT
  8
LAYER_2
  2
AIGNBL0201001D
 10
0
 20
0
 30
0
  0
INSERT
  8
LAYER_2
  2
AIGNBL0201001E
 10
0
 20
0
 30
0
  0
INSERT
  8
LAYER_2
  2
AIGNBL0201001F
 10
0
 20
0
 30
0
  0
INSERT
  8
LAYER_2
  2
AIGNBL02010020
 10
0
 20
0
 30
0
  0
INSERT
  8
LAYER_2
  2
AIGNBL02010021
 10
0
 20
0
 30
0
  0
INSERT
  8
LAYER_2
  2
AIGNBL02010022
 10
0
 20
0
 30
0
  0
INSERT
  8
LAYER_2
  2
AIGNBL02010023
 10
0
 20
0
 30
0
  0
INSERT
  8
LAYER_2
  2
AIGNBL02010024
 10
0
 20
0
 30
0
  0
INSERT
  8
LAYER_2
  2
AIGNBL02010025
 10
0
 20
0
 30
0
  0
INSERT
  8
LAYER_2
  2
AIGNBL02010026
 10
0
 20
0
 30
0
  0
INSERT
  8
LAYER_2
  2
AIGNBL02010027
 10
0
 20
0
 30
0
  0
INSERT
  8
LAYER_2
  2
AIGNBL02010028
 10
0
 20
0
 30
0
  0
INSERT
  8
LAYER_2
  2
AIGNBL02010029
 10
0
 20
0
 30
0
  0
INSERT
  8
LAYER_2
  2
AIGNBL0201002A
 10
0
 20
0
 30
0
  0
INSERT
  8
LAYER_2
  2
AIGNBL0201002B
 10
0
 20
0
 30
0
  0
INSERT
  8
LAYER_2
  2
AIGNBL0201002C
 10
0
 20
0
 30
0
  0
INSERT
  8
LAYER_2
  2
AIGNBL0201002D
 10
0
 20
0
 30
0
  0
INSERT
  8
LAYER_2
  2
AIGNBL0201002E
 10
0
 20
0
 30
0
  0
INSERT
  8
LAYER_2
  2
AIGNBL0201002F
 10
0
 20
0
 30
0
  0
INSERT
  8
LAYER_2
  2
AIGNBL02010030
 10
0
 20
0
 30
0
  0
INSERT
  8
LAYER_2
  2
AIGNBL02010031
 10
0
 20
0
 30
0
  0
INSERT
  8
LAYER_2
  2
AIGNBL02010032
 10
0
 20
0
 30
0
  0
INSERT
  8
LAYER_2
  2
AIGNBL02010033
 10
0
 20
0
 30
0
  0
INSERT
  8
LAYER_2
  2
AIGNBL02010034
 10
0
 20
0
 30
0
  0
INSERT
  8
LAYER_2
  2
AIGNBL02010035
 10
0
 20
0
 30
0
  0
INSERT
  8
LAYER_2
  2
AIGNBL02010036
 10
0
 20
0
 30
0
  0
INSERT
  8
LAYER_2
  2
AIGNBL02010037
 10
0
 20
0
 30
0
  0
INSERT
  8
LAYER_2
  2
AIGNBL02010038
 10
0
 20
0
 30
0
  0
INSERT
  8
LAYER_2
  2
AIGNBL02010039
 10
0
 20
0
 30
0
  0
INSERT
  8
LAYER_2
  2
AIGNBL0201003A
 10
0
 20
0
 30
0
  0
INSERT
  8
LAYER_2
  2
AIGNBL0201003B
 10
0
 20
0
 30
0
  0
INSERT
  8
LAYER_2
  2
AIGNBL0201003C
 10
0
 20
0
 30
0
  0
INSERT
  8
LAYER_2
  2
AIGNBL0201003D
 10
0
 20
0
 30
0
  0
INSERT
  8
LAYER_2
  2
AIGNBL0201003E
 10
0
 20
0
 30
0
  0
INSERT
  8
LAYER_2
  2
AIGNBL0201003F
 10
0
 20
0
 30
0
  0
INSERT
  8
LAYER_2
  2
AIGNBL02010040
 10
0
 20
0
 30
0
  0
INSERT
  8
LAYER_2
  2
AIGNBL02010041
 10
0
 20
0
 30
0
  0
INSERT
  8
LAYER_2
  2
AIGNBL02010042
 10
0
 20
0
 30
0
  0
INSERT
  8
LAYER_2
  2
AIGNBL02010043
 10
0
 20
0
 30
0
  0
INSERT
  8
LAYER_2
  2
AIGNBL02010044
 10
0
 20
0
 30
0
  0
INSERT
  8
LAYER_2
  2
AIGNBL02010045
 10
0
 20
0
 30
0
  0
INSERT
  8
LAYER_2
  2
AIGNBL02010046
 10
0
 20
0
 30
0
  0
INSERT
  8
LAYER_2
  2
AIGNBL02010047
 10
0
 20
0
 30
0
  0
INSERT
  8
LAYER_2
  2
AIGNBL02010048
 10
0
 20
0
 30
0
  0
INSERT
  8
LAYER_2
  2
AIGNBL02010049
 10
0
 20
0
 30
0
  0
INSERT
  8
LAYER_2
  2
AIGNBL0201004A
 10
0
 20
0
 30
0
  0
INSERT
  8
LAYER_2
  2
AIGNBL0201004B
 10
0
 20
0
 30
0
  0
INSERT
  8
LAYER_2
  2
AIGNBL0201004C
 10
0
 20
0
 30
0
  0
INSERT
  8
LAYER_2
  2
AIGNBL0201004D
 10
0
 20
0
 30
0
  0
INSERT
  8
LAYER_2
  2
AIGNBL0201004E
 10
0
 20
0
 30
0
  0
INSERT
  8
LAYER_2
  2
AIGNBL0201004F
 10
0
 20
0
 30
0
  0
INSERT
  8
LAYER_2
  2
AIGNBL02010050
 10
0
 20
0
 30
0
  0
INSERT
  8
LAYER_2
  2
AIGNBL02010051
 10
0
 20
0
 30
0
  0
INSERT
  8
LAYER_2
  2
AIGNBL02010052
 10
0
 20
0
 30
0
  0
INSERT
  8
LAYER_2
  2
AIGNBL02010053
 10
0
 20
0
 30
0
  0
INSERT
  8
LAYER_2
  2
AIGNBL02010054
 10
0
 20
0
 30
0
  0
INSERT
  8
LAYER_2
  2
AIGNBL02010055
 10
0
 20
0
 30
0
  0
INSERT
  8
LAYER_2
  2
AIGNBL02010056
 10
0
 20
0
 30
0
  0
INSERT
  8
LAYER_2
  2
AIGNBL02010057
 10
0
 20
0
 30
0
  0
INSERT
  8
LAYER_2
  2
AIGNBL02010058
 10
0
 20
0
 30
0
  0
INSERT
  8
LAYER_2
  2
AIGNBL02010059
 10
0
 20
0
 30
0
  0
INSERT
  8
LAYER_2
  2
AIGNBL0201005A
 10
0
 20
0
 30
0
  0
INSERT
  8
LAYER_2
  2
AIGNBL0201005B
 10
0
 20
0
 30
0
  0
INSERT
  8
LAYER_2
  2
AIGNBL0201005C
 10
0
 20
0
 30
0
  0
INSERT
  8
LAYER_2
  2
AIGNBL0201005D
 10
0
 20
0
 30
0
  0
INSERT
  8
LAYER_2
  2
AIGNBL0201005E
 10
0
 20
0
 30
0
  0
INSERT
  8
LAYER_2
  2
AIGNBL0201005F
 10
0
 20
0
 30
0
  0
INSERT
  8
LAYER_2
  2
AIGNBL02010060
 10
0
 20
0
 30
0
  0
INSERT
  8
LAYER_2
  2
AIGNBL02010061
 10
0
 20
0
 30
0
  0
INSERT
  8
LAYER_2
  2
AIGNBL02010062
 10
0
 20
0
 30
0
  0
INSERT
  8
LAYER_2
  2
AIGNBL02010063
 10
0
 20
0
 30
0
  0
INSERT
  8
LAYER_2
  2
AIGNBL02010064
 10
0
 20
0
 30
0
  0
INSERT
  8
LAYER_2
  2
AIGNBL02010065
 10
0
 20
0
 30
0
  0
INSERT
  8
LAYER_2
  2
AIGNBL02010066
 10
0
 20
0
 30
0
  0
INSERT
  8
LAYER_2
  2
AIGNBL02010067
 10
0
 20
0
 30
0
  0
INSERT
  8
LAYER_2
  2
AIGNBL02010068
 10
0
 20
0
 30
0
  0
INSERT
  8
LAYER_2
  2
AIGNBL02010069
 10
0
 20
0
 30
0
  0
INSERT
  8
LAYER_2
  2
AIGNBL0201006A
 10
0
 20
0
 30
0
  0
INSERT
  8
LAYER_2
  2
AIGNBL0201006B
 10
0
 20
0
 30
0
  0
INSERT
  8
LAYER_2
  2
AIGNBL0201006C
 10
0
 20
0
 30
0
  0
INSERT
  8
LAYER_2
  2
AIGNBL0201006D
 10
0
 20
0
 30
0
  0
INSERT
  8
LAYER_2
  2
AIGNBL0201006E
 10
0
 20
0
 30
0
  0
INSERT
  8
LAYER_2
  2
AIGNBL0201006F
 10
0
 20
0
 30
0
  0
INSERT
  8
LAYER_2
  2
AIGNBL02010070
 10
0
 20
0
 30
0
  0
INSERT
  8
LAYER_2
  2
AIGNBL02010071
 10
0
 20
0
 30
0
  0
INSERT
  8
LAYER_2
  2
AIGNBL02010072
 10
0
 20
0
 30
0
  0
INSERT
  8
LAYER_2
  2
AIGNBL02010073
 10
0
 20
0
 30
0
  0
INSERT
  8
LAYER_2
  2
AIGNBL02010074
 10
0
 20
0
 30
0
  0
INSERT
  8
LAYER_2
  2
AIGNBL02010075
 10
0
 20
0
 30
0
  0
INSERT
  8
LAYER_3
  2
AIGNBL03010002
 10
0
 20
0
 30
0
  0
INSERT
  8
LAYER_3
  2
AIGNBL03010003
 10
0
 20
0
 30
0
  0
INSERT
  8
LAYER_3
  2
AIGNBL03010004
 10
0
 20
0
 30
0
  0
INSERT
  8
LAYER_3
  2
AIGNBL03010005
 10
0
 20
0
 30
0
  0
INSERT
  8
LAYER_3
  2
AIGNBL03010006
 10
0
 20
0
 30
0
  0
INSERT
  8
LAYER_3
  2
AIGNBL03010007
 10
0
 20
0
 30
0
  0
INSERT
  8
LAYER_3
  2
AIGNBL03010008
 10
0
 20
0
 30
0
  0
INSERT
  8
LAYER_3
  2
AIGNBL03010009
 10
0
 20
0
 30
0
  0
INSERT
  8
LAYER_3
  2
AIGNBL0301000A
 10
0
 20
0
 30
0
  0
INSERT
  8
LAYER_3
  2
AIGNBL0301000B
 10
0
 20
0
 30
0
  0
INSERT
  8
LAYER_3
  2
AIGNBL0301000C
 10
0
 20
0
 30
0
  0
INSERT
  8
LAYER_3
  2
AIGNBL0301000D
 10
0
 20
0
 30
0
  0
INSERT
  8
LAYER_3
  2
AIGNBL0301000E
 10
0
 20
0
 30
0
  0
INSERT
  8
LAYER_3
  2
AIGNBL0301000F
 10
0
 20
0
 30
0
  0
INSERT
  8
LAYER_3
  2
AIGNBL03010010
 10
0
 20
0
 30
0
  0
INSERT
  8
LAYER_3
  2
AIGNBL03010011
 10
0
 20
0
 30
0
  0
INSERT
  8
LAYER_3
  2
AIGNBL03010012
 10
0
 20
0
 30
0
  0
INSERT
  8
LAYER_3
  2
AIGNBL03010013
 10
0
 20
0
 30
0
  0
INSERT
  8
LAYER_3
  2
AIGNBL03010014
 10
0
 20
0
 30
0
  0
INSERT
  8
LAYER_3
  2
AIGNBL03010015
 10
0
 20
0
 30
0
  0
INSERT
  8
LAYER_3
  2
AIGNBL03010016
 10
0
 20
0
 30
0
  0
INSERT
  8
LAYER_3
  2
AIGNBL03010017
 10
0
 20
0
 30
0
  0
INSERT
  8
LAYER_3
  2
AIGNBL03010018
 10
0
 20
0
 30
0
  0
INSERT
  8
LAYER_3
  2
AIGNBL03010019
 10
0
 20
0
 30
0
  0
INSERT
  8
LAYER_4
  2
AIGNBL04010002
 10
0
 20
0
 30
0
  0
INSERT
  8
LAYER_4
  2
AIGNBL04010003
 10
0
 20
0
 30
0
  0
INSERT
  8
LAYER_4
  2
AIGNBL04010004
 10
0
 20
0
 30
0
  0
INSERT
  8
LAYER_4
  2
AIGNBL04010005
 10
0
 20
0
 30
0
  0
INSERT
  8
LAYER_4
  2
AIGNBL04010006
 10
0
 20
0
 30
0
  0
INSERT
  8
LAYER_4
  2
AIGNBL04010007
 10
0
 20
0
 30
0
  0
INSERT
  8
LAYER_4
  2
AIGNBL04010008
 10
0
 20
0
 30
0
  0
INSERT
  8
LAYER_4
  2
AIGNBL04010009
 10
0
 20
0
 30
0
  0
INSERT
  8
LAYER_4
  2
AIGNBL0401000A
 10
0
 20
0
 30
0
  0
INSERT
  8
LAYER_4
  2
AIGNBL0401000B
 10
0
 20
0
 30
0
  0
INSERT
  8
LAYER_4
  2
AIGNBL0401000C
 10
0
 20
0
 30
0
  0
INSERT
  8
LAYER_4
  2
AIGNBL0401000D
 10
0
 20
0
 30
0
  0
INSERT
  8
LAYER_4
  2
AIGNBL0401000E
 10
0
 20
0
 30
0
  0
INSERT
  8
LAYER_4
  2
AIGNBL0401000F
 10
0
 20
0
 30
0
  0
INSERT
  8
LAYER_4
  2
AIGNBL04010010
 10
0
 20
0
 30
0
  0
INSERT
  8
LAYER_4
  2
AIGNBL04010011
 10
0
 20
0
 30
0
  0
INSERT
  8
LAYER_4
  2
AIGNBL04010012
 10
0
 20
0
 30
0
  0
INSERT
  8
LAYER_4
  2
AIGNBL04010013
 10
0
 20
0
 30
0
  0
INSERT
  8
LAYER_4
  2
AIGNBL04010014
 10
0
 20
0
 30
0
  0
INSERT
  8
LAYER_4
  2
AIGNBL04010015
 10
0
 20
0
 30
0
  0
INSERT
  8
LAYER_4
  2
AIGNBL04010016
 10
0
 20
0
 30
0
  0
INSERT
  8
LAYER_4
  2
AIGNBL04010017
 10
0
 20
0
 30
0
  0
INSERT
  8
LAYER_4
  2
AIGNBL04010018
 10
0
 20
0
 30
0
  0
INSERT
  8
LAYER_4
  2
AIGNBL04010019
 10
0
 20
0
 30
0
  0
INSERT
  8
LAYER_4
  2
AIGNBL0401001A
 10
0
 20
0
 30
0
  0
INSERT
  8
LAYER_4
  2
AIGNBL0401001B
 10
0
 20
0
 30
0
  0
INSERT
  8
LAYER_4
  2
AIGNBL0401001C
 10
0
 20
0
 30
0
  0
INSERT
  8
LAYER_4
  2
AIGNBL0401001D
 10
0
 20
0
 30
0
  0
INSERT
  8
LAYER_4
  2
AIGNBL0401001E
 10
0
 20
0
 30
0
  0
INSERT
  8
LAYER_4
  2
AIGNBL0401001F
 10
0
 20
0
 30
0
  0
INSERT
  8
LAYER_4
  2
AIGNBL04010020
 10
0
 20
0
 30
0
  0
INSERT
  8
LAYER_4
  2
AIGNBL04010021
 10
0
 20
0
 30
0
  0
INSERT
  8
LAYER_4
  2
AIGNBL04010022
 10
0
 20
0
 30
0
  0
INSERT
  8
LAYER_4
  2
AIGNBL04010023
 10
0
 20
0
 30
0
  0
INSERT
  8
LAYER_4
  2
AIGNBL04010024
 10
0
 20
0
 30
0
  0
INSERT
  8
LAYER_4
  2
AIGNBL04010025
 10
0
 20
0
 30
0
  0
INSERT
  8
LAYER_4
  2
AIGNBL04010026
 10
0
 20
0
 30
0
  0
INSERT
  8
LAYER_4
  2
AIGNBL04010027
 10
0
 20
0
 30
0
  0
INSERT
  8
LAYER_4
  2
AIGNBL04010028
 10
0
 20
0
 30
0
  0
INSERT
  8
LAYER_4
  2
AIGNBL04010029
 10
0
 20
0
 30
0
  0
INSERT
  8
LAYER_4
  2
AIGNBL0401002A
 10
0
 20
0
 30
0
  0
INSERT
  8
LAYER_4
  2
AIGNBL0401002B
 10
0
 20
0
 30
0
  0
INSERT
  8
LAYER_4
  2
AIGNBL0401002C
 10
0
 20
0
 30
0
  0
INSERT
  8
LAYER_4
  2
AIGNBL0401002D
 10
0
 20
0
 30
0
  0
INSERT
  8
LAYER_4
  2
AIGNBL0401002E
 10
0
 20
0
 30
0
  0
INSERT
  8
LAYER_4
  2
AIGNBL0401002F
 10
0
 20
0
 30
0
  0
INSERT
  8
LAYER_4
  2
AIGNBL04010030
 10
0
 20
0
 30
0
  0
INSERT
  8
LAYER_4
  2
AIGNBL04010031
 10
0
 20
0
 30
0
  0
INSERT
  8
LAYER_4
  2
AIGNBL04010032
 10
0
 20
0
 30
0
  0
INSERT
  8
LAYER_4
  2
AIGNBL04010033
 10
0
 20
0
 30
0
  0
INSERT
  8
LAYER_4
  2
AIGNBL04010034
 10
0
 20
0
 30
0
  0
INSERT
  8
LAYER_4
  2
AIGNBL04010035
 10
0
 20
0
 30
0
  0
INSERT
  8
LAYER_4
  2
AIGNBL04010036
 10
0
 20
0
 30
0
  0
INSERT
  8
LAYER_4
  2
AIGNBL04010037
 10
0
 20
0
 30
0
  0
INSERT
  8
LAYER_4
  2
AIGNBL04010038
 10
0
 20
0
 30
0
  0
INSERT
  8
LAYER_4
  2
AIGNBL04010039
 10
0
 20
0
 30
0
  0
INSERT
  8
LAYER_4
  2
AIGNBL0401003A
 10
0
 20
0
 30
0
  0
ENDSEC
  0
EOF
