  0
SECTION
  2
HEADER
  9
$ACADVER
  1
AC1009
  9
$LUNITS
 70
2
  9
$LUPREC
 70
4
  9
$LTSCALE
 40
1.0
  9
$EXTMIN
 10
192.2192
 20
-66.6014
 30
0
  9
$EXTMAX
 10
469.2192
 20
123.3986
 30
0
  0
ENDSEC
  0
SECTION
  2
TABLES
  0
TABLE
  2
LTYPE
 70
256
  0
ENDTAB
  0
TABLE
  2
LAYER
 70
4
  0
LAYER
  2
LAYER_1
 70
64
 62
7
  6
CONTINUOUS
  0
LAYER
  2
LAYER_2
 70
64
 62
7
  6
CONTINUOUS
  0
LAYER
  2
LAYER_3
 70
64
 62
7
  6
CONTINUOUS
  0
LAYER
  2
LAYER_4
 70
64
 62
7
  6
CONTINUOUS
  0
ENDTAB
  0
TABLE
  2
STYLE
 70
6
  0
STYLE
  2
STANDARD
 70
0
 40
0
 50
0
 71
0
 41
0
 42
0
  3
TXT
  4
BIGFONT
  0
ENDTAB
  0
ENDSEC
  0
SECTION
  2
BLOCKS
  0
BLOCK
  8
LAYER_1
  2
AIGNBL01020004
 70
64
 10
0
 20
0
 30
0
  3
AIGNBL01020004
  0
LINE
  8
LAYER_1
 10
351.634
 20
-18.6711
 11
351.634
 21
-24.6285
  0
LINE
  8
LAYER_1
 10
351.634
 20
-24.6285
 11
352.6587
 21
-24.6285
  0
LINE
  8
LAYER_1
 10
352.6587
 20
-24.6285
 11
352.6587
 21
-24.1826
  0
LINE
  8
LAYER_1
 10
352.6587
 20
-24.1826
 11
355.3363
 21
-24.1826
  0
LINE
  8
LAYER_1
 10
355.3363
 20
-24.1826
 11
355.3363
 21
-24.6285
  0
LINE
  8
LAYER_1
 10
355.3363
 20
-24.6285
 11
356.4088
 21
-24.6285
  0
LINE
  8
LAYER_1
 10
356.4088
 20
-24.6285
 11
356.4088
 21
-18.6711
  0
LINE
  8
LAYER_1
 10
356.4088
 20
-18.6711
 11
351.634
 21
-18.6711
  0
LINE
  8
LAYER_1
 10
355.3363
 20
-23.1898
 11
352.6586
 21
-23.1898
  0
LINE
  8
LAYER_1
 10
352.6586
 20
-23.1898
 11
352.6586
 21
-21.8997
  0
LINE
  8
LAYER_1
 10
352.6586
 20
-21.8997
 11
355.3363
 21
-21.8997
  0
LINE
  8
LAYER_1
 10
355.3363
 20
-21.8997
 11
355.3363
 21
-23.1898
  0
LINE
  8
LAYER_1
 10
355.3363
 20
-20.9271
 11
352.6586
 21
-20.9271
  0
LINE
  8
LAYER_1
 10
352.6586
 20
-20.9271
 11
352.6586
 21
-19.6639
  0
LINE
  8
LAYER_1
 10
352.6586
 20
-19.6639
 11
355.3363
 21
-19.6639
  0
LINE
  8
LAYER_1
 10
355.3363
 20
-19.6639
 11
355.3363
 21
-20.9271
  0
ENDBLK
  0
BLOCK
  8
LAYER_1
  2
AIGNBL01020005
 70
64
 10
0
 20
0
 30
0
  3
AIGNBL01020005
  0
LINE
  8
LAYER_1
 10
361.1681
 20
-20.6459
 11
363.008
 21
-20.6459
  0
LINE
  8
LAYER_1
 10
363.008
 20
-20.6459
 11
363.008
 21
-19.7228
  0
LINE
  8
LAYER_1
 10
363.008
 20
-19.7228
 11
360.6276
 21
-19.7228
  0
LINE
  8
LAYER_1
 10
360.6276
 20
-19.7228
 11
360.6276
 21
-18.5117
  0
LINE
  8
LAYER_1
 10
360.6276
 20
-18.5117
 11
359.6812
 21
-18.5117
  0
LINE
  8
LAYER_1
 10
359.6812
 20
-18.5117
 11
359.6812
 21
-19.7228
  0
LINE
  8
LAYER_1
 10
359.6812
 20
-19.7228
 11
357.3157
 21
-19.7228
  0
LINE
  8
LAYER_1
 10
357.3157
 20
-19.7228
 11
357.3157
 21
-20.6459
  0
LINE
  8
LAYER_1
 10
357.3157
 20
-20.6459
 11
359.1556
 21
-20.6459
  0
ARC
  8
LAYER_1
 10
352.8276
 20
-17.2979
 40
7.1591
 50
320.0917859
 51
332.1180421
  0
ARC
  8
LAYER_1
 10
354.1944
 20
-18.4775
 40
5.354
 50
306.7907036
 51
320.3902793
  0
ARC
  8
LAYER_1
 10
355.3363
 20
-19.9182
 40
3.5167
 50
299.7830223
 51
305.9495886
  0
ARC
  8
LAYER_1
 10
357.3366
 20
-22.9301
 40
0.2567
 50
189.041004
 51
222.7124317
  0
ARC
  8
LAYER_1
 10
349.1542
 20
-31.1842
 40
11.3661
 50
41.86910415
 51
45.30722701
  0
ARC
  8
LAYER_1
 10
356.4547
 20
-24.3706
 40
1.3966
 50
27.03066843
 51
33.5811519
  0
ARC
  8
LAYER_1
 10
357.1788
 20
-22.7326
 40
1.13
 50
297.394358
 51
310.3971421
  0
ARC
  8
LAYER_1
 10
353.9902
 20
-18.4282
 40
6.4846
 50
307.2029948
 51
316.160652
  0
LINE
  8
LAYER_1
 10
358.6675
 20
-22.9197
 11
358.6675
 21
-23.6346
  0
LINE
  8
LAYER_1
 10
358.6675
 20
-23.6346
 11
359.6812
 21
-23.6346
  0
LINE
  8
LAYER_1
 10
359.6812
 20
-23.6346
 11
359.6812
 21
-24.6759
  0
LINE
  8
LAYER_1
 10
359.6812
 20
-24.6759
 11
360.6276
 21
-24.6759
  0
LINE
  8
LAYER_1
 10
360.6276
 20
-24.6759
 11
360.6276
 21
-23.6346
  0
LINE
  8
LAYER_1
 10
360.6276
 20
-23.6346
 11
361.6037
 21
-23.6346
  0
LINE
  8
LAYER_1
 10
361.6037
 20
-23.6346
 11
361.6037
 21
-22.841
  0
ARC
  8
LAYER_1
 10
367.4661
 20
-17.4087
 40
7.9923
 50
222.8194562
 51
229.3954874
  0
ARC
  8
LAYER_1
 10
363.3101
 20
-22.3212
 40
1.5583
 50
227.8544941
 51
243.3097661
  0
ARC
  8
LAYER_1
 10
365.3024
 20
-25.2751
 40
3.1124
 50
130.023252
 51
149.8845162
  0
ARC
  8
LAYER_1
 10
366.6789
 20
-17.3801
 40
6.4644
 50
224.4780119
 51
238.495716
  0
ARC
  8
LAYER_1
 10
366.2221
 20
-18.0281
 40
5.6863
 50
209.4870909
 51
223.04385
  0
ARC
  8
LAYER_1
 10
368.6669
 20
-16.4506
 40
8.5926
 50
209.2256363
 51
210.6193192
  0
LINE
  8
LAYER_1
 10
359.6812
 20
-22.7172
 11
358.8476
 21
-22.7172
  0
ARC
  8
LAYER_1
 10
349.8686
 20
-15.6118
 40
11.4502
 50
321.6442745
 51
327.3776932
  0
ARC
  8
LAYER_1
 10
358.7097
 20
-21.1904
 40
0.9988
 50
323.4874232
 51
346.5604038
  0
LINE
  8
LAYER_1
 10
359.6812
 20
-21.4225
 11
359.6812
 21
-22.7172
  0
LINE
  8
LAYER_1
 10
360.6276
 20
-22.7172
 11
360.6201
 21
-21.417
  0
ARC
  8
LAYER_1
 10
362.6431
 20
-20.5799
 40
2.1894
 50
202.4797564
 51
213.37689
  0
ARC
  8
LAYER_1
 10
369.8308
 20
-15.9598
 40
10.7338
 50
212.8634514
 51
219.016696
  0
LINE
  8
LAYER_1
 10
361.4911
 20
-22.7172
 11
360.6276
 21
-22.7172
  0
ENDBLK
  0
BLOCK
  8
LAYER_1
  2
AIGNBL01020006
 70
64
 10
0
 20
0
 30
0
  3
AIGNBL01020006
  0
LINE
  8
LAYER_1
 10
364.353
 20
-22.0385
 11
364.353
 21
-24.6934
  0
LINE
  8
LAYER_1
 10
364.353
 20
-24.6934
 11
365.251
 21
-24.6934
  0
LINE
  8
LAYER_1
 10
365.251
 20
-24.6934
 11
365.251
 21
-24.5104
  0
LINE
  8
LAYER_1
 10
365.251
 20
-24.5104
 11
367.9774
 21
-24.5104
  0
LINE
  8
LAYER_1
 10
367.9774
 20
-24.5104
 11
367.9774
 21
-24.6413
  0
LINE
  8
LAYER_1
 10
367.9774
 20
-24.6413
 11
368.9207
 21
-24.6413
  0
LINE
  8
LAYER_1
 10
368.9207
 20
-24.6413
 11
368.9207
 21
-22.0385
  0
LINE
  8
LAYER_1
 10
368.9207
 20
-22.0385
 11
364.353
 21
-22.0385
  0
LINE
  8
LAYER_1
 10
365.251
 20
-22.5754
 11
366.1491
 21
-22.5754
  0
LINE
  8
LAYER_1
 10
366.1491
 20
-22.5754
 11
366.1491
 21
-23.001
  0
LINE
  8
LAYER_1
 10
366.1491
 20
-23.001
 11
365.251
 21
-23.001
  0
LINE
  8
LAYER_1
 10
365.251
 20
-23.001
 11
365.251
 21
-22.5754
  0
LINE
  8
LAYER_1
 10
366.1554
 20
-23.9658
 11
365.2445
 21
-23.9658
  0
LINE
  8
LAYER_1
 10
365.2445
 20
-23.9658
 11
365.2445
 21
-23.5598
  0
LINE
  8
LAYER_1
 10
365.2445
 20
-23.5598
 11
366.1554
 21
-23.5598
  0
LINE
  8
LAYER_1
 10
366.1554
 20
-23.5598
 11
366.1554
 21
-23.9658
  0
LINE
  8
LAYER_1
 10
367.9774
 20
-23.9658
 11
367.0666
 21
-23.9658
  0
LINE
  8
LAYER_1
 10
367.0666
 20
-23.9658
 11
367.0666
 21
-23.5598
  0
LINE
  8
LAYER_1
 10
367.0666
 20
-23.5598
 11
367.9774
 21
-23.5598
  0
LINE
  8
LAYER_1
 10
367.9774
 20
-23.5598
 11
367.9774
 21
-23.9658
  0
LINE
  8
LAYER_1
 10
367.9774
 20
-22.9838
 11
367.0666
 21
-22.9838
  0
LINE
  8
LAYER_1
 10
367.0666
 20
-22.9838
 11
367.0666
 21
-22.5778
  0
LINE
  8
LAYER_1
 10
367.0666
 20
-22.5778
 11
367.9774
 21
-22.5778
  0
LINE
  8
LAYER_1
 10
367.9774
 20
-22.5778
 11
367.9774
 21
-22.9838
  0
ENDBLK
  0
BLOCK
  8
LAYER_1
  2
AIGNBL01020007
 70
64
 10
0
 20
0
 30
0
  3
AIGNBL01020007
  0
LINE
  8
LAYER_1
 10
372.7452
 20
-19.4621
 11
372.7452
 21
-18.6054
  0
LINE
  8
LAYER_1
 10
372.7452
 20
-18.6054
 11
370.0962
 21
-18.6054
  0
LINE
  8
LAYER_1
 10
370.0962
 20
-18.6054
 11
370.0962
 21
-19.4621
  0
LINE
  8
LAYER_1
 10
370.0962
 20
-19.4621
 11
370.7877
 21
-19.4621
  0
ARC
  8
LAYER_1
 10
356.4551
 20
-17.2525
 40
14.5019
 50
345.1349411
 51
351.2357341
  0
ARC
  8
LAYER_1
 10
366.802
 20
-20.0262
 40
3.7898
 50
328.8608594
 51
345.5353604
  0
ARC
  8
LAYER_1
 10
368.4031
 20
-20.8719
 40
1.9848
 50
321.3923211
 51
325.8550342
  0
ARC
  8
LAYER_1
 10
368.3485
 20
-23.4939
 40
2.1195
 50
13.84391695
 51
40.75156376
  0
LINE
  8
LAYER_1
 10
370.4064
 20
-22.9868
 11
370.5615
 21
-22.7841
  0
LINE
  8
LAYER_1
 10
370.5615
 20
-22.7841
 11
370.5615
 21
-24.2749
  0
LINE
  8
LAYER_1
 10
370.5615
 20
-24.2749
 11
371.369
 21
-24.2749
  0
LINE
  8
LAYER_1
 10
371.369
 20
-24.2749
 11
371.369
 21
-23.8042
  0
LINE
  8
LAYER_1
 10
371.369
 20
-23.8042
 11
372.6033
 21
-23.8042
  0
LINE
  8
LAYER_1
 10
372.6033
 20
-23.8042
 11
372.6033
 21
-20.6849
  0
LINE
  8
LAYER_1
 10
372.6033
 20
-20.6849
 11
371.4401
 21
-20.6849
  0
ARC
  8
LAYER_1
 10
363.6739
 20
-18.489
 40
8.0707
 50
344.211629
 51
353.0748089
  0
LINE
  8
LAYER_1
 10
371.6857
 20
-19.4621
 11
372.7452
 21
-19.4621
  0
LINE
  8
LAYER_1
 10
371.7762
 20
-22.9803
 11
371.369
 21
-22.9803
  0
LINE
  8
LAYER_1
 10
371.369
 20
-22.9803
 11
371.369
 21
-21.5088
  0
LINE
  8
LAYER_1
 10
371.369
 20
-21.5088
 11
371.7762
 21
-21.5088
  0
LINE
  8
LAYER_1
 10
371.7762
 20
-21.5088
 11
371.7762
 21
-22.9803
  0
ENDBLK
  0
BLOCK
  8
LAYER_1
  2
AIGNBL01020008
 70
64
 10
0
 20
0
 30
0
  3
AIGNBL01020008
  0
LINE
  8
LAYER_1
 10
375.5575
 20
-21.051
 11
375.5575
 21
-19.4816
  0
LINE
  8
LAYER_1
 10
375.5575
 20
-19.4816
 11
376.0616
 21
-19.4816
  0
LINE
  8
LAYER_1
 10
376.0616
 20
-19.4816
 11
376.0616
 21
-18.6054
  0
LINE
  8
LAYER_1
 10
376.0616
 20
-18.6054
 11
372.8633
 21
-18.6054
  0
LINE
  8
LAYER_1
 10
372.8633
 20
-18.6054
 11
372.8633
 21
-19.4816
  0
LINE
  8
LAYER_1
 10
372.8633
 20
-19.4816
 11
373.2962
 21
-19.4816
  0
LINE
  8
LAYER_1
 10
373.2962
 20
-19.4816
 11
373.2962
 21
-21.051
  0
LINE
  8
LAYER_1
 10
373.2962
 20
-21.051
 11
372.7018
 21
-21.051
  0
LINE
  8
LAYER_1
 10
372.7018
 20
-21.051
 11
372.7018
 21
-21.947
  0
LINE
  8
LAYER_1
 10
372.7018
 20
-21.947
 11
373.2703
 21
-21.947
  0
ARC
  8
LAYER_1
 10
370.4907
 20
-21.8995
 40
2.78
 50
338.6739026
 51
359.020829
  0
ARC
  8
LAYER_1
 10
370.2143
 20
-21.8418
 40
3.0588
 50
321.0666271
 51
339.5496315
  0
ARC
  8
LAYER_1
 10
370.4444
 20
-22.0084
 40
2.7752
 50
312.3585522
 51
320.7581845
  0
ARC
  8
LAYER_1
 10
369.8947
 20
-28.2056
 40
4.8008
 50
49.00077315
 51
59.73701801
  0
ARC
  8
LAYER_1
 10
371.6019
 20
-22.7805
 40
2.3081
 50
308.6774859
 51
331.7345597
  0
ARC
  8
LAYER_1
 10
370.3082
 20
-22.0282
 40
3.8042
 50
330.9812449
 51
347.5175671
  0
ARC
  8
LAYER_1
 10
369.0208
 20
-21.651
 40
5.1434
 50
346.5148777
 51
356.7006512
  0
LINE
  8
LAYER_1
 10
374.1557
 20
-21.947
 11
374.666
 21
-21.947
  0
LINE
  8
LAYER_1
 10
374.666
 20
-21.947
 11
374.666
 21
-24.5628
  0
LINE
  8
LAYER_1
 10
374.666
 20
-24.5628
 11
375.5575
 21
-24.5628
  0
LINE
  8
LAYER_1
 10
375.5575
 20
-24.5628
 11
375.5575
 21
-21.947
  0
LINE
  8
LAYER_1
 10
375.5575
 20
-21.947
 11
376.1391
 21
-21.947
  0
LINE
  8
LAYER_1
 10
376.1391
 20
-21.947
 11
376.1391
 21
-21.051
  0
LINE
  8
LAYER_1
 10
376.1391
 20
-21.051
 11
375.5575
 21
-21.051
  0
LINE
  8
LAYER_1
 10
374.666
 20
-21.051
 11
374.175
 21
-21.051
  0
LINE
  8
LAYER_1
 10
374.175
 20
-21.051
 11
374.175
 21
-19.4816
  0
LINE
  8
LAYER_1
 10
374.175
 20
-19.4816
 11
374.666
 21
-19.4816
  0
LINE
  8
LAYER_1
 10
374.666
 20
-19.4816
 11
374.666
 21
-21.051
  0
ENDBLK
  0
BLOCK
  8
LAYER_1
  2
AIGNBL01020009
 70
64
 10
0
 20
0
 30
0
  3
AIGNBL01020009
  0
ARC
  8
LAYER_1
 10
348.7477
 20
-19.6909
 40
1.9543
 50
288.5797233
 51
313.5605526
  0
ARC
  8
LAYER_1
 10
349.2658
 20
-20.3305
 40
1.1357
 50
316.8592502
 51
347.2169924
  0
ARC
  8
LAYER_1
 10
348.4324
 20
-20.1279
 40
1.9933
 50
346.8357246
 51
1.013818946
  0
ARC
  8
LAYER_1
 10
349.1667
 20
-20.0958
 40
1.2587
 50
0.1437428936
 51
45.46620489
  0
ARC
  8
LAYER_1
 10
348.6376
 20
-20.5947
 40
1.9857
 50
44.68101911
 51
67.71603928
  0
ARC
  8
LAYER_1
 10
348.3757
 20
-21.0773
 40
2.5322
 50
66.37312008
 51
86.05362229
  0
ARC
  8
LAYER_1
 10
348.4798
 20
-20.2861
 40
1.7364
 50
87.68404332
 51
89.78894779
  0
LINE
  8
LAYER_1
 10
348.4862
 20
-18.5497
 11
345.5153
 21
-18.5497
  0
LINE
  8
LAYER_1
 10
345.5153
 20
-18.5497
 11
345.5153
 21
-21.8112
  0
LINE
  8
LAYER_1
 10
345.5153
 20
-21.8112
 11
347.2783
 21
-21.8112
  0
ARC
  8
LAYER_1
 10
347.3042
 20
-23.4491
 40
1.6382
 50
64.35464453
 51
90.90591812
  0
ARC
  8
LAYER_1
 10
347.505
 20
-22.9498
 40
1.1016
 50
16.86208198
 51
62.52674647
  0
ARC
  8
LAYER_1
 10
347.6845
 20
-22.8808
 40
0.91
 50
0.3653414868
 51
15.98543397
  0
LINE
  8
LAYER_1
 10
348.5944
 20
-22.875
 11
348.5944
 21
-24.6076
  0
LINE
  8
LAYER_1
 10
348.5944
 20
-24.6076
 11
350.1389
 21
-24.6076
  0
LINE
  8
LAYER_1
 10
350.1389
 20
-24.6076
 11
350.1389
 21
-22.7788
  0
ARC
  8
LAYER_1
 10
348.0901
 20
-22.7357
 40
2.0493
 50
358.7952707
 51
12.52382505
  0
ARC
  8
LAYER_1
 10
349.1418
 20
-22.4969
 40
0.9708
 50
12.22608926
 51
45.01685242
  0
ARC
  8
LAYER_1
 10
348.9638
 20
-22.7666
 40
1.289
 50
47.8965793
 51
71.61411127
  0
LINE
  8
LAYER_1
 10
348.296
 20
-20.7595
 11
347.0579
 21
-20.7595
  0
LINE
  8
LAYER_1
 10
347.0579
 20
-20.7595
 11
347.0579
 21
-19.6056
  0
LINE
  8
LAYER_1
 10
347.0579
 20
-19.6056
 11
347.094
 21
-19.6056
  0
LINE
  8
LAYER_1
 10
347.094
 20
-19.6056
 11
348.328
 21
-19.6056
  0
ARC
  8
LAYER_1
 10
348.2872
 20
-20.2689
 40
0.6645
 50
46.60866758
 51
86.48378525
  0
ARC
  8
LAYER_1
 10
348.3533
 20
-20.1538
 40
0.5364
 50
356.9381223
 51
43.29359479
  0
ARC
  8
LAYER_1
 10
348.3437
 20
-20.1812
 40
0.5453
 50
290.0148134
 51
359.8586292
  0
ARC
  8
LAYER_1
 10
348.1673
 20
-19.8538
 40
0.9148
 50
278.085377
 51
293.3808036
  0
ENDBLK
  0
BLOCK
  8
LAYER_1
  2
AIGNBL0102000B
 70
64
 10
0
 20
0
 30
0
  3
AIGNBL0102000B
  0
LINE
  8
LAYER_1
 10
411.1242
 20
-23.7788
 11
411.1242
 21
-20.805
  0
LINE
  8
LAYER_1
 10
411.1242
 20
-20.805
 11
411.4354
 21
-20.805
  0
LINE
  8
LAYER_1
 10
411.4354
 20
-20.805
 11
411.4354
 21
-24.2983
  0
LINE
  8
LAYER_1
 10
411.4354
 20
-24.2983
 11
411.1021
 21
-24.2983
  0
LINE
  8
LAYER_1
 10
411.1021
 20
-24.2983
 11
409.1255
 21
-21.1812
  0
LINE
  8
LAYER_1
 10
409.1255
 20
-21.1812
 11
409.1255
 21
-24.2983
  0
LINE
  8
LAYER_1
 10
409.1255
 20
-24.2983
 11
408.8147
 21
-24.2983
  0
LINE
  8
LAYER_1
 10
408.8147
 20
-24.2983
 11
408.8147
 21
-20.805
  0
LINE
  8
LAYER_1
 10
408.8147
 20
-20.805
 11
409.2143
 21
-20.805
  0
LINE
  8
LAYER_1
 10
409.2143
 20
-20.805
 11
411.1242
 21
-23.7788
  0
ENDBLK
  0
BLOCK
  8
LAYER_1
  2
AIGNBL0102000C
 70
64
 10
0
 20
0
 30
0
  3
AIGNBL0102000C
  0
LINE
  8
LAYER_1
 10
412.4792
 20
-21.1812
 11
412.1241
 21
-21.1812
  0
LINE
  8
LAYER_1
 10
412.1241
 20
-21.1812
 11
412.1241
 21
-20.805
  0
LINE
  8
LAYER_1
 10
412.1241
 20
-20.805
 11
412.4792
 21
-20.805
  0
LINE
  8
LAYER_1
 10
412.4792
 20
-20.805
 11
412.4792
 21
-21.1812
  0
LINE
  8
LAYER_1
 10
412.4571
 20
-24.2983
 11
412.1462
 21
-24.2983
  0
LINE
  8
LAYER_1
 10
412.1462
 20
-24.2983
 11
412.1462
 21
-21.844
  0
LINE
  8
LAYER_1
 10
412.1462
 20
-21.844
 11
412.4571
 21
-21.844
  0
LINE
  8
LAYER_1
 10
412.4571
 20
-21.844
 11
412.4571
 21
-24.2983
  0
ENDBLK
  0
BLOCK
  8
LAYER_1
  2
AIGNBL0102000D
 70
64
 10
0
 20
0
 30
0
  3
AIGNBL0102000D
  0
LINE
  8
LAYER_1
 10
413.4787
 20
-24.2983
 11
413.1679
 21
-24.2983
  0
LINE
  8
LAYER_1
 10
413.1679
 20
-24.2983
 11
413.1679
 21
-20.805
  0
LINE
  8
LAYER_1
 10
413.1679
 20
-20.805
 11
413.4787
 21
-20.805
  0
LINE
  8
LAYER_1
 10
413.4787
 20
-20.805
 11
413.4787
 21
-22.3456
  0
ARC
  8
LAYER_1
 10
414.4991
 20
-22.97
 40
1.1963
 50
129.0581564
 51
148.535367
  0
ARC
  8
LAYER_1
 10
414.3053
 20
-22.7443
 40
0.8989
 50
91.66149666
 51
128.5326562
  0
ARC
  8
LAYER_1
 10
414.3422
 20
-22.9836
 40
1.1396
 50
89.86220225
 51
93.16479917
  0
ARC
  8
LAYER_1
 10
414.3804
 20
-22.7572
 40
0.9138
 50
55.35965389
 51
92.22938038
  0
ARC
  8
LAYER_1
 10
414.4472
 20
-22.5364
 40
0.6979
 50
7.406258716
 51
49.55637664
  0
ARC
  8
LAYER_1
 10
413.5347
 20
-22.7443
 40
1.632
 50
359.5284552
 51
10.51345892
  0
LINE
  8
LAYER_1
 10
415.1666
 20
-22.7577
 11
415.1666
 21
-24.2983
  0
LINE
  8
LAYER_1
 10
415.1666
 20
-24.2983
 11
414.8557
 21
-24.2983
  0
LINE
  8
LAYER_1
 10
414.8557
 20
-24.2983
 11
414.8557
 21
-22.7935
  0
ARC
  8
LAYER_1
 10
413.7214
 20
-22.7535
 40
1.1351
 50
357.9814083
 51
16.98089473
  0
ARC
  8
LAYER_1
 10
414.3908
 20
-22.546
 40
0.4342
 50
16.59273271
 51
48.62609954
  0
ARC
  8
LAYER_1
 10
414.3071
 20
-22.7022
 40
0.6081
 50
52.43458988
 51
92.7202545
  0
ARC
  8
LAYER_1
 10
414.2786
 20
-22.7879
 40
0.6931
 50
90.03352854
 51
129.8891711
  0
ARC
  8
LAYER_1
 10
414.4112
 20
-22.9936
 40
0.9364
 50
128.0438965
 51
164.2242718
  0
ARC
  8
LAYER_1
 10
414.4668
 20
-22.9859
 40
0.9881
 50
165.531143
 51
180.2736079
  0
LINE
  8
LAYER_1
 10
413.4787
 20
-22.9906
 11
413.4787
 21
-24.2983
  0
ENDBLK
  0
BLOCK
  8
LAYER_1
  2
AIGNBL0102000E
 70
64
 10
0
 20
0
 30
0
  3
AIGNBL0102000E
  0
ARC
  8
LAYER_1
 10
416.9913
 20
-23.03
 40
1.186
 50
50.66407849
 51
90.1744078
  0
ARC
  8
LAYER_1
 10
417.1354
 20
-22.8549
 40
0.9592
 50
14.76585385
 51
50.68641275
  0
ARC
  8
LAYER_1
 10
416.5238
 20
-23.0364
 40
1.597
 50
359.0757295
 51
15.47348178
  0
ARC
  8
LAYER_1
 10
416.6321
 20
-23.1002
 40
1.489
 50
332.9248548
 51
1.463570552
  0
ARC
  8
LAYER_1
 10
417.1744
 20
-23.3266
 40
0.9042
 50
308.9730079
 51
330.0558863
  0
ARC
  8
LAYER_1
 10
416.9887
 20
-23.1048
 40
1.1935
 50
269.9536806
 51
309.2078331
  0
ARC
  8
LAYER_1
 10
416.9839
 20
-23.1138
 40
1.1845
 50
230.637587
 51
270.1817307
  0
ARC
  8
LAYER_1
 10
416.8335
 20
-23.2952
 40
0.9488
 50
194.5538734
 51
230.7167103
  0
ARC
  8
LAYER_1
 10
417.5158
 20
-23.0912
 40
1.6608
 50
179.000954
 51
195.4509897
  0
ARC
  8
LAYER_1
 10
417.2898
 20
-23.0262
 40
1.435
 50
152.4461925
 51
181.4361282
  0
ARC
  8
LAYER_1
 10
416.8062
 20
-22.8241
 40
0.9138
 50
128.8724969
 51
149.6528138
  0
ARC
  8
LAYER_1
 10
416.9868
 20
-23.0365
 40
1.1925
 50
89.95562501
 51
129.2250572
  0
ARC
  8
LAYER_1
 10
416.958
 20
-22.8659
 40
0.7489
 50
129.9690508
 51
170.50432
  0
ARC
  8
LAYER_1
 10
417.7098
 20
-23.0488
 40
1.5216
 50
168.3814377
 51
180.5052229
  0
ARC
  8
LAYER_1
 10
417.4001
 20
-23.1071
 40
1.2127
 50
177.8785198
 51
209.7588518
  0
ARC
  8
LAYER_1
 10
416.8825
 20
-23.3485
 40
0.6453
 50
213.9659461
 51
231.0581026
  0
ARC
  8
LAYER_1
 10
416.9806
 20
-23.2321
 40
0.7975
 50
230.8292577
 51
270.5067322
  0
ARC
  8
LAYER_1
 10
416.9933
 20
-23.2276
 40
0.802
 50
269.6014655
 51
309.0555381
  0
ARC
  8
LAYER_1
 10
417.0157
 20
-23.2775
 40
0.7493
 50
310.1261004
 51
351.2041251
  0
ARC
  8
LAYER_1
 10
416.1823
 20
-23.0772
 40
1.6051
 50
348.6865185
 51
0.5343953487
  0
ARC
  8
LAYER_1
 10
416.6259
 20
-23.0205
 40
1.1621
 50
357.9422659
 51
30.40728733
  0
ARC
  8
LAYER_1
 10
417.0828
 20
-22.8058
 40
0.661
 50
34.40395552
 51
51.02323355
  0
ARC
  8
LAYER_1
 10
416.9934
 20
-22.9142
 40
0.8015
 50
50.93274761
 51
90.41024883
  0
ARC
  8
LAYER_1
 10
416.9826
 20
-22.9157
 40
0.803
 50
89.63522685
 51
129.0287832
  0
ENDBLK
  0
BLOCK
  8
LAYER_1
  2
AIGNBL0102000F
 70
64
 10
0
 20
0
 30
0
  3
AIGNBL0102000F
  0
ARC
  8
LAYER_1
 10
420.1188
 20
-22.5203
 40
0.6524
 50
6.056198854
 51
49.63190274
  0
ARC
  8
LAYER_1
 10
419.3448
 20
-22.6803
 40
1.4411
 50
359.7752786
 51
9.138499501
  0
LINE
  8
LAYER_1
 10
420.7859
 20
-22.686
 11
420.7859
 21
-24.2983
  0
LINE
  8
LAYER_1
 10
420.7859
 20
-24.2983
 11
420.4751
 21
-24.2983
  0
LINE
  8
LAYER_1
 10
420.4751
 20
-24.2983
 11
420.4751
 21
-22.7218
  0
ARC
  8
LAYER_1
 10
419.6156
 20
-22.6928
 40
0.86
 50
358.0667968
 51
19.49688995
  0
ARC
  8
LAYER_1
 10
420.0183
 20
-22.5519
 40
0.4333
 50
19.70177237
 51
49.94022666
  0
ARC
  8
LAYER_1
 10
419.9632
 20
-22.6764
 40
0.5653
 50
53.79218892
 51
94.41727432
  0
ARC
  8
LAYER_1
 10
419.9201
 20
-22.8061
 40
0.6934
 50
90.03405829
 51
129.8803633
  0
ARC
  8
LAYER_1
 10
420.1781
 20
-23.136
 40
1.1121
 50
129.1838779
 51
162.0625498
  0
LINE
  8
LAYER_1
 10
419.1201
 20
-22.7935
 11
419.1201
 21
-24.2983
  0
LINE
  8
LAYER_1
 10
419.1201
 20
-24.2983
 11
418.8093
 21
-24.2983
  0
LINE
  8
LAYER_1
 10
418.8093
 20
-24.2983
 11
418.8093
 21
-21.844
  0
LINE
  8
LAYER_1
 10
418.8093
 20
-21.844
 11
419.1201
 21
-21.844
  0
LINE
  8
LAYER_1
 10
419.1201
 20
-21.844
 11
419.1201
 21
-22.3456
  0
ARC
  8
LAYER_1
 10
420.0407
 20
-22.9369
 40
1.0941
 50
128.1836958
 51
147.2859099
  0
ARC
  8
LAYER_1
 10
420.0129
 20
-22.8561
 40
1.0139
 50
94.72575203
 51
129.7728799
  0
ARC
  8
LAYER_1
 10
419.9856
 20
-22.7619
 40
0.9179
 50
89.95901443
 51
93.51387211
  0
ARC
  8
LAYER_1
 10
420.0056
 20
-22.7357
 40
0.8919
 50
53.91369061
 51
91.23976713
  0
ARC
  8
LAYER_1
 10
420.0571
 20
-22.6251
 40
0.7725
 50
51.18248121
 51
52.17327012
  0
ENDBLK
  0
BLOCK
  8
LAYER_1
  2
AIGNBL01020010
 70
64
 10
0
 20
0
 30
0
  3
AIGNBL01020010
  0
LINE
  8
LAYER_1
 10
424.2725
 20
-24.2983
 11
423.895
 21
-24.2983
  0
LINE
  8
LAYER_1
 10
423.895
 20
-24.2983
 11
422.74
 21
-22.686
  0
LINE
  8
LAYER_1
 10
422.74
 20
-22.686
 11
421.7851
 21
-22.686
  0
LINE
  8
LAYER_1
 10
421.7851
 20
-22.686
 11
421.7851
 21
-24.2983
  0
LINE
  8
LAYER_1
 10
421.7851
 20
-24.2983
 11
421.4742
 21
-24.2983
  0
LINE
  8
LAYER_1
 10
421.4742
 20
-24.2983
 11
421.4742
 21
-20.805
  0
LINE
  8
LAYER_1
 10
421.4742
 20
-20.805
 11
422.8734
 21
-20.805
  0
ARC
  8
LAYER_1
 10
422.922
 20
-22.5163
 40
1.712
 50
64.78526237
 51
91.62615641
  0
ARC
  8
LAYER_1
 10
423.2253
 20
-21.7496
 40
0.8906
 50
51.16652075
 51
61.42460073
  0
ARC
  8
LAYER_1
 10
423.2576
 20
-21.7079
 40
0.8379
 50
358.0408562
 51
51.09666914
  0
ARC
  8
LAYER_1
 10
423.2127
 20
-21.7534
 40
0.8825
 50
324.0471581
 51
1.094656138
  0
ARC
  8
LAYER_1
 10
423.2436
 20
-21.7434
 40
0.8637
 50
308.7150246
 51
322.3076092
  0
ARC
  8
LAYER_1
 10
423.1658
 20
-21.6256
 40
1.0043
 50
290.124976
 51
307.9748274
  0
ARC
  8
LAYER_1
 10
422.8956
 20
-20.8713
 40
1.8056
 50
275.6481869
 51
289.9408134
  0
LINE
  8
LAYER_1
 10
423.0733
 20
-22.6681
 11
424.2725
 21
-24.2983
  0
LINE
  8
LAYER_1
 10
421.7851
 20
-21.0737
 11
421.7851
 21
-22.4173
  0
LINE
  8
LAYER_1
 10
421.7851
 20
-22.4173
 11
422.7846
 21
-22.4173
  0
ARC
  8
LAYER_1
 10
422.82
 20
-20.709
 40
1.7086
 50
268.8133874
 51
283.8344155
  0
ARC
  8
LAYER_1
 10
423.0337
 20
-21.5574
 40
0.8338
 50
283.5109031
 51
307.3499878
  0
ARC
  8
LAYER_1
 10
423.1665
 20
-21.756
 40
0.5955
 50
308.7937325
 51
1.880035625
  0
ARC
  8
LAYER_1
 10
423.1498
 20
-21.7246
 40
0.6121
 50
358.8899656
 51
50.43626632
  0
ARC
  8
LAYER_1
 10
423.09
 20
-21.8329
 40
0.7339
 50
52.22192401
 51
73.15695802
  0
ARC
  8
LAYER_1
 10
422.9084
 20
-22.461
 40
1.3877
 50
73.49331903
 51
91.44420239
  0
LINE
  8
LAYER_1
 10
422.8734
 20
-21.0737
 11
421.7851
 21
-21.0737
  0
ENDBLK
  0
BLOCK
  8
LAYER_1
  2
AIGNBL01020011
 70
64
 10
0
 20
0
 30
0
  3
AIGNBL01020011
  0
ARC
  8
LAYER_1
 10
426.1129
 20
-22.5481
 40
0.6476
 50
358.8945381
 51
51.53107727
  0
LINE
  8
LAYER_1
 10
426.7603
 20
-22.5606
 11
426.7603
 21
-23.7788
  0
ARC
  8
LAYER_1
 10
427.7988
 20
-23.7892
 40
1.0385
 50
179.4270287
 51
209.3553955
  0
LINE
  8
LAYER_1
 10
426.8936
 20
-24.2983
 11
426.5603
 21
-24.2983
  0
ARC
  8
LAYER_1
 10
427.1608
 20
-23.9161
 40
0.7118
 50
181.921806
 51
212.4745816
  0
ARC
  8
LAYER_1
 10
425.7923
 20
-23.375
 40
0.8666
 50
307.189829
 51
319.3119411
  0
ARC
  8
LAYER_1
 10
425.6606
 20
-23.2448
 40
1.0503
 50
274.3420676
 51
308.6162638
  0
ARC
  8
LAYER_1
 10
425.6118
 20
-22.9841
 40
1.3142
 50
269.7147373
 51
275.6018165
  0
ARC
  8
LAYER_1
 10
425.5813
 20
-23.2839
 40
1.0147
 50
236.3001934
 51
271.3550992
  0
ARC
  8
LAYER_1
 10
425.5011
 20
-23.4601
 40
0.8242
 50
231.0753322
 51
234.1411685
  0
ARC
  8
LAYER_1
 10
425.3162
 20
-23.6855
 40
0.5327
 50
178.4773223
 51
231.3228192
  0
ARC
  8
LAYER_1
 10
425.3192
 20
-23.6756
 40
0.5356
 50
125.8350682
 51
179.5413468
  0
ARC
  8
LAYER_1
 10
425.8031
 20
-24.3072
 40
1.3311
 50
111.9751422
 51
126.8013201
  0
ARC
  8
LAYER_1
 10
426.7164
 20
-26.4854
 40
3.6929
 50
106.0714701
 51
112.4703746
  0
ARC
  8
LAYER_1
 10
424.6619
 20
-19.078
 40
3.9945
 50
284.9756162
 51
296.5830706
  0
ARC
  8
LAYER_1
 10
425.9142
 20
-22.6169
 40
0.5362
 50
356.4431023
 51
44.9521251
  0
ARC
  8
LAYER_1
 10
425.8764
 20
-22.7715
 40
0.6773
 50
51.96445878
 51
92.27588681
  0
ARC
  8
LAYER_1
 10
425.84
 20
-22.76
 40
0.6653
 50
89.17817295
 51
128.3258088
  0
ARC
  8
LAYER_1
 10
425.7965
 20
-22.6785
 40
0.5746
 50
129.9703812
 51
171.7874392
  0
LINE
  8
LAYER_1
 10
425.2278
 20
-22.5964
 11
424.8724
 21
-22.5964
  0
ARC
  8
LAYER_1
 10
425.7052
 20
-22.7183
 40
0.8416
 50
126.427446
 51
171.6723572
  0
ARC
  8
LAYER_1
 10
425.7709
 20
-22.7684
 40
0.9213
 50
91.53886103
 51
127.8634325
  0
ARC
  8
LAYER_1
 10
425.8435
 20
-23.201
 40
1.3571
 50
89.74461501
 51
94.11281446
  0
ARC
  8
LAYER_1
 10
425.8842
 20
-22.9731
 40
1.1296
 50
58.6194476
 51
91.75785475
  0
ARC
  8
LAYER_1
 10
426.0311
 20
-22.644
 40
0.7735
 50
51.21066166
 51
55.21930848
  0
ARC
  8
LAYER_1
 10
425.3792
 20
-20.8023
 40
2.3877
 50
282.4542465
 51
296.6297053
  0
ARC
  8
LAYER_1
 10
426.2128
 20
-24.8213
 40
1.7172
 50
100.6943898
 51
123.2193271
  0
ARC
  8
LAYER_1
 10
425.4948
 20
-23.6909
 40
0.3787
 50
126.0379939
 51
177.0272144
  0
ARC
  8
LAYER_1
 10
425.4318
 20
-23.6646
 40
0.3153
 50
181.2206789
 51
234.7605386
  0
ARC
  8
LAYER_1
 10
425.5835
 20
-23.4673
 40
0.564
 50
233.7415385
 51
274.4679247
  0
ARC
  8
LAYER_1
 10
425.6564
 20
-23.1627
 40
0.8673
 50
268.0847434
 51
305.5521241
  0
ARC
  8
LAYER_1
 10
425.1213
 20
-22.533
 40
1.6922
 50
307.8961888
 51
321.7055105
  0
LINE
  8
LAYER_1
 10
426.4494
 20
-23.5817
 11
426.4494
 21
-22.9368
  0
ENDBLK
  0
BLOCK
  8
LAYER_1
  2
AIGNBL01020012
 70
64
 10
0
 20
0
 30
0
  3
AIGNBL01020012
  0
LINE
  8
LAYER_1
 10
427.9373
 20
-21.1812
 11
427.5823
 21
-21.1812
  0
LINE
  8
LAYER_1
 10
427.5823
 20
-21.1812
 11
427.5823
 21
-20.805
  0
LINE
  8
LAYER_1
 10
427.5823
 20
-20.805
 11
427.9373
 21
-20.805
  0
LINE
  8
LAYER_1
 10
427.9373
 20
-20.805
 11
427.9373
 21
-21.1812
  0
LINE
  8
LAYER_1
 10
427.9152
 20
-24.2983
 11
427.6044
 21
-24.2983
  0
LINE
  8
LAYER_1
 10
427.6044
 20
-24.2983
 11
427.6044
 21
-21.844
  0
LINE
  8
LAYER_1
 10
427.6044
 20
-21.844
 11
427.9152
 21
-21.844
  0
LINE
  8
LAYER_1
 10
427.9152
 20
-21.844
 11
427.9152
 21
-24.2983
  0
ENDBLK
  0
BLOCK
  8
LAYER_1
  2
AIGNBL01020013
 70
64
 10
0
 20
0
 30
0
  3
AIGNBL01020013
  0
LINE
  8
LAYER_1
 10
428.9369
 20
-23.0085
 11
430.2472
 21
-21.844
  0
LINE
  8
LAYER_1
 10
430.2472
 20
-21.844
 11
430.6468
 21
-21.844
  0
LINE
  8
LAYER_1
 10
430.6468
 20
-21.844
 11
429.6477
 21
-22.7577
  0
LINE
  8
LAYER_1
 10
429.6477
 20
-22.7577
 11
430.8026
 21
-24.2983
  0
LINE
  8
LAYER_1
 10
430.8026
 20
-24.2983
 11
430.4247
 21
-24.2983
  0
LINE
  8
LAYER_1
 10
430.4247
 20
-24.2983
 11
429.4256
 21
-22.9547
  0
LINE
  8
LAYER_1
 10
429.4256
 20
-22.9547
 11
428.9369
 21
-23.3668
  0
LINE
  8
LAYER_1
 10
428.9369
 20
-23.3668
 11
428.9369
 21
-24.2983
  0
LINE
  8
LAYER_1
 10
428.9369
 20
-24.2983
 11
428.626
 21
-24.2983
  0
LINE
  8
LAYER_1
 10
428.626
 20
-24.2983
 11
428.626
 21
-20.805
  0
LINE
  8
LAYER_1
 10
428.626
 20
-20.805
 11
428.9369
 21
-20.805
  0
LINE
  8
LAYER_1
 10
428.9369
 20
-20.805
 11
428.9369
 21
-23.0085
  0
ENDBLK
  0
BLOCK
  8
LAYER_1
  2
AIGNBL01020014
 70
64
 10
0
 20
0
 30
0
  3
AIGNBL01020014
  0
ARC
  8
LAYER_1
 10
432.7677
 20
-22.7468
 40
0.8773
 50
12.60342893
 51
49.78011216
  0
ARC
  8
LAYER_1
 10
431.6577
 20
-23.07
 40
2.0324
 50
358.7039478
 51
14.66866777
  0
LINE
  8
LAYER_1
 10
433.6896
 20
-23.116
 11
431.8239
 21
-23.116
  0
ARC
  8
LAYER_1
 10
432.9891
 20
-23.1128
 40
1.1652
 50
180.1560842
 51
212.928069
  0
ARC
  8
LAYER_1
 10
432.499
 20
-23.3724
 40
0.6146
 50
217.4550261
 51
231.0501092
  0
ARC
  8
LAYER_1
 10
432.6163
 20
-23.2321
 40
0.7975
 50
230.8292577
 51
270.5067322
  0
ARC
  8
LAYER_1
 10
432.629
 20
-23.2276
 40
0.802
 50
269.6014655
 51
309.0555381
  0
ARC
  8
LAYER_1
 10
432.7746
 20
-23.4102
 40
0.5685
 50
309.2566345
 51
349.8814655
  0
LINE
  8
LAYER_1
 10
433.3342
 20
-23.5101
 11
433.6451
 21
-23.5101
  0
ARC
  8
LAYER_1
 10
432.8248
 20
-23.418
 40
0.8254
 50
314.8934248
 51
353.5925085
  0
ARC
  8
LAYER_1
 10
432.8725
 20
-23.4436
 40
0.7738
 50
308.7020055
 51
313.7346419
  0
ARC
  8
LAYER_1
 10
432.6444
 20
-23.1634
 40
1.1351
 50
268.9403694
 51
308.8417504
  0
ARC
  8
LAYER_1
 10
432.6058
 20
-23.0714
 40
1.2271
 50
239.292602
 51
270.8214191
  0
ARC
  8
LAYER_1
 10
432.5566
 20
-23.1979
 40
1.0933
 50
230.9887202
 51
238.1207089
  0
ARC
  8
LAYER_1
 10
432.468
 20
-23.3172
 40
0.9449
 50
194.4739004
 51
230.6139941
  0
ARC
  8
LAYER_1
 10
433.202
 20
-23.0951
 40
1.7114
 50
178.8974963
 51
195.5311997
  0
ARC
  8
LAYER_1
 10
432.9545
 20
-23.0274
 40
1.464
 50
152.2530449
 51
181.3625408
  0
ARC
  8
LAYER_1
 10
432.505
 20
-22.8406
 40
0.9802
 50
128.8211147
 51
149.6825298
  0
ARC
  8
LAYER_1
 10
432.5459
 20
-22.905
 40
1.0561
 50
94.54669966
 51
128.3632401
  0
ARC
  8
LAYER_1
 10
432.6143
 20
-23.2511
 40
1.4071
 50
89.62882822
 51
96.20374131
  0
ARC
  8
LAYER_1
 10
432.6418
 20
-23.0057
 40
1.1619
 50
58.69802063
 51
90.90817191
  0
ARC
  8
LAYER_1
 10
432.6991
 20
-22.865
 40
1.0121
 50
51.13382282
 51
57.32765886
  0
ARC
  8
LAYER_1
 10
432.4638
 20
-22.8568
 40
0.8926
 50
0.6140575039
 51
37.95411585
  0
ARC
  8
LAYER_1
 10
432.7666
 20
-22.6817
 40
0.5482
 50
42.99467696
 51
50.92037445
  0
ARC
  8
LAYER_1
 10
432.6474
 20
-22.8433
 40
0.7489
 50
51.63805184
 51
91.8370139
  0
ARC
  8
LAYER_1
 10
432.6012
 20
-22.914
 40
0.8195
 50
88.44903279
 51
126.6010303
  0
ARC
  8
LAYER_1
 10
432.6059
 20
-22.8631
 40
0.7821
 50
129.1002074
 51
178.8369681
  0
LINE
  8
LAYER_1
 10
431.8239
 20
-22.8472
 11
433.3563
 21
-22.8472
  0
ENDBLK
  0
BLOCK
  8
LAYER_1
  2
AIGNBL01020015
 70
64
 10
0
 20
0
 30
0
  3
AIGNBL01020015
  0
ARC
  8
LAYER_1
 10
435.6878
 20
-22.5203
 40
0.6524
 50
6.056198854
 51
49.63190274
  0
ARC
  8
LAYER_1
 10
434.9138
 20
-22.6803
 40
1.4411
 50
359.7752786
 51
9.138499501
  0
LINE
  8
LAYER_1
 10
436.3549
 20
-22.686
 11
436.3549
 21
-24.2983
  0
LINE
  8
LAYER_1
 10
436.3549
 20
-24.2983
 11
436.0441
 21
-24.2983
  0
LINE
  8
LAYER_1
 10
436.0441
 20
-24.2983
 11
436.0441
 21
-22.7218
  0
ARC
  8
LAYER_1
 10
435.1844
 20
-22.6927
 40
0.8602
 50
358.0627892
 51
19.48702453
  0
ARC
  8
LAYER_1
 10
435.5877
 20
-22.5517
 40
0.4329
 50
19.69341995
 51
49.96487887
  0
ARC
  8
LAYER_1
 10
435.5324
 20
-22.6759
 40
0.5649
 50
53.77483402
 51
94.43462921
  0
ARC
  8
LAYER_1
 10
435.4891
 20
-22.8058
 40
0.6931
 50
90.03352854
 51
129.8891711
  0
ARC
  8
LAYER_1
 10
435.7465
 20
-23.1355
 40
1.1112
 50
129.1703986
 51
162.076029
  0
LINE
  8
LAYER_1
 10
434.6892
 20
-22.7935
 11
434.6892
 21
-24.2983
  0
LINE
  8
LAYER_1
 10
434.6892
 20
-24.2983
 11
434.3783
 21
-24.2983
  0
LINE
  8
LAYER_1
 10
434.3783
 20
-24.2983
 11
434.3783
 21
-21.844
  0
LINE
  8
LAYER_1
 10
434.3783
 20
-21.844
 11
434.6892
 21
-21.844
  0
LINE
  8
LAYER_1
 10
434.6892
 20
-21.844
 11
434.6892
 21
-22.3456
  0
ARC
  8
LAYER_1
 10
435.6081
 20
-22.9351
 40
1.0917
 50
128.1761014
 51
147.3168645
  0
ARC
  8
LAYER_1
 10
435.5819
 20
-22.8561
 40
1.0138
 50
94.72061871
 51
129.7725865
  0
ARC
  8
LAYER_1
 10
435.5547
 20
-22.7625
 40
0.9185
 50
89.95863166
 51
93.51281454
  0
ARC
  8
LAYER_1
 10
435.5747
 20
-22.7353
 40
0.8916
 50
53.90672978
 51
91.24072559
  0
ARC
  8
LAYER_1
 10
435.6259
 20
-22.6255
 40
0.773
 50
51.182327
 51
52.17256148
  0
ENDBLK
  0
BLOCK
  8
LAYER_1
  2
AIGNBL01020016
 70
64
 10
0
 20
0
 30
0
  3
AIGNBL01020016
  0
LINE
  8
LAYER_1
 10
438.487
 20
-23.8684
 11
439.5531
 21
-20.805
  0
LINE
  8
LAYER_1
 10
439.5531
 20
-20.805
 11
439.9306
 21
-20.805
  0
LINE
  8
LAYER_1
 10
439.9306
 20
-20.805
 11
438.6648
 21
-24.2983
  0
LINE
  8
LAYER_1
 10
438.6648
 20
-24.2983
 11
438.3094
 21
-24.2983
  0
LINE
  8
LAYER_1
 10
438.3094
 20
-24.2983
 11
437.0436
 21
-20.805
  0
LINE
  8
LAYER_1
 10
437.0436
 20
-20.805
 11
437.4211
 21
-20.805
  0
LINE
  8
LAYER_1
 10
437.4211
 20
-20.805
 11
438.487
 21
-23.8684
  0
ENDBLK
  0
BLOCK
  8
LAYER_1
  2
AIGNBL01020017
 70
64
 10
0
 20
0
 30
0
  3
AIGNBL01020017
  0
ARC
  8
LAYER_1
 10
441.8961
 20
-22.7468
 40
0.8773
 50
12.60342893
 51
49.78011216
  0
ARC
  8
LAYER_1
 10
440.7861
 20
-23.07
 40
2.0324
 50
358.7039478
 51
14.66866777
  0
LINE
  8
LAYER_1
 10
442.818
 20
-23.116
 11
440.9523
 21
-23.116
  0
ARC
  8
LAYER_1
 10
442.1175
 20
-23.1128
 40
1.1652
 50
180.1560842
 51
212.928069
  0
ARC
  8
LAYER_1
 10
441.6274
 20
-23.3724
 40
0.6146
 50
217.4550261
 51
231.0501092
  0
ARC
  8
LAYER_1
 10
441.7447
 20
-23.2321
 40
0.7975
 50
230.8292577
 51
270.5067322
  0
ARC
  8
LAYER_1
 10
441.7574
 20
-23.228
 40
0.8016
 50
269.5985724
 51
309.0654377
  0
ARC
  8
LAYER_1
 10
441.9033
 20
-23.4103
 40
0.5681
 50
309.2282882
 51
349.88478
  0
LINE
  8
LAYER_1
 10
442.4626
 20
-23.5101
 11
442.7735
 21
-23.5101
  0
ARC
  8
LAYER_1
 10
441.9532
 20
-23.418
 40
0.8254
 50
314.8934248
 51
353.5925085
  0
ARC
  8
LAYER_1
 10
442.0009
 20
-23.4436
 40
0.7738
 50
308.7020055
 51
313.7346419
  0
ARC
  8
LAYER_1
 10
441.7728
 20
-23.1634
 40
1.1351
 50
268.9403694
 51
308.8417504
  0
ARC
  8
LAYER_1
 10
441.7342
 20
-23.0714
 40
1.2271
 50
239.292602
 51
270.8214191
  0
ARC
  8
LAYER_1
 10
441.685
 20
-23.1979
 40
1.0933
 50
230.9887202
 51
238.1207089
  0
ARC
  8
LAYER_1
 10
441.5964
 20
-23.3172
 40
0.9449
 50
194.4739004
 51
230.6139941
  0
ARC
  8
LAYER_1
 10
442.3304
 20
-23.0951
 40
1.7114
 50
178.8974963
 51
195.5311997
  0
ARC
  8
LAYER_1
 10
442.0829
 20
-23.0274
 40
1.464
 50
152.2530449
 51
181.3625408
  0
ARC
  8
LAYER_1
 10
441.6334
 20
-22.8406
 40
0.9802
 50
128.8211147
 51
149.6825298
  0
ARC
  8
LAYER_1
 10
441.6743
 20
-22.905
 40
1.0561
 50
94.54669966
 51
128.3632401
  0
ARC
  8
LAYER_1
 10
441.7427
 20
-23.2511
 40
1.4071
 50
89.62882822
 51
96.20374131
  0
ARC
  8
LAYER_1
 10
441.7702
 20
-23.0057
 40
1.1619
 50
58.69802063
 51
90.90817191
  0
ARC
  8
LAYER_1
 10
441.8275
 20
-22.865
 40
1.0121
 50
51.13382282
 51
57.32765886
  0
ARC
  8
LAYER_1
 10
441.5925
 20
-22.8567
 40
0.8922
 50
0.6119614454
 51
37.96855503
  0
ARC
  8
LAYER_1
 10
441.8951
 20
-22.6817
 40
0.5481
 50
43.01072067
 51
50.94022455
  0
ARC
  8
LAYER_1
 10
441.7759
 20
-22.8428
 40
0.7484
 50
51.62315581
 51
91.8449322
  0
ARC
  8
LAYER_1
 10
441.7296
 20
-22.914
 40
0.8195
 50
88.44903279
 51
126.6010303
  0
ARC
  8
LAYER_1
 10
441.7343
 20
-22.8631
 40
0.7821
 50
129.1002074
 51
178.8369681
  0
LINE
  8
LAYER_1
 10
440.9523
 20
-22.8472
 11
442.4847
 21
-22.8472
  0
ENDBLK
  0
BLOCK
  8
LAYER_1
  2
AIGNBL01020018
 70
64
 10
0
 20
0
 30
0
  3
AIGNBL01020018
  0
ARC
  8
LAYER_1
 10
444.8014
 20
-22.7105
 40
0.8377
 50
1.677130822
 51
51.05752676
  0
LINE
  8
LAYER_1
 10
445.6387
 20
-22.686
 11
445.3054
 21
-22.686
  0
ARC
  8
LAYER_1
 10
444.6614
 20
-22.7038
 40
0.6443
 50
1.58055456
 51
45.70579646
  0
ARC
  8
LAYER_1
 10
444.8121
 20
-22.6001
 40
0.4662
 50
50.0789695
 51
50.95457144
  0
ARC
  8
LAYER_1
 10
444.688
 20
-22.773
 40
0.6787
 50
52.00800242
 51
92.22480384
  0
ARC
  8
LAYER_1
 10
444.6564
 20
-22.8985
 40
0.8037
 50
89.62462979
 51
129.0113687
  0
ARC
  8
LAYER_1
 10
444.6629
 20
-22.8912
 40
0.8022
 50
129.6953429
 51
169.2422479
  0
ARC
  8
LAYER_1
 10
445.3478
 20
-23.0652
 40
1.5082
 50
167.6061446
 51
180.565491
  0
ARC
  8
LAYER_1
 10
445.0518
 20
-23.125
 40
1.2129
 50
177.8763812
 51
209.7521938
  0
ARC
  8
LAYER_1
 10
444.5342
 20
-23.3663
 40
0.6455
 50
213.9633399
 51
231.0556063
  0
ARC
  8
LAYER_1
 10
444.6246
 20
-23.2708
 40
0.7767
 50
230.2972029
 51
269.4487938
  0
ARC
  8
LAYER_1
 10
444.6373
 20
-23.4124
 40
0.6354
 50
268.1802574
 51
306.6648982
  0
ARC
  8
LAYER_1
 10
444.5862
 20
-23.4023
 40
0.6749
 50
309.6324237
 51
331.4085902
  0
ARC
  8
LAYER_1
 10
444.1517
 20
-23.1781
 40
1.1638
 50
331.95394
 51
352.4559225
  0
LINE
  8
LAYER_1
 10
445.3054
 20
-23.3309
 11
445.6387
 21
-23.3309
  0
ARC
  8
LAYER_1
 10
444.455
 20
-23.2618
 40
1.1857
 50
324.474546
 51
356.6583966
  0
ARC
  8
LAYER_1
 10
444.8301
 20
-23.4757
 40
0.7574
 50
308.8650125
 51
321.1503435
  0
ARC
  8
LAYER_1
 10
444.6494
 20
-23.2583
 40
1.0401
 50
269.4368966
 51
309.1018168
  0
ARC
  8
LAYER_1
 10
444.6151
 20
-23.0785
 40
1.2201
 50
239.4756042
 51
271.1328127
  0
ARC
  8
LAYER_1
 10
444.521
 20
-23.3043
 40
0.9783
 50
231.0737229
 51
237.5038096
  0
ARC
  8
LAYER_1
 10
444.5437
 20
-23.2802
 40
1.0113
 50
196.2076981
 51
230.9284391
  0
ARC
  8
LAYER_1
 10
445.0941
 20
-23.109
 40
1.5877
 50
178.9571715
 51
196.5979576
  0
ARC
  8
LAYER_1
 10
444.9703
 20
-23.0453
 40
1.464
 50
152.2530449
 51
181.3625408
  0
ARC
  8
LAYER_1
 10
444.5208
 20
-22.8585
 40
0.9802
 50
128.8211147
 51
149.6825298
  0
ARC
  8
LAYER_1
 10
444.6253
 20
-22.9973
 40
1.1538
 50
88.19025853
 51
128.543058
  0
ARC
  8
LAYER_1
 10
444.6825
 20
-22.9328
 40
1.089
 50
57.4805716
 51
91.0943877
  0
ARC
  8
LAYER_1
 10
444.7507
 20
-22.7749
 40
0.9196
 50
51.12301525
 51
55.77480643
  0
ENDBLK
  0
BLOCK
  8
LAYER_1
  2
AIGNBL01020019
 70
64
 10
0
 20
0
 30
0
  3
AIGNBL01020019
  0
LINE
  8
LAYER_1
 10
446.7049
 20
-22.1127
 11
446.3274
 21
-22.1127
  0
LINE
  8
LAYER_1
 10
446.3274
 20
-22.1127
 11
446.3274
 21
-21.844
  0
LINE
  8
LAYER_1
 10
446.3274
 20
-21.844
 11
446.7049
 21
-21.844
  0
LINE
  8
LAYER_1
 10
446.7049
 20
-21.844
 11
446.7049
 21
-21.1633
  0
LINE
  8
LAYER_1
 10
446.7049
 20
-21.1633
 11
447.0158
 21
-21.1633
  0
LINE
  8
LAYER_1
 10
447.0158
 20
-21.1633
 11
447.0158
 21
-21.844
  0
LINE
  8
LAYER_1
 10
447.0158
 20
-21.844
 11
447.6599
 21
-21.844
  0
LINE
  8
LAYER_1
 10
447.6599
 20
-21.844
 11
447.6599
 21
-22.1127
  0
LINE
  8
LAYER_1
 10
447.6599
 20
-22.1127
 11
447.0158
 21
-22.1127
  0
LINE
  8
LAYER_1
 10
447.0158
 20
-22.1127
 11
447.0158
 21
-23.8146
  0
ARC
  8
LAYER_1
 10
447.2112
 20
-23.8283
 40
0.1959
 50
175.9860333
 51
228.8849602
  0
ARC
  8
LAYER_1
 10
447.2715
 20
-23.6801
 40
0.3511
 50
237.4176742
 51
275.3977506
  0
ARC
  8
LAYER_1
 10
447.2322
 20
-21.9748
 40
2.0561
 50
272.0139483
 51
283.2785335
  0
LINE
  8
LAYER_1
 10
447.7045
 20
-23.9759
 11
447.7045
 21
-24.2446
  0
ARC
  8
LAYER_1
 10
447.2958
 20
-22.7281
 40
1.5706
 50
268.6939306
 51
285.0830976
  0
ARC
  8
LAYER_1
 10
447.2136
 20
-23.5994
 40
0.7004
 50
237.5992903
 51
273.7981536
  0
ARC
  8
LAYER_1
 10
447.0862
 20
-23.8994
 40
0.3826
 50
175.3514565
 51
229.6053193
  0
LINE
  8
LAYER_1
 10
446.7049
 20
-23.8684
 11
446.7049
 21
-22.1127
  0
ENDBLK
  0
BLOCK
  8
LAYER_1
  2
AIGNBL0102001A
 70
64
 10
0
 20
0
 30
0
  3
AIGNBL0102001A
  0
ARC
  8
LAYER_1
 10
449.5289
 20
-23.0302
 40
1.1862
 50
50.66677427
 51
90.17171201
  0
ARC
  8
LAYER_1
 10
449.673
 20
-22.8549
 40
0.9592
 50
14.76585385
 51
50.68641275
  0
ARC
  8
LAYER_1
 10
449.0614
 20
-23.0364
 40
1.597
 50
359.0757295
 51
15.47348178
  0
ARC
  8
LAYER_1
 10
449.1697
 20
-23.1002
 40
1.489
 50
332.9248548
 51
1.463570552
  0
ARC
  8
LAYER_1
 10
449.712
 20
-23.3266
 40
0.9042
 50
308.9730079
 51
330.0558863
  0
ARC
  8
LAYER_1
 10
449.5262
 20
-23.1047
 40
1.1936
 50
269.9562788
 51
309.2052349
  0
ARC
  8
LAYER_1
 10
449.5215
 20
-23.114
 40
1.1844
 50
230.6348894
 51
270.1844284
  0
ARC
  8
LAYER_1
 10
449.3712
 20
-23.2949
 40
0.9491
 50
194.5638459
 51
230.717391
  0
ARC
  8
LAYER_1
 10
450.0526
 20
-23.0911
 40
1.6601
 50
179.0015303
 51
195.4587807
  0
ARC
  8
LAYER_1
 10
449.8269
 20
-23.0263
 40
1.4346
 50
152.436114
 51
181.4349136
  0
ARC
  8
LAYER_1
 10
449.344
 20
-22.8244
 40
0.9141
 50
128.8724161
 51
149.6456964
  0
ARC
  8
LAYER_1
 10
449.5243
 20
-23.0363
 40
1.1923
 50
89.95302455
 51
129.2276577
  0
ARC
  8
LAYER_1
 10
449.4953
 20
-22.8659
 40
0.7488
 50
129.9530716
 51
170.501807
  0
ARC
  8
LAYER_1
 10
450.247
 20
-23.0488
 40
1.5214
 50
168.3798418
 51
180.5055652
  0
ARC
  8
LAYER_1
 10
449.9372
 20
-23.1071
 40
1.2124
 50
177.8771714
 51
209.7670297
  0
ARC
  8
LAYER_1
 10
449.4199
 20
-23.3484
 40
0.6453
 50
213.9768855
 51
231.0731946
  0
ARC
  8
LAYER_1
 10
449.5182
 20
-23.2323
 40
0.7974
 50
230.8249409
 51
270.5110491
  0
ARC
  8
LAYER_1
 10
449.5309
 20
-23.2279
 40
0.8017
 50
269.6008139
 51
309.0631962
  0
ARC
  8
LAYER_1
 10
449.5568
 20
-23.28
 40
0.7451
 50
310.0400492
 51
350.802338
  0
ARC
  8
LAYER_1
 10
448.7345
 20
-23.0782
 40
1.5905
 50
348.3611623
 51
0.5759523641
  0
ARC
  8
LAYER_1
 10
449.1639
 20
-23.0205
 40
1.1618
 50
357.9409237
 51
30.41562059
  0
ARC
  8
LAYER_1
 10
449.6205
 20
-22.8058
 40
0.661
 50
34.41492789
 51
51.03830788
  0
ARC
  8
LAYER_1
 10
449.531
 20
-22.914
 40
0.8013
 50
50.92748548
 51
90.40850442
  0
ARC
  8
LAYER_1
 10
449.5201
 20
-22.9156
 40
0.8029
 50
89.63079039
 51
129.0332197
  0
ENDBLK
  0
BLOCK
  8
LAYER_1
  2
AIGNBL0102001B
 70
64
 10
0
 20
0
 30
0
  3
AIGNBL0102001B
  0
ARC
  8
LAYER_1
 10
452.7372
 20
-23.1953
 40
1.0473
 50
91.95645751
 51
126.0369085
  0
ARC
  8
LAYER_1
 10
452.6832
 20
-23.0842
 40
0.926
 50
127.3779545
 51
128.8913016
  0
ARC
  8
LAYER_1
 10
452.9253
 20
-23.3677
 40
1.2987
 50
129.3528982
 51
160.1704852
  0
ARC
  8
LAYER_1
 10
453.2635
 20
-23.5329
 40
1.6733
 50
158.7783495
 51
163.6635765
  0
LINE
  8
LAYER_1
 10
451.6577
 20
-23.0622
 11
451.6577
 21
-24.2983
  0
LINE
  8
LAYER_1
 10
451.6577
 20
-24.2983
 11
451.3468
 21
-24.2983
  0
LINE
  8
LAYER_1
 10
451.3468
 20
-24.2983
 11
451.3468
 21
-21.844
  0
LINE
  8
LAYER_1
 10
451.3468
 20
-21.844
 11
451.6577
 21
-21.844
  0
LINE
  8
LAYER_1
 10
451.6577
 20
-21.844
 11
451.6577
 21
-22.4889
  0
ARC
  8
LAYER_1
 10
452.58
 20
-22.9344
 40
1.0242
 50
126.6565608
 51
154.2193804
  0
ARC
  8
LAYER_1
 10
452.7308
 20
-23.0804
 40
1.2319
 50
96.74353549
 51
128.2269731
  0
ARC
  8
LAYER_1
 10
452.8303
 20
-23.4967
 40
1.6577
 50
94.46061072
 51
98.47202668
  0
LINE
  8
LAYER_1
 10
452.7014
 20
-21.844
 11
452.7014
 21
-22.1486
  0
ENDBLK
  0
BLOCK
  8
LAYER_1
  2
AIGNBL0102001C
 70
64
 10
0
 20
0
 30
0
  3
AIGNBL0102001C
  0
ARC
  8
LAYER_1
 10
456.7582
 20
-22.1683
 40
1.3729
 50
22.00654621
 51
51.6500167
  0
ARC
  8
LAYER_1
 10
456.7256
 20
-22.1556
 40
1.3986
 50
3.959491083
 51
21.02324604
  0
LINE
  8
LAYER_1
 10
458.1208
 20
-22.059
 11
457.7654
 21
-22.059
  0
ARC
  8
LAYER_1
 10
456.4773
 20
-22.2687
 40
1.3051
 50
9.247721815
 51
39.90927426
  0
ARC
  8
LAYER_1
 10
456.7417
 20
-22.0965
 40
0.9925
 50
42.07731778
 51
51.06596478
  0
ARC
  8
LAYER_1
 10
456.7573
 20
-22.0767
 40
0.9673
 50
51.04363883
 51
90.80293306
  0
ARC
  8
LAYER_1
 10
456.7436
 20
-22.1164
 40
1.0069
 50
89.996563
 51
129.7623857
  0
ARC
  8
LAYER_1
 10
456.8221
 20
-22.224
 40
1.1398
 50
129.3391113
 51
161.8447062
  0
ARC
  8
LAYER_1
 10
457.655
 20
-22.5179
 40
2.0229
 50
161.2836233
 51
181.716646
  0
ARC
  8
LAYER_1
 10
457.7335
 20
-22.6331
 40
2.1012
 50
178.511837
 51
202.8960359
  0
ARC
  8
LAYER_1
 10
456.6782
 20
-23.0255
 40
0.9776
 50
205.7715322
 51
230.4037019
  0
ARC
  8
LAYER_1
 10
456.664
 20
-23.011
 40
0.9799
 50
231.5820589
 51
266.9330238
  0
ARC
  8
LAYER_1
 10
456.7159
 20
-22.7145
 40
1.2793
 50
265.3203966
 51
270.2396811
  0
ARC
  8
LAYER_1
 10
456.7423
 20
-22.9042
 40
1.0898
 50
268.8971713
 51
302.5081969
  0
ARC
  8
LAYER_1
 10
456.8109
 20
-23.0631
 40
0.9193
 50
304.2242989
 51
308.8774009
  0
ARC
  8
LAYER_1
 10
456.7694
 20
-23.039
 40
0.9643
 50
309.8958196
 51
345.795109
  0
ARC
  8
LAYER_1
 10
455.9421
 20
-22.7622
 40
1.8354
 50
343.7549687
 51
353.4159697
  0
LINE
  8
LAYER_1
 10
457.7654
 20
-22.9726
 11
458.1208
 21
-22.9726
  0
ARC
  8
LAYER_1
 10
456.3547
 20
-22.8433
 40
1.7708
 50
329.5146199
 51
355.8127563
  0
ARC
  8
LAYER_1
 10
456.974
 20
-23.1548
 40
1.0801
 50
309.0350709
 51
327.0907664
  0
ARC
  8
LAYER_1
 10
456.7842
 20
-22.9059
 40
1.393
 50
268.3344943
 51
308.6486361
  0
ARC
  8
LAYER_1
 10
456.7274
 20
-22.7407
 40
1.5577
 50
242.6619831
 51
270.6005008
  0
ARC
  8
LAYER_1
 10
456.697
 20
-22.8528
 40
1.4444
 50
231.0390206
 51
241.6899865
  0
ARC
  8
LAYER_1
 10
456.5554
 20
-23.0446
 40
1.2063
 50
198.8274796
 51
230.5427575
  0
ARC
  8
LAYER_1
 10
457.3022
 20
-22.7452
 40
2.0102
 50
188.8832669
 51
200.0347189
  0
ARC
  8
LAYER_1
 10
458.4504
 20
-22.5647
 40
3.1725
 50
179.6026947
 51
188.9012247
  0
ARC
  8
LAYER_1
 10
457.4076
 20
-22.5116
 40
2.1299
 50
156.9990092
 51
180.8357964
  0
ARC
  8
LAYER_1
 10
456.8267
 20
-22.3113
 40
1.5175
 50
128.7214599
 51
155.3901015
  0
ARC
  8
LAYER_1
 10
456.7931
 20
-22.2361
 40
1.4378
 50
100.5901069
 51
129.5507529
  0
ARC
  8
LAYER_1
 10
456.743
 20
-22.1093
 40
1.3043
 50
89.97123927
 51
99.4536263
  0
ARC
  8
LAYER_1
 10
456.7623
 20
-22.2303
 40
1.4254
 50
61.29712441
 51
90.74719796
  0
ARC
  8
LAYER_1
 10
456.8114
 20
-22.0842
 40
1.2739
 50
51.18115177
 51
60.0783007
  0
ENDBLK
  0
BLOCK
  8
LAYER_1
  2
AIGNBL0102001D
 70
64
 10
0
 20
0
 30
0
  3
AIGNBL0102001D
  0
ARC
  8
LAYER_1
 10
459.9456
 20
-23.0299
 40
1.1859
 50
50.66150285
 51
90.17219299
  0
ARC
  8
LAYER_1
 10
460.0896
 20
-22.8549
 40
0.9592
 50
14.76585385
 51
50.68641275
  0
ARC
  8
LAYER_1
 10
459.478
 20
-23.0364
 40
1.597
 50
359.0757295
 51
15.47348178
  0
ARC
  8
LAYER_1
 10
459.5863
 20
-23.1002
 40
1.489
 50
332.9248548
 51
1.463570552
  0
ARC
  8
LAYER_1
 10
460.1286
 20
-23.3266
 40
0.9042
 50
308.9730079
 51
330.0558863
  0
ARC
  8
LAYER_1
 10
459.9429
 20
-23.1049
 40
1.1934
 50
269.9580643
 51
309.2082399
  0
ARC
  8
LAYER_1
 10
459.9382
 20
-23.114
 40
1.1844
 50
230.6348894
 51
270.1844284
  0
ARC
  8
LAYER_1
 10
459.7875
 20
-23.2952
 40
0.9487
 50
194.5571008
 51
230.7288295
  0
ARC
  8
LAYER_1
 10
460.4698
 20
-23.0912
 40
1.6605
 50
179.000404
 51
195.4530529
  0
ARC
  8
LAYER_1
 10
460.2438
 20
-23.0262
 40
1.4347
 50
152.4410049
 51
181.436924
  0
ARC
  8
LAYER_1
 10
459.7603
 20
-22.8242
 40
0.9137
 50
128.860566
 51
149.6458489
  0
ARC
  8
LAYER_1
 10
459.941
 20
-23.0363
 40
1.1923
 50
89.95302455
 51
129.2276577
  0
ARC
  8
LAYER_1
 10
459.9122
 20
-22.8659
 40
0.7489
 50
129.9690508
 51
170.50432
  0
ARC
  8
LAYER_1
 10
460.664
 20
-23.0488
 40
1.5216
 50
168.3814377
 51
180.5052229
  0
ARC
  8
LAYER_1
 10
460.3543
 20
-23.1071
 40
1.2127
 50
177.8785198
 51
209.7588518
  0
ARC
  8
LAYER_1
 10
459.8367
 20
-23.3485
 40
0.6453
 50
213.9659461
 51
231.0581026
  0
ARC
  8
LAYER_1
 10
459.935
 20
-23.2317
 40
0.7979
 50
230.8389638
 51
270.5040327
  0
ARC
  8
LAYER_1
 10
459.9475
 20
-23.2277
 40
0.8019
 50
269.6052449
 51
309.0587652
  0
ARC
  8
LAYER_1
 10
459.9736
 20
-23.2802
 40
0.7448
 50
310.0414717
 51
350.815074
  0
ARC
  8
LAYER_1
 10
459.15
 20
-23.0782
 40
1.5916
 50
348.3697402
 51
0.5762293062
  0
ARC
  8
LAYER_1
 10
459.5801
 20
-23.0204
 40
1.1621
 50
357.9389673
 51
30.40330024
  0
ARC
  8
LAYER_1
 10
460.0374
 20
-22.8056
 40
0.6606
 50
34.40761089
 51
51.03835046
  0
ARC
  8
LAYER_1
 10
459.9477
 20
-22.9142
 40
0.8015
 50
50.93185275
 51
90.40413715
  0
ARC
  8
LAYER_1
 10
459.9369
 20
-22.9159
 40
0.8033
 50
89.63368354
 51
129.02332
  0
ENDBLK
  0
BLOCK
  8
LAYER_1
  2
AIGNBL0102001E
 70
64
 10
0
 20
0
 30
0
  3
AIGNBL0102001E
  0
ARC
  8
LAYER_1
 10
463.1539
 20
-23.1953
 40
1.0473
 50
91.95645751
 51
126.0369085
  0
ARC
  8
LAYER_1
 10
463.0999
 20
-23.0842
 40
0.926
 50
127.3779545
 51
128.8913016
  0
ARC
  8
LAYER_1
 10
463.3399
 20
-23.3659
 40
1.2959
 50
129.332204
 51
159.9069539
  0
ARC
  8
LAYER_1
 10
463.6747
 20
-23.5307
 40
1.6675
 50
158.5388601
 51
163.6807402
  0
LINE
  8
LAYER_1
 10
462.0744
 20
-23.0622
 11
462.0744
 21
-24.2983
  0
LINE
  8
LAYER_1
 10
462.0744
 20
-24.2983
 11
461.7635
 21
-24.2983
  0
LINE
  8
LAYER_1
 10
461.7635
 20
-24.2983
 11
461.7635
 21
-21.844
  0
LINE
  8
LAYER_1
 10
461.7635
 20
-21.844
 11
462.0744
 21
-21.844
  0
LINE
  8
LAYER_1
 10
462.0744
 20
-21.844
 11
462.0744
 21
-22.4889
  0
ARC
  8
LAYER_1
 10
462.9967
 20
-22.9344
 40
1.0242
 50
126.6565608
 51
154.2193804
  0
ARC
  8
LAYER_1
 10
463.1474
 20
-23.0802
 40
1.2317
 50
96.74246499
 51
128.2300082
  0
ARC
  8
LAYER_1
 10
463.247
 20
-23.4967
 40
1.6578
 50
94.45845648
 51
98.47084945
  0
LINE
  8
LAYER_1
 10
463.1181
 20
-21.844
 11
463.1181
 21
-22.1486
  0
ENDBLK
  0
BLOCK
  8
LAYER_1
  2
AIGNBL0102001F
 70
64
 10
0
 20
0
 30
0
  3
AIGNBL0102001F
  0
LINE
  8
LAYER_1
 10
464.1176
 20
-24.9611
 11
463.8068
 21
-24.9611
  0
LINE
  8
LAYER_1
 10
463.8068
 20
-24.9611
 11
463.8068
 21
-21.844
  0
LINE
  8
LAYER_1
 10
463.8068
 20
-21.844
 11
464.1176
 21
-21.844
  0
LINE
  8
LAYER_1
 10
464.1176
 20
-21.844
 11
464.1176
 21
-22.3098
  0
ARC
  8
LAYER_1
 10
465.0382
 20
-22.9011
 40
1.0941
 50
128.1836958
 51
147.2859099
  0
ARC
  8
LAYER_1
 10
464.9148
 20
-22.7182
 40
0.8743
 50
89.84136555
 51
129.2360821
  0
ARC
  8
LAYER_1
 10
464.9342
 20
-22.8082
 40
0.9643
 50
55.40305698
 51
91.01142144
  0
ARC
  8
LAYER_1
 10
464.9762
 20
-22.7114
 40
0.8611
 50
51.11850195
 51
54.04538628
  0
ARC
  8
LAYER_1
 10
464.8788
 20
-22.8271
 40
1.0123
 50
16.23203609
 51
50.93564151
  0
ARC
  8
LAYER_1
 10
464.3314
 20
-22.9977
 40
1.5855
 50
358.9626685
 51
16.62339195
  0
ARC
  8
LAYER_1
 10
464.2267
 20
-23.0705
 40
1.6905
 50
334.4969336
 51
1.496466701
  0
ARC
  8
LAYER_1
 10
464.9205
 20
-23.3496
 40
0.9454
 50
309.0982569
 51
331.6574999
  0
ARC
  8
LAYER_1
 10
464.9088
 20
-23.3319
 40
0.9665
 50
269.1867279
 51
308.9723943
  0
ARC
  8
LAYER_1
 10
464.8958
 20
-23.415
 40
0.8833
 50
230.9834303
 51
269.9574475
  0
ARC
  8
LAYER_1
 10
464.7988
 20
-23.4958
 40
0.7598
 50
206.3007402
 51
232.8307134
  0
LINE
  8
LAYER_1
 10
464.1176
 20
-23.8325
 11
464.1176
 21
-24.9611
  0
ARC
  8
LAYER_1
 10
464.8887
 20
-23.3952
 40
0.6371
 50
309.5791827
 51
332.3253901
  0
ARC
  8
LAYER_1
 10
464.5646
 20
-23.2306
 40
1.0007
 50
332.5954985
 51
348.2790377
  0
ARC
  8
LAYER_1
 10
463.6967
 20
-23.0516
 40
1.8868
 50
348.3102889
 51
0.7637669381
  0
ARC
  8
LAYER_1
 10
464.0898
 20
-22.9937
 40
1.494
 50
358.7458632
 51
14.79917522
  0
ARC
  8
LAYER_1
 10
464.8467
 20
-22.7876
 40
0.7095
 50
14.31767997
 51
48.5056822
  0
ARC
  8
LAYER_1
 10
464.9082
 20
-22.7659
 40
0.6533
 50
51.28793348
 51
91.15064139
  0
ARC
  8
LAYER_1
 10
464.8876
 20
-22.8465
 40
0.7338
 50
89.41375603
 51
128.7259852
  0
ARC
  8
LAYER_1
 10
464.9381
 20
-22.893
 40
0.8018
 50
129.4660983
 51
169.0320752
  0
ARC
  8
LAYER_1
 10
465.5575
 20
-23.049
 40
1.4399
 50
167.6239949
 51
180.5238667
  0
ARC
  8
LAYER_1
 10
465.3257
 20
-23.1005
 40
1.2087
 50
178.1865097
 51
209.9182552
  0
ARC
  8
LAYER_1
 10
464.8852
 20
-23.3012
 40
0.7282
 50
213.5157524
 51
231.1607814
  0
ARC
  8
LAYER_1
 10
464.8765
 20
-23.3265
 40
0.7031
 50
230.4192347
 51
269.6808632
  0
ARC
  8
LAYER_1
 10
464.8826
 20
-23.3657
 40
0.664
 50
269.1391726
 51
308.3648093
  0
ENDBLK
  0
BLOCK
  8
LAYER_1
  2
AIGNBL01020020
 70
64
 10
0
 20
0
 30
0
  3
AIGNBL01020020
  0
LINE
  8
LAYER_1
 10
467.0492
 20
-23.9221
 11
467.0492
 21
-24.2983
  0
LINE
  8
LAYER_1
 10
467.0492
 20
-24.2983
 11
466.605
 21
-24.2983
  0
LINE
  8
LAYER_1
 10
466.605
 20
-24.2983
 11
466.605
 21
-23.9221
  0
LINE
  8
LAYER_1
 10
466.605
 20
-23.9221
 11
467.0492
 21
-23.9221
  0
ENDBLK
  0
BLOCK
  8
LAYER_1
  2
AIGNBL01010002
 70
64
 10
0
 20
0
 30
0
  3
AIGNBL01010002
  0
LINE
  8
LAYER_1
 10
339.2192
 20
-16.6014
 11
469.2192
 21
-16.6014
  0
LINE
  8
LAYER_1
 10
339.2192
 20
-26.6014
 11
469.2192
 21
-26.6014
  0
LINE
  8
LAYER_1
 10
339.2192
 20
-66.6014
 11
339.2192
 21
-16.6014
  0
LINE
  8
LAYER_1
 10
359.2192
 20
-66.6014
 11
359.2192
 21
-26.6014
  0
LINE
  8
LAYER_1
 10
424.2192
 20
-66.6014
 11
424.2192
 21
-26.6014
  0
LINE
  8
LAYER_1
 10
404.2192
 20
-66.6014
 11
404.2192
 21
-26.6014
  0
LINE
  8
LAYER_1
 10
339.2192
 20
-36.6014
 11
469.2192
 21
-36.6014
  0
LINE
  8
LAYER_1
 10
339.2192
 20
-46.6014
 11
469.2192
 21
-46.6014
  0
LINE
  8
LAYER_1
 10
339.2192
 20
-56.6014
 11
469.2192
 21
-56.6014
  0
LINE
  8
LAYER_1
 10
469.2192
 20
-66.6014
 11
192.2192
 21
-66.6014
  0
LINE
  8
LAYER_1
 10
192.2192
 20
-66.6014
 11
192.2192
 21
123.3986
  0
LINE
  8
LAYER_1
 10
192.2192
 20
123.3986
 11
469.2192
 21
123.3986
  0
LINE
  8
LAYER_1
 10
469.2192
 20
123.3986
 11
469.2192
 21
-66.6014
  0
ENDBLK
  0
BLOCK
  8
LAYER_1
  2
AIGNBL01010003
 70
64
 10
0
 20
0
 30
0
  3
AIGNBL01010003
  0
INSERT
  8
LAYER_1
  2
AIGNBL01020004
 10
0
 20
0
 30
0
  0
INSERT
  8
LAYER_1
  2
AIGNBL01020005
 10
0
 20
0
 30
0
  0
LINE
  8
LAYER_1
 10
364.2048
 20
-18.5813
 11
364.2048
 21
-19.3139
  0
LINE
  8
LAYER_1
 10
364.2048
 20
-19.3139
 11
366.1562
 21
-19.3139
  0
LINE
  8
LAYER_1
 10
366.1562
 20
-19.3139
 11
366.1562
 21
-19.5982
  0
LINE
  8
LAYER_1
 10
366.1562
 20
-19.5982
 11
363.723
 21
-19.5982
  0
LINE
  8
LAYER_1
 10
363.723
 20
-19.5982
 11
363.723
 21
-21.1415
  0
LINE
  8
LAYER_1
 10
363.723
 20
-21.1415
 11
364.5501
 21
-21.1415
  0
LINE
  8
LAYER_1
 10
364.5501
 20
-21.1415
 11
364.5501
 21
-20.3176
  0
LINE
  8
LAYER_1
 10
364.5501
 20
-20.3176
 11
366.1523
 21
-20.3176
  0
LINE
  8
LAYER_1
 10
366.1523
 20
-20.3176
 11
366.1523
 21
-21.9393
  0
LINE
  8
LAYER_1
 10
366.1523
 20
-21.9393
 11
367.0698
 21
-21.9393
  0
LINE
  8
LAYER_1
 10
367.0698
 20
-21.9393
 11
367.0698
 21
-20.3176
  0
LINE
  8
LAYER_1
 10
367.0698
 20
-20.3176
 11
368.6851
 21
-20.3176
  0
LINE
  8
LAYER_1
 10
368.6851
 20
-20.3176
 11
368.6851
 21
-21.1415
  0
LINE
  8
LAYER_1
 10
368.6851
 20
-21.1415
 11
369.5506
 21
-21.1415
  0
LINE
  8
LAYER_1
 10
369.5506
 20
-21.1415
 11
369.5506
 21
-19.5982
  0
LINE
  8
LAYER_1
 10
369.5506
 20
-19.5982
 11
367.0735
 21
-19.5982
  0
LINE
  8
LAYER_1
 10
367.0735
 20
-19.5982
 11
367.0735
 21
-19.3139
  0
LINE
  8
LAYER_1
 10
367.0735
 20
-19.3139
 11
369.0311
 21
-19.3139
  0
LINE
  8
LAYER_1
 10
369.0311
 20
-19.3139
 11
369.0311
 21
-18.5813
  0
LINE
  8
LAYER_1
 10
369.0311
 20
-18.5813
 11
364.2048
 21
-18.5813
  0
LINE
  8
LAYER_1
 10
364.7018
 20
-21.0377
 11
365.8815
 21
-21.0377
  0
LINE
  8
LAYER_1
 10
365.8815
 20
-21.0377
 11
365.8815
 21
-20.5723
  0
LINE
  8
LAYER_1
 10
365.8815
 20
-20.5723
 11
364.7018
 21
-20.5723
  0
LINE
  8
LAYER_1
 10
364.7018
 20
-20.5723
 11
364.7018
 21
-21.0377
  0
LINE
  8
LAYER_1
 10
364.5596
 20
-21.7428
 11
365.8814
 21
-21.7428
  0
LINE
  8
LAYER_1
 10
365.8814
 20
-21.7428
 11
365.8814
 21
-21.2775
  0
LINE
  8
LAYER_1
 10
365.8814
 20
-21.2775
 11
364.5596
 21
-21.2775
  0
LINE
  8
LAYER_1
 10
364.5596
 20
-21.2775
 11
364.5596
 21
-21.7428
  0
LINE
  8
LAYER_1
 10
367.3404
 20
-21.0377
 11
368.5202
 21
-21.0377
  0
LINE
  8
LAYER_1
 10
368.5202
 20
-21.0377
 11
368.5202
 21
-20.5723
  0
LINE
  8
LAYER_1
 10
368.5202
 20
-20.5723
 11
367.3404
 21
-20.5723
  0
LINE
  8
LAYER_1
 10
367.3404
 20
-20.5723
 11
367.3404
 21
-21.0377
  0
LINE
  8
LAYER_1
 10
367.3404
 20
-21.7428
 11
368.6687
 21
-21.7428
  0
LINE
  8
LAYER_1
 10
368.6687
 20
-21.7428
 11
368.6687
 21
-21.2775
  0
LINE
  8
LAYER_1
 10
368.6687
 20
-21.2775
 11
367.3404
 21
-21.2775
  0
LINE
  8
LAYER_1
 10
367.3404
 20
-21.2775
 11
367.3404
 21
-21.7428
  0
INSERT
  8
LAYER_1
  2
AIGNBL01020006
 10
0
 20
0
 30
0
  0
INSERT
  8
LAYER_1
  2
AIGNBL01020007
 10
0
 20
0
 30
0
  0
INSERT
  8
LAYER_1
  2
AIGNBL01020008
 10
0
 20
0
 30
0
  0
LINE
  8
LAYER_1
 10
341.8674
 20
-18.5497
 11
343.4079
 21
-18.5497
  0
LINE
  8
LAYER_1
 10
343.4079
 20
-18.5497
 11
345.5153
 21
-23.0672
  0
LINE
  8
LAYER_1
 10
345.5153
 20
-23.0672
 11
345.5153
 21
-22.298
  0
LINE
  8
LAYER_1
 10
345.5153
 20
-22.298
 11
347.0579
 21
-22.298
  0
LINE
  8
LAYER_1
 10
347.0579
 20
-22.298
 11
347.0579
 21
-24.6076
  0
LINE
  8
LAYER_1
 10
347.0579
 20
-24.6076
 11
344.7501
 21
-24.6076
  0
LINE
  8
LAYER_1
 10
344.7501
 20
-24.6076
 11
343.4039
 21
-21.7852
  0
LINE
  8
LAYER_1
 10
343.4039
 20
-21.7852
 11
343.4039
 21
-24.6076
  0
LINE
  8
LAYER_1
 10
343.4039
 20
-24.6076
 11
341.8674
 21
-24.6076
  0
LINE
  8
LAYER_1
 10
341.8674
 20
-24.6076
 11
341.8674
 21
-18.5497
  0
INSERT
  8
LAYER_1
  2
AIGNBL01020009
 10
0
 20
0
 30
0
  0
ARC
  8
LAYER_1
 10
395.596
 20
-22.2305
 40
1.991
 50
311.8582543
 51
336.6691081
  0
ARC
  8
LAYER_1
 10
395.1872
 20
-22.027
 40
2.4471
 50
336.0851003
 51
355.051428
  0
LINE
  8
LAYER_1
 10
397.6252
 20
-22.2381
 11
397.6252
 21
-19.0376
  0
LINE
  8
LAYER_1
 10
397.6252
 20
-19.0376
 11
396.439
 21
-19.0376
  0
LINE
  8
LAYER_1
 10
396.439
 20
-19.0376
 11
396.439
 21
-21.9035
  0
ARC
  8
LAYER_1
 10
394.9224
 20
-21.8627
 40
1.5172
 50
331.8855724
 51
358.4603658
  0
ARC
  8
LAYER_1
 10
395.7102
 20
-22.2079
 40
0.6631
 50
317.1647517
 51
326.1018195
  0
ARC
  8
LAYER_1
 10
394.7639
 20
-21.2533
 40
2.0068
 50
296.3435913
 51
315.5475613
  0
LINE
  8
LAYER_1
 10
395.6544
 20
-23.0517
 11
395.6544
 21
-24.2465
  0
ARC
  8
LAYER_1
 10
395.7026
 20
-23.0786
 40
1.1689
 50
267.6356835
 51
281.1038486
  0
ARC
  8
LAYER_1
 10
395.5768
 20
-22.3638
 40
1.8946
 50
280.6747965
 51
303.9554361
  0
ARC
  8
LAYER_1
 10
395.2907
 20
-21.8813
 40
2.4549
 50
303.2046092
 51
311.7270832
  0
ARC
  8
LAYER_1
 10
383.8314
 20
-21.2252
 40
1.9121
 50
200.4586691
 51
212.6743406
  0
ARC
  8
LAYER_1
 10
360.8031
 20
-29.6204
 40
22.5988
 50
19.99339328
 51
22.95988574
  0
ARC
  8
LAYER_1
 10
378.6067
 20
-22.1833
 40
3.306
 50
24.64219126
 51
41.47959493
  0
ARC
  8
LAYER_1
 10
379.6806
 20
-21.3028
 40
1.9189
 50
43.02136381
 51
66.4525374
  0
ARC
  8
LAYER_1
 10
379.7184
 20
-21.2605
 40
1.8651
 50
66.99773131
 51
74.27463074
  0
ARC
  8
LAYER_1
 10
379.368
 20
-22.5551
 40
3.2062
 50
74.51769902
 51
94.05431675
  0
ARC
  8
LAYER_1
 10
379.4093
 20
-23.447
 40
4.0989
 50
93.74814268
 51
109.4943972
  0
ARC
  8
LAYER_1
 10
379.2887
 20
-23.2382
 40
3.8621
 50
108.8424771
 51
117.7754332
  0
ARC
  8
LAYER_1
 10
368.4598
 20
-19.7018
 40
9.0299
 50
353.3553696
 51
359.2433099
  0
ARC
  8
LAYER_1
 10
374.571
 20
-20.4664
 40
2.8719
 50
340.8487615
 51
354.3996639
  0
ARC
  8
LAYER_1
 10
375.9584
 20
-20.8526
 40
1.4373
 50
308.1864107
 51
337.2448854
  0
ARC
  8
LAYER_1
 10
376.1592
 20
-21.149
 40
1.0806
 50
298.9349453
 51
309.5336083
  0
LINE
  8
LAYER_1
 10
376.682
 20
-22.0947
 11
376.682
 21
-23.3672
  0
ARC
  8
LAYER_1
 10
376.106
 20
-20.7972
 40
2.6338
 50
282.6333893
 51
311.7909383
  0
ARC
  8
LAYER_1
 10
376.7215
 20
-21.5796
 40
1.6414
 50
313.9717018
 51
325.1049997
  0
ARC
  8
LAYER_1
 10
376.0497
 20
-21.1555
 40
2.4353
 50
325.9629591
 51
337.240755
  0
ARC
  8
LAYER_1
 10
374.4206
 20
-20.4649
 40
4.2047
 50
337.1507466
 51
344.9155216
  0
ARC
  8
LAYER_1
 10
372.5251
 20
-19.9354
 40
6.1727
 50
344.7493495
 51
353.2524826
  0
ARC
  8
LAYER_1
 10
379.4493
 20
-22.4387
 40
1.9473
 50
90.61876246
 51
114.0685798
  0
ARC
  8
LAYER_1
 10
379.4234
 20
-21.5819
 40
1.0904
 50
61.47137985
 51
89.74597004
  0
ARC
  8
LAYER_1
 10
379.5706
 20
-21.2465
 40
0.7261
 50
38.26904966
 51
59.03310735
  0
ARC
  8
LAYER_1
 10
378.9205
 20
-21.7504
 40
1.5486
 50
25.30110041
 51
38.00948986
  0
ARC
  8
LAYER_1
 10
373.9749
 20
-24.0791
 40
7.0151
 50
19.69687393
 51
25.23305814
  0
ARC
  8
LAYER_1
 10
386.9193
 20
-19.5279
 40
6.7064
 50
199.0311157
 51
214.1623346
  0
ARC
  8
LAYER_1
 10
385.1618
 20
-20.5836
 40
4.6607
 50
215.5556811
 51
216.3864882
  0
ARC
  8
LAYER_1
 10
383.6584
 20
-21.6584
 40
2.813
 50
216.9292895
 51
237.9542217
  0
ARC
  8
LAYER_1
 10
383.2331
 20
-22.3029
 40
2.0411
 50
238.4757313
 51
260.7201572
  0
ARC
  8
LAYER_1
 10
383.0318
 20
-23.1827
 40
1.1418
 50
263.5694348
 51
265.8958457
  0
LINE
  8
LAYER_1
 10
382.9501
 20
-24.3215
 11
382.9501
 21
-22.9626
  0
ARC
  8
LAYER_1
 10
383.3167
 20
-22.1353
 40
0.9049
 50
229.96988
 51
246.0987164
  0
ARC
  8
LAYER_1
 10
384.3907
 20
-20.8244
 40
2.5995
 50
213.456037
 51
230.4288522
  0
LINE
  8
LAYER_1
 10
382.0633
 20
-19.8679
 11
381.4477
 21
-19.8679
  0
LINE
  8
LAYER_1
 10
381.4477
 20
-19.8679
 11
381.2887
 21
-18.8697
  0
LINE
  8
LAYER_1
 10
381.2887
 20
-18.8697
 11
381.9051
 21
-18.8697
  0
LINE
  8
LAYER_1
 10
381.9051
 20
-18.8697
 11
382.0633
 21
-19.8679
  0
LINE
  8
LAYER_1
 10
382.9921
 20
-19.8679
 11
382.3761
 21
-19.8679
  0
LINE
  8
LAYER_1
 10
382.3761
 20
-19.8679
 11
382.2174
 21
-18.8697
  0
LINE
  8
LAYER_1
 10
382.2174
 20
-18.8697
 11
382.8338
 21
-18.8697
  0
LINE
  8
LAYER_1
 10
382.8338
 20
-18.8697
 11
382.9921
 21
-19.8679
  0
ARC
  8
LAYER_1
 10
383.3183
 20
-19.5509
 40
1.2599
 50
294.8524511
 51
325.7601155
  0
ARC
  8
LAYER_1
 10
383.5601
 20
-20.0703
 40
0.687
 50
280.6890826
 51
294.7646552
  0
LINE
  8
LAYER_1
 10
383.6875
 20
-20.7454
 11
383.6875
 21
-21.9955
  0
ARC
  8
LAYER_1
 10
383.3612
 20
-19.5589
 40
2.4583
 50
277.6270469
 51
307.9992312
  0
ARC
  8
LAYER_1
 10
383.759
 20
-20.1928
 40
1.7156
 50
310.5659115
 51
312.159519
  0
ARC
  8
LAYER_1
 10
383.2856
 20
-19.7388
 40
2.3704
 50
313.2747973
 51
336.1316144
  0
ARC
  8
LAYER_1
 10
382.5215
 20
-19.2844
 40
3.2547
 50
334.2596537
 51
342.7183427
  0
LINE
  8
LAYER_1
 10
385.6293
 20
-20.2513
 11
388.0564
 21
-20.2513
  0
ARC
  8
LAYER_1
 10
383.9915
 20
-20.4643
 40
4.0705
 50
346.9025011
 51
2.999941785
  0
ARC
  8
LAYER_1
 10
385.2963
 20
-20.7731
 40
2.7296
 50
327.7013818
 51
347.0097259
  0
ARC
  8
LAYER_1
 10
386.0912
 20
-21.2284
 40
1.8149
 50
312.9843281
 51
326.4412197
  0
ARC
  8
LAYER_1
 10
386.1351
 20
-21.2356
 40
1.7799
 50
298.6810039
 51
312.1080356
  0
ARC
  8
LAYER_1
 10
385.6921
 20
-20.4223
 40
2.7061
 50
288.722301
 51
298.6442188
  0
ARC
  8
LAYER_1
 10
385.0397
 20
-18.4461
 40
4.7871
 50
273.6032038
 51
288.52565
  0
ARC
  8
LAYER_1
 10
384.7344
 20
-16.1893
 40
7.0605
 50
268.3272302
 51
274.9251996
  0
LINE
  8
LAYER_1
 10
384.5283
 20
-23.2468
 11
384.5283
 21
-24.3762
  0
ARC
  8
LAYER_1
 10
384.9397
 20
-16.1249
 40
8.2616
 50
267.1455437
 51
278.4125604
  0
ARC
  8
LAYER_1
 10
385.3612
 20
-18.8424
 40
5.5117
 50
278.2115029
 51
291.6013334
  0
ARC
  8
LAYER_1
 10
386.2851
 20
-21.2815
 40
2.904
 50
292.3692145
 51
310.8515205
  0
ARC
  8
LAYER_1
 10
386.8714
 20
-22.0266
 40
1.9574
 50
312.1360864
 51
321.436068
  0
ARC
  8
LAYER_1
 10
386.3223
 20
-21.2624
 40
2.8745
 50
316.3423507
 51
335.9455414
  0
ARC
  8
LAYER_1
 10
384.9462
 20
-20.6098
 40
4.3972
 50
335.4890821
 51
350.5543308
  0
ARC
  8
LAYER_1
 10
382.2886
 20
-20.0879
 40
7.1048
 50
349.9197281
 51
2.135212313
  0
ARC
  8
LAYER_1
 10
382.287
 20
-19.9966
 40
7.1036
 50
1.398722959
 51
7.163049353
  0
LINE
  8
LAYER_1
 10
389.3352
 20
-19.1108
 11
384.6489
 21
-19.1108
  0
ARC
  8
LAYER_1
 10
379.5344
 20
-18.5618
 40
5.1439
 50
346.1210031
 51
353.873627
  0
ARC
  8
LAYER_1
 10
382.5149
 20
-19.3286
 40
2.0667
 50
333.2191461
 51
346.9369516
  0
ARC
  8
LAYER_1
 10
377.3581
 20
-106.0549
 40
86.6934
 50
78.78619818
 51
80.56721488
  0
LINE
  8
LAYER_1
 10
391.5663
 20
-20.5337
 11
391.5663
 21
-18.898
  0
LINE
  8
LAYER_1
 10
391.5663
 20
-18.898
 11
390.269
 21
-18.898
  0
LINE
  8
LAYER_1
 10
390.269
 20
-18.898
 11
390.269
 21
-24.3761
  0
LINE
  8
LAYER_1
 10
390.269
 20
-24.3761
 11
391.5663
 21
-24.3761
  0
LINE
  8
LAYER_1
 10
391.5663
 20
-24.3761
 11
391.5663
 21
-21.7819
  0
ARC
  8
LAYER_1
 10
391.7852
 20
-24.3524
 40
2.5798
 50
85.26775014
 51
94.86744205
  0
ARC
  8
LAYER_1
 10
391.52
 20
-28.0008
 40
6.2378
 50
76.32782001
 51
85.60477529
  0
ARC
  8
LAYER_1
 10
382.626
 20
-65.2082
 40
44.4934
 50
73.58727212
 51
76.52432327
  0
LINE
  8
LAYER_1
 10
395.1978
 20
-22.5279
 11
395.1978
 21
-21.2767
  0
ARC
  8
LAYER_1
 10
391.9879
 20
-31.3982
 40
10.6184
 50
72.40409508
 51
77.87934456
  0
ARC
  8
LAYER_1
 10
398.8619
 20
-20.905
 40
3.2372
 50
288.2676156
 51
307.571469
  0
ARC
  8
LAYER_1
 10
398.3782
 20
-19.5848
 40
4.6427
 50
274.0170413
 51
288.8286188
  0
ARC
  8
LAYER_1
 10
398.3782
 20
-20.38
 40
3.8498
 50
268.3636006
 51
274.8463176
  0
LINE
  8
LAYER_1
 10
398.2683
 20
-24.2283
 11
398.2683
 21
-18.8317
  0
LINE
  8
LAYER_1
 10
398.2683
 20
-18.8317
 11
399.5571
 21
-18.8317
  0
LINE
  8
LAYER_1
 10
399.5571
 20
-18.8317
 11
399.5571
 21
-22.8266
  0
ARC
  8
LAYER_1
 10
399.4689
 20
-22.1219
 40
0.7102
 50
277.1312516
 51
295.9598069
  0
ARC
  8
LAYER_1
 10
399.252
 20
-21.6746
 40
1.2073
 50
295.9211317
 51
325.4874792
  0
ARC
  8
LAYER_1
 10
398.8869
 20
-21.3464
 40
1.6953
 50
323.3409614
 51
327.8529278
  0
ARC
  8
LAYER_1
 10
399.1244
 20
-21.5213
 40
1.4014
 50
328.7418196
 51
343.5600414
  0
ARC
  8
LAYER_1
 10
397.9122
 20
-21.1581
 40
2.6668
 50
343.4460064
 51
352.9523201
  0
ARC
  8
LAYER_1
 10
395.8445
 20
-20.896
 40
4.751
 50
352.8751095
 51
4.074034293
  0
LINE
  8
LAYER_1
 10
400.5835
 20
-20.5585
 11
401.769
 21
-20.5585
  0
ARC
  8
LAYER_1
 10
396.0236
 20
-20.7917
 40
5.7501
 50
348.7693155
 51
2.324417275
  0
ARC
  8
LAYER_1
 10
398.1197
 20
-21.2139
 40
3.6119
 50
332.2810934
 51
348.8631434
  0
ARC
  8
LAYER_1
 10
399.5975
 20
-21.9483
 40
1.9625
 50
309.1216995
 51
331.1911364
  0
ENDBLK
  0
BLOCK
  8
LAYER_1
  2
AIGNBL0101000A
 70
64
 10
0
 20
0
 30
0
  3
AIGNBL0101000A
  0
INSERT
  8
LAYER_1
  2
AIGNBL0102000B
 10
0
 20
0
 30
0
  0
INSERT
  8
LAYER_1
  2
AIGNBL0102000C
 10
0
 20
0
 30
0
  0
INSERT
  8
LAYER_1
  2
AIGNBL0102000D
 10
0
 20
0
 30
0
  0
INSERT
  8
LAYER_1
  2
AIGNBL0102000E
 10
0
 20
0
 30
0
  0
INSERT
  8
LAYER_1
  2
AIGNBL0102000F
 10
0
 20
0
 30
0
  0
INSERT
  8
LAYER_1
  2
AIGNBL01020010
 10
0
 20
0
 30
0
  0
INSERT
  8
LAYER_1
  2
AIGNBL01020011
 10
0
 20
0
 30
0
  0
INSERT
  8
LAYER_1
  2
AIGNBL01020012
 10
0
 20
0
 30
0
  0
INSERT
  8
LAYER_1
  2
AIGNBL01020013
 10
0
 20
0
 30
0
  0
INSERT
  8
LAYER_1
  2
AIGNBL01020014
 10
0
 20
0
 30
0
  0
INSERT
  8
LAYER_1
  2
AIGNBL01020015
 10
0
 20
0
 30
0
  0
INSERT
  8
LAYER_1
  2
AIGNBL01020016
 10
0
 20
0
 30
0
  0
INSERT
  8
LAYER_1
  2
AIGNBL01020017
 10
0
 20
0
 30
0
  0
INSERT
  8
LAYER_1
  2
AIGNBL01020018
 10
0
 20
0
 30
0
  0
INSERT
  8
LAYER_1
  2
AIGNBL01020019
 10
0
 20
0
 30
0
  0
INSERT
  8
LAYER_1
  2
AIGNBL0102001A
 10
0
 20
0
 30
0
  0
INSERT
  8
LAYER_1
  2
AIGNBL0102001B
 10
0
 20
0
 30
0
  0
INSERT
  8
LAYER_1
  2
AIGNBL0102001C
 10
0
 20
0
 30
0
  0
INSERT
  8
LAYER_1
  2
AIGNBL0102001D
 10
0
 20
0
 30
0
  0
INSERT
  8
LAYER_1
  2
AIGNBL0102001E
 10
0
 20
0
 30
0
  0
INSERT
  8
LAYER_1
  2
AIGNBL0102001F
 10
0
 20
0
 30
0
  0
INSERT
  8
LAYER_1
  2
AIGNBL01020020
 10
0
 20
0
 30
0
  0
ENDBLK
  0
BLOCK
  8
LAYER_2
  2
AIGNBL02010002
 70
64
 10
0
 20
0
 30
0
  3
AIGNBL02010002
  0
ENDBLK
  0
BLOCK
  8
LAYER_2
  2
AIGNBL02010003
 70
64
 10
0
 20
0
 30
0
  3
AIGNBL02010003
  0
ENDBLK
  0
BLOCK
  8
LAYER_2
  2
AIGNBL02010004
 70
64
 10
0
 20
0
 30
0
  3
AIGNBL02010004
  0
ENDBLK
  0
BLOCK
  8
LAYER_2
  2
AIGNBL02010005
 70
64
 10
0
 20
0
 30
0
  3
AIGNBL02010005
  0
ENDBLK
  0
BLOCK
  8
LAYER_2
  2
AIGNBL02010006
 70
64
 10
0
 20
0
 30
0
  3
AIGNBL02010006
  0
ENDBLK
  0
BLOCK
  8
LAYER_2
  2
AIGNBL02010007
 70
64
 10
0
 20
0
 30
0
  3
AIGNBL02010007
  0
ENDBLK
  0
BLOCK
  8
LAYER_2
  2
AIGNBL02010008
 70
64
 10
0
 20
0
 30
0
  3
AIGNBL02010008
  0
LINE
  8
LAYER_2
 10
393.9903
 20
34.4044
 11
390.9903
 21
34.4044
  0
LINE
  8
LAYER_2
 10
390.9903
 20
34.4044
 11
390.9903
 21
27.4044
  0
LINE
  8
LAYER_2
 10
390.9903
 20
27.4044
 11
393.9903
 21
27.4044
  0
LINE
  8
LAYER_2
 10
393.9903
 20
27.4044
 11
393.9903
 21
34.4044
  0
ENDBLK
  0
BLOCK
  8
LAYER_2
  2
AIGNBL02010009
 70
64
 10
0
 20
0
 30
0
  3
AIGNBL02010009
  0
LINE
  8
LAYER_2
 10
287.3947
 20
31.9044
 11
299.3947
 21
31.9044
  0
LINE
  8
LAYER_2
 10
299.3947
 20
31.9044
 11
299.3947
 21
27.4044
  0
LINE
  8
LAYER_2
 10
299.3947
 20
27.4044
 11
287.3947
 21
27.4044
  0
LINE
  8
LAYER_2
 10
287.3947
 20
27.4044
 11
287.3947
 21
31.9044
  0
ENDBLK
  0
BLOCK
  8
LAYER_2
  2
AIGNBL0201000A
 70
64
 10
0
 20
0
 30
0
  3
AIGNBL0201000A
  0
ENDBLK
  0
BLOCK
  8
LAYER_2
  2
AIGNBL0201000B
 70
64
 10
0
 20
0
 30
0
  3
AIGNBL0201000B
  0
ENDBLK
  0
BLOCK
  8
LAYER_2
  2
AIGNBL0201000C
 70
64
 10
0
 20
0
 30
0
  3
AIGNBL0201000C
  0
ENDBLK
  0
BLOCK
  8
LAYER_2
  2
AIGNBL0201000D
 70
64
 10
0
 20
0
 30
0
  3
AIGNBL0201000D
  0
LINE
  8
LAYER_2
 10
268.3947
 20
-5.128
 11
318.3947
 21
-5.128
  0
LINE
  8
LAYER_2
 10
318.3947
 20
-5.128
 11
318.3947
 21
-35.128
  0
LINE
  8
LAYER_2
 10
318.3947
 20
-35.128
 11
268.3947
 21
-35.128
  0
LINE
  8
LAYER_2
 10
268.3947
 20
-35.128
 11
268.3947
 21
-5.128
  0
ENDBLK
  0
BLOCK
  8
LAYER_2
  2
AIGNBL0201000E
 70
64
 10
0
 20
0
 30
0
  3
AIGNBL0201000E
  0
LINE
  8
LAYER_2
 10
277.3947
 20
-35.128
 11
309.3947
 21
-35.128
  0
LINE
  8
LAYER_2
 10
309.3947
 20
-35.128
 11
309.3947
 21
-44.128
  0
LINE
  8
LAYER_2
 10
309.3947
 20
-44.128
 11
277.3947
 21
-44.128
  0
LINE
  8
LAYER_2
 10
277.3947
 20
-44.128
 11
277.3947
 21
-35.128
  0
ENDBLK
  0
BLOCK
  8
LAYER_2
  2
AIGNBL0201000F
 70
64
 10
0
 20
0
 30
0
  3
AIGNBL0201000F
  0
LINE
  8
LAYER_2
 10
287.3947
 20
-44.128
 11
299.3947
 21
-44.128
  0
LINE
  8
LAYER_2
 10
299.3947
 20
-44.128
 11
299.3947
 21
-41.128
  0
LINE
  8
LAYER_2
 10
299.3947
 20
-41.128
 11
287.3947
 21
-41.128
  0
LINE
  8
LAYER_2
 10
287.3947
 20
-41.128
 11
287.3947
 21
-44.128
  0
ENDBLK
  0
BLOCK
  8
LAYER_2
  2
AIGNBL02010010
 70
64
 10
0
 20
0
 30
0
  3
AIGNBL02010010
  0
LINE
  8
LAYER_2
 10
272.3947
 20
-5.128
 11
314.3947
 21
-5.128
  0
LINE
  8
LAYER_2
 10
314.3947
 20
-5.128
 11
314.3947
 21
-22.128
  0
LINE
  8
LAYER_2
 10
314.3947
 20
-22.128
 11
272.3947
 21
-22.128
  0
LINE
  8
LAYER_2
 10
272.3947
 20
-22.128
 11
272.3947
 21
-5.128
  0
ENDBLK
  0
BLOCK
  8
LAYER_2
  2
AIGNBL02010011
 70
64
 10
0
 20
0
 30
0
  3
AIGNBL02010011
  0
LINE
  8
LAYER_2
 10
272.3947
 20
-5.128
 11
314.3947
 21
-5.128
  0
LINE
  8
LAYER_2
 10
314.3947
 20
-5.128
 11
314.3947
 21
-5.528
  0
LINE
  8
LAYER_2
 10
314.3947
 20
-5.528
 11
272.3947
 21
-5.528
  0
LINE
  8
LAYER_2
 10
272.3947
 20
-5.528
 11
272.3947
 21
-5.128
  0
ENDBLK
  0
BLOCK
  8
LAYER_2
  2
AIGNBL02010012
 70
64
 10
0
 20
0
 30
0
  3
AIGNBL02010012
  0
LINE
  8
LAYER_2
 10
274.3947
 20
-6.028
 11
274.3947
 21
-5.528
  0
LINE
  8
LAYER_2
 10
274.3947
 20
-5.528
 11
272.3947
 21
-5.528
  0
LINE
  8
LAYER_2
 10
272.3947
 20
-5.528
 11
272.3947
 21
-6.028
  0
ENDBLK
  0
BLOCK
  8
LAYER_2
  2
AIGNBL02010013
 70
64
 10
0
 20
0
 30
0
  3
AIGNBL02010013
  0
LINE
  8
LAYER_2
 10
272.3947
 20
-7.028
 11
272.3947
 21
-22.128
  0
ENDBLK
  0
BLOCK
  8
LAYER_2
  2
AIGNBL02010014
 70
64
 10
0
 20
0
 30
0
  3
AIGNBL02010014
  0
LINE
  8
LAYER_2
 10
274.3947
 20
-20.128
 11
274.3947
 21
-7.028
  0
ENDBLK
  0
BLOCK
  8
LAYER_2
  2
AIGNBL02010015
 70
64
 10
0
 20
0
 30
0
  3
AIGNBL02010015
  0
ARC
  8
LAYER_2
 10
272.3822
 20
-6.9047
 40
0.1239
 50
275.7816516
 51
324.8679142
  0
ARC
  8
LAYER_2
 10
272.1119
 20
-6.7049
 40
0.46
 50
323.893436
 51
346.4777874
  0
ARC
  8
LAYER_2
 10
271.5115
 20
-6.5372
 40
1.0833
 50
345.2765548
 51
0.4857156511
  0
ARC
  8
LAYER_2
 10
271.5993
 20
-6.5094
 40
0.9956
 50
358.932369
 51
18.33524759
  0
ARC
  8
LAYER_2
 10
272.3168
 20
-6.2479
 40
0.2333
 50
12.7928133
 51
70.50097785
  0
ENDBLK
  0
BLOCK
  8
LAYER_2
  2
AIGNBL02010016
 70
64
 10
0
 20
0
 30
0
  3
AIGNBL02010016
  0
ARC
  8
LAYER_2
 10
274.4072
 20
-6.9047
 40
0.1239
 50
215.1402505
 51
264.234808
  0
ARC
  8
LAYER_2
 10
274.6773
 20
-6.7051
 40
0.4598
 50
193.5119178
 51
216.1072185
  0
ARC
  8
LAYER_2
 10
275.2785
 20
-6.5372
 40
1.0839
 50
179.5130866
 51
194.7138817
  0
ARC
  8
LAYER_2
 10
275.1905
 20
-6.5094
 40
0.996
 50
161.6741091
 51
181.0698752
  0
ARC
  8
LAYER_2
 10
274.4725
 20
-6.2479
 40
0.2332
 50
109.4771065
 51
167.2160367
  0
ENDBLK
  0
BLOCK
  8
LAYER_2
  2
AIGNBL02010017
 70
64
 10
0
 20
0
 30
0
  3
AIGNBL02010017
  0
LINE
  8
LAYER_2
 10
284.3947
 20
-6.028
 11
284.3947
 21
-5.528
  0
LINE
  8
LAYER_2
 10
284.3947
 20
-5.528
 11
282.3947
 21
-5.528
  0
LINE
  8
LAYER_2
 10
282.3947
 20
-5.528
 11
282.3947
 21
-6.028
  0
ENDBLK
  0
BLOCK
  8
LAYER_2
  2
AIGNBL02010018
 70
64
 10
0
 20
0
 30
0
  3
AIGNBL02010018
  0
LINE
  8
LAYER_2
 10
282.3947
 20
-7.028
 11
282.3947
 21
-20.128
  0
ENDBLK
  0
BLOCK
  8
LAYER_2
  2
AIGNBL02010019
 70
64
 10
0
 20
0
 30
0
  3
AIGNBL02010019
  0
ENDBLK
  0
BLOCK
  8
LAYER_2
  2
AIGNBL0201001A
 70
64
 10
0
 20
0
 30
0
  3
AIGNBL0201001A
  0
LINE
  8
LAYER_2
 10
284.3947
 20
-20.128
 11
284.3947
 21
-7.028
  0
ENDBLK
  0
BLOCK
  8
LAYER_2
  2
AIGNBL0201001B
 70
64
 10
0
 20
0
 30
0
  3
AIGNBL0201001B
  0
ARC
  8
LAYER_2
 10
282.3822
 20
-6.9047
 40
0.1239
 50
275.7816516
 51
324.8679142
  0
ARC
  8
LAYER_2
 10
282.1119
 20
-6.7049
 40
0.46
 50
323.893436
 51
346.4777874
  0
ARC
  8
LAYER_2
 10
281.5115
 20
-6.5372
 40
1.0833
 50
345.2765548
 51
0.4857156511
  0
ARC
  8
LAYER_2
 10
281.5993
 20
-6.5094
 40
0.9956
 50
358.932369
 51
18.33524759
  0
ARC
  8
LAYER_2
 10
282.3168
 20
-6.2479
 40
0.2333
 50
12.7928133
 51
70.50097785
  0
ENDBLK
  0
BLOCK
  8
LAYER_2
  2
AIGNBL0201001C
 70
64
 10
0
 20
0
 30
0
  3
AIGNBL0201001C
  0
ARC
  8
LAYER_2
 10
284.4072
 20
-6.9047
 40
0.1239
 50
215.1402505
 51
264.234808
  0
ARC
  8
LAYER_2
 10
284.6773
 20
-6.7051
 40
0.4598
 50
193.5119178
 51
216.1072185
  0
ARC
  8
LAYER_2
 10
285.2785
 20
-6.5372
 40
1.0839
 50
179.5130866
 51
194.7138817
  0
ARC
  8
LAYER_2
 10
285.1905
 20
-6.5094
 40
0.996
 50
161.6741091
 51
181.0698752
  0
ARC
  8
LAYER_2
 10
284.4725
 20
-6.2479
 40
0.2332
 50
109.4771065
 51
167.2160367
  0
ENDBLK
  0
BLOCK
  8
LAYER_2
  2
AIGNBL0201001D
 70
64
 10
0
 20
0
 30
0
  3
AIGNBL0201001D
  0
LINE
  8
LAYER_2
 10
294.3947
 20
-6.028
 11
294.3947
 21
-5.528
  0
LINE
  8
LAYER_2
 10
294.3947
 20
-5.528
 11
292.3947
 21
-5.528
  0
LINE
  8
LAYER_2
 10
292.3947
 20
-5.528
 11
292.3947
 21
-6.028
  0
ENDBLK
  0
BLOCK
  8
LAYER_2
  2
AIGNBL0201001E
 70
64
 10
0
 20
0
 30
0
  3
AIGNBL0201001E
  0
LINE
  8
LAYER_2
 10
292.3947
 20
-7.028
 11
292.3947
 21
-20.128
  0
ENDBLK
  0
BLOCK
  8
LAYER_2
  2
AIGNBL0201001F
 70
64
 10
0
 20
0
 30
0
  3
AIGNBL0201001F
  0
LINE
  8
LAYER_2
 10
294.3947
 20
-20.128
 11
294.3947
 21
-7.028
  0
ENDBLK
  0
BLOCK
  8
LAYER_2
  2
AIGNBL02010020
 70
64
 10
0
 20
0
 30
0
  3
AIGNBL02010020
  0
ARC
  8
LAYER_2
 10
292.3822
 20
-6.9047
 40
0.1239
 50
275.7816516
 51
324.8679142
  0
ARC
  8
LAYER_2
 10
292.1119
 20
-6.7049
 40
0.46
 50
323.893436
 51
346.4777874
  0
ARC
  8
LAYER_2
 10
291.5115
 20
-6.5372
 40
1.0833
 50
345.2765548
 51
0.4857156511
  0
ARC
  8
LAYER_2
 10
291.5993
 20
-6.5094
 40
0.9956
 50
358.932369
 51
18.33524759
  0
ARC
  8
LAYER_2
 10
292.3168
 20
-6.2479
 40
0.2333
 50
12.7928133
 51
70.50097785
  0
ENDBLK
  0
BLOCK
  8
LAYER_2
  2
AIGNBL02010021
 70
64
 10
0
 20
0
 30
0
  3
AIGNBL02010021
  0
ARC
  8
LAYER_2
 10
294.4072
 20
-6.9047
 40
0.1239
 50
215.1402505
 51
264.234808
  0
ARC
  8
LAYER_2
 10
294.6773
 20
-6.7051
 40
0.4598
 50
193.5119178
 51
216.1072185
  0
ARC
  8
LAYER_2
 10
295.2785
 20
-6.5372
 40
1.0839
 50
179.5130866
 51
194.7138817
  0
ARC
  8
LAYER_2
 10
295.1905
 20
-6.5094
 40
0.996
 50
161.6741091
 51
181.0698752
  0
ARC
  8
LAYER_2
 10
294.4725
 20
-6.2479
 40
0.2332
 50
109.4771065
 51
167.2160367
  0
ENDBLK
  0
BLOCK
  8
LAYER_2
  2
AIGNBL02010022
 70
64
 10
0
 20
0
 30
0
  3
AIGNBL02010022
  0
LINE
  8
LAYER_2
 10
304.3947
 20
-6.028
 11
304.3947
 21
-5.528
  0
LINE
  8
LAYER_2
 10
304.3947
 20
-5.528
 11
302.3947
 21
-5.528
  0
LINE
  8
LAYER_2
 10
302.3947
 20
-5.528
 11
302.3947
 21
-6.028
  0
ENDBLK
  0
BLOCK
  8
LAYER_2
  2
AIGNBL02010023
 70
64
 10
0
 20
0
 30
0
  3
AIGNBL02010023
  0
LINE
  8
LAYER_2
 10
302.3947
 20
-7.028
 11
302.3947
 21
-20.128
  0
ENDBLK
  0
BLOCK
  8
LAYER_2
  2
AIGNBL02010024
 70
64
 10
0
 20
0
 30
0
  3
AIGNBL02010024
  0
LINE
  8
LAYER_2
 10
304.3947
 20
-20.128
 11
304.3947
 21
-7.028
  0
ENDBLK
  0
BLOCK
  8
LAYER_2
  2
AIGNBL02010025
 70
64
 10
0
 20
0
 30
0
  3
AIGNBL02010025
  0
ARC
  8
LAYER_2
 10
302.3822
 20
-6.9047
 40
0.1239
 50
275.7816516
 51
324.8679142
  0
ARC
  8
LAYER_2
 10
302.1119
 20
-6.7049
 40
0.46
 50
323.893436
 51
346.4777874
  0
ARC
  8
LAYER_2
 10
301.5115
 20
-6.5372
 40
1.0833
 50
345.2765548
 51
0.4857156511
  0
ARC
  8
LAYER_2
 10
301.5993
 20
-6.5094
 40
0.9956
 50
358.932369
 51
18.33524759
  0
ARC
  8
LAYER_2
 10
302.3168
 20
-6.2479
 40
0.2333
 50
12.7928133
 51
70.50097785
  0
ENDBLK
  0
BLOCK
  8
LAYER_2
  2
AIGNBL02010026
 70
64
 10
0
 20
0
 30
0
  3
AIGNBL02010026
  0
ARC
  8
LAYER_2
 10
304.4072
 20
-6.9047
 40
0.1239
 50
215.1402505
 51
264.234808
  0
ARC
  8
LAYER_2
 10
304.6773
 20
-6.7051
 40
0.4598
 50
193.5119178
 51
216.1072185
  0
ARC
  8
LAYER_2
 10
305.2785
 20
-6.5372
 40
1.0839
 50
179.5130866
 51
194.7138817
  0
ARC
  8
LAYER_2
 10
305.1905
 20
-6.5094
 40
0.996
 50
161.6741091
 51
181.0698752
  0
ARC
  8
LAYER_2
 10
304.4725
 20
-6.2479
 40
0.2332
 50
109.4771065
 51
167.2160367
  0
ENDBLK
  0
BLOCK
  8
LAYER_2
  2
AIGNBL02010027
 70
64
 10
0
 20
0
 30
0
  3
AIGNBL02010027
  0
LINE
  8
LAYER_2
 10
314.3947
 20
-6.028
 11
314.3947
 21
-5.528
  0
LINE
  8
LAYER_2
 10
314.3947
 20
-5.528
 11
312.3947
 21
-5.528
  0
LINE
  8
LAYER_2
 10
312.3947
 20
-5.528
 11
312.3947
 21
-6.028
  0
ENDBLK
  0
BLOCK
  8
LAYER_2
  2
AIGNBL02010028
 70
64
 10
0
 20
0
 30
0
  3
AIGNBL02010028
  0
LINE
  8
LAYER_2
 10
312.3947
 20
-7.028
 11
312.3947
 21
-20.128
  0
ENDBLK
  0
BLOCK
  8
LAYER_2
  2
AIGNBL02010029
 70
64
 10
0
 20
0
 30
0
  3
AIGNBL02010029
  0
LINE
  8
LAYER_2
 10
314.3947
 20
-22.128
 11
314.3947
 21
-7.028
  0
ENDBLK
  0
BLOCK
  8
LAYER_2
  2
AIGNBL0201002A
 70
64
 10
0
 20
0
 30
0
  3
AIGNBL0201002A
  0
ARC
  8
LAYER_2
 10
312.3822
 20
-6.9047
 40
0.1239
 50
275.7816516
 51
324.8679142
  0
ARC
  8
LAYER_2
 10
312.1119
 20
-6.7049
 40
0.46
 50
323.893436
 51
346.4777874
  0
ARC
  8
LAYER_2
 10
311.5115
 20
-6.5372
 40
1.0833
 50
345.2765548
 51
0.4857156511
  0
ARC
  8
LAYER_2
 10
311.5993
 20
-6.5094
 40
0.9956
 50
358.932369
 51
18.33524759
  0
ARC
  8
LAYER_2
 10
312.3168
 20
-6.2479
 40
0.2333
 50
12.7928133
 51
70.50097785
  0
ENDBLK
  0
BLOCK
  8
LAYER_2
  2
AIGNBL0201002B
 70
64
 10
0
 20
0
 30
0
  3
AIGNBL0201002B
  0
ARC
  8
LAYER_2
 10
314.4072
 20
-6.9047
 40
0.1239
 50
215.1402505
 51
264.234808
  0
ARC
  8
LAYER_2
 10
314.6773
 20
-6.7051
 40
0.4598
 50
193.5119178
 51
216.1072185
  0
ARC
  8
LAYER_2
 10
315.2785
 20
-6.5372
 40
1.0839
 50
179.5130866
 51
194.7138817
  0
ARC
  8
LAYER_2
 10
315.1905
 20
-6.5094
 40
0.996
 50
161.6741091
 51
181.0698752
  0
ARC
  8
LAYER_2
 10
314.4725
 20
-6.2479
 40
0.2332
 50
109.4771065
 51
167.2160367
  0
ENDBLK
  0
BLOCK
  8
LAYER_2
  2
AIGNBL0201002C
 70
64
 10
0
 20
0
 30
0
  3
AIGNBL0201002C
  0
LINE
  8
LAYER_2
 10
312.3947
 20
-20.128
 11
304.3947
 21
-20.128
  0
ENDBLK
  0
BLOCK
  8
LAYER_2
  2
AIGNBL0201002D
 70
64
 10
0
 20
0
 30
0
  3
AIGNBL0201002D
  0
LINE
  8
LAYER_2
 10
302.3947
 20
-20.128
 11
294.3947
 21
-20.128
  0
ENDBLK
  0
BLOCK
  8
LAYER_2
  2
AIGNBL0201002E
 70
64
 10
0
 20
0
 30
0
  3
AIGNBL0201002E
  0
LINE
  8
LAYER_2
 10
292.3947
 20
-20.128
 11
284.3947
 21
-20.128
  0
ENDBLK
  0
BLOCK
  8
LAYER_2
  2
AIGNBL0201002F
 70
64
 10
0
 20
0
 30
0
  3
AIGNBL0201002F
  0
LINE
  8
LAYER_2
 10
282.3947
 20
-20.128
 11
274.3947
 21
-20.128
  0
ENDBLK
  0
BLOCK
  8
LAYER_2
  2
AIGNBL02010030
 70
64
 10
0
 20
0
 30
0
  3
AIGNBL02010030
  0
LINE
  8
LAYER_2
 10
274.3947
 20
-14.728
 11
282.3947
 21
-14.728
  0
ENDBLK
  0
BLOCK
  8
LAYER_2
  2
AIGNBL02010031
 70
64
 10
0
 20
0
 30
0
  3
AIGNBL02010031
  0
LINE
  8
LAYER_2
 10
284.3947
 20
-14.728
 11
292.3947
 21
-14.728
  0
ENDBLK
  0
BLOCK
  8
LAYER_2
  2
AIGNBL02010032
 70
64
 10
0
 20
0
 30
0
  3
AIGNBL02010032
  0
LINE
  8
LAYER_2
 10
294.3947
 20
-14.728
 11
302.3947
 21
-14.728
  0
ENDBLK
  0
BLOCK
  8
LAYER_2
  2
AIGNBL02010033
 70
64
 10
0
 20
0
 30
0
  3
AIGNBL02010033
  0
LINE
  8
LAYER_2
 10
304.3947
 20
-14.728
 11
312.3947
 21
-14.728
  0
ENDBLK
  0
BLOCK
  8
LAYER_2
  2
AIGNBL02010034
 70
64
 10
0
 20
0
 30
0
  3
AIGNBL02010034
  0
LINE
  8
LAYER_2
 10
274.3947
 20
-16.728
 11
282.3947
 21
-16.728
  0
ENDBLK
  0
BLOCK
  8
LAYER_2
  2
AIGNBL02010035
 70
64
 10
0
 20
0
 30
0
  3
AIGNBL02010035
  0
LINE
  8
LAYER_2
 10
284.3947
 20
-16.728
 11
292.3947
 21
-16.728
  0
ENDBLK
  0
BLOCK
  8
LAYER_2
  2
AIGNBL02010036
 70
64
 10
0
 20
0
 30
0
  3
AIGNBL02010036
  0
LINE
  8
LAYER_2
 10
294.3947
 20
-16.728
 11
302.3947
 21
-16.728
  0
ENDBLK
  0
BLOCK
  8
LAYER_2
  2
AIGNBL02010037
 70
64
 10
0
 20
0
 30
0
  3
AIGNBL02010037
  0
LINE
  8
LAYER_2
 10
304.3947
 20
-16.728
 11
312.3947
 21
-16.728
  0
ENDBLK
  0
BLOCK
  8
LAYER_2
  2
AIGNBL02010038
 70
64
 10
0
 20
0
 30
0
  3
AIGNBL02010038
  0
LINE
  8
LAYER_2
 10
274.3947
 20
-14.728
 11
282.3947
 21
-14.728
  0
LINE
  8
LAYER_2
 10
282.3947
 20
-14.728
 11
282.3947
 21
-14.228
  0
LINE
  8
LAYER_2
 10
282.3947
 20
-14.228
 11
274.3947
 21
-14.228
  0
LINE
  8
LAYER_2
 10
274.3947
 20
-14.228
 11
274.3947
 21
-14.728
  0
ENDBLK
  0
BLOCK
  8
LAYER_2
  2
AIGNBL02010039
 70
64
 10
0
 20
0
 30
0
  3
AIGNBL02010039
  0
LINE
  8
LAYER_2
 10
275.3947
 20
-12.728
 11
281.3947
 21
-12.728
  0
LINE
  8
LAYER_2
 10
281.3947
 20
-12.728
 11
281.3947
 21
-12.228
  0
LINE
  8
LAYER_2
 10
281.3947
 20
-12.228
 11
275.3947
 21
-12.228
  0
LINE
  8
LAYER_2
 10
275.3947
 20
-12.228
 11
275.3947
 21
-12.728
  0
ENDBLK
  0
BLOCK
  8
LAYER_2
  2
AIGNBL0201003A
 70
64
 10
0
 20
0
 30
0
  3
AIGNBL0201003A
  0
LINE
  8
LAYER_2
 10
275.8947
 20
-12.228
 11
280.8947
 21
-12.228
  0
ARC
  8
LAYER_2
 10
280.8947
 20
-11.728
 40
0.5
 50
270.003762
 51
359.996238
  0
LINE
  8
LAYER_2
 10
281.3947
 20
-11.728
 11
281.3947
 21
-11.228
  0
ARC
  8
LAYER_2
 10
279.8947
 20
-11.228
 40
1.5
 50
0.0004552417656
 51
89.99954475
  0
LINE
  8
LAYER_2
 10
279.8947
 20
-9.728
 11
276.8947
 21
-9.728
  0
ARC
  8
LAYER_2
 10
276.8947
 20
-11.228
 40
1.5
 50
89.99874585
 51
180.0012542
  0
LINE
  8
LAYER_2
 10
275.3947
 20
-11.228
 11
275.3947
 21
-11.728
  0
ARC
  8
LAYER_2
 10
275.8947
 20
-11.728
 40
0.5
 50
179.9986345
 51
270.0013655
  0
ENDBLK
  0
BLOCK
  8
LAYER_2
  2
AIGNBL0201003B
 70
64
 10
0
 20
0
 30
0
  3
AIGNBL0201003B
  0
LINE
  8
LAYER_2
 10
277.0947
 20
-13.728
 11
277.0947
 21
-14.228
  0
LINE
  8
LAYER_2
 10
277.0947
 20
-14.228
 11
279.6947
 21
-14.228
  0
LINE
  8
LAYER_2
 10
279.6947
 20
-14.228
 11
279.6947
 21
-13.728
  0
ENDBLK
  0
BLOCK
  8
LAYER_2
  2
AIGNBL0201003C
 70
64
 10
0
 20
0
 30
0
  3
AIGNBL0201003C
  0
LINE
  8
LAYER_2
 10
277.0947
 20
-13.728
 11
276.0947
 21
-13.728
  0
ENDBLK
  0
BLOCK
  8
LAYER_2
  2
AIGNBL0201003D
 70
64
 10
0
 20
0
 30
0
  3
AIGNBL0201003D
  0
LINE
  8
LAYER_2
 10
276.0947
 20
-13.728
 11
274.3947
 21
-14.228
  0
ENDBLK
  0
BLOCK
  8
LAYER_2
  2
AIGNBL0201003E
 70
64
 10
0
 20
0
 30
0
  3
AIGNBL0201003E
  0
LINE
  8
LAYER_2
 10
274.3947
 20
-14.228
 11
274.3947
 21
-13.228
  0
ENDBLK
  0
BLOCK
  8
LAYER_2
  2
AIGNBL0201003F
 70
64
 10
0
 20
0
 30
0
  3
AIGNBL0201003F
  0
LINE
  8
LAYER_2
 10
274.3947
 20
-13.228
 11
276.0947
 21
-12.728
  0
ENDBLK
  0
BLOCK
  8
LAYER_2
  2
AIGNBL02010040
 70
64
 10
0
 20
0
 30
0
  3
AIGNBL02010040
  0
LINE
  8
LAYER_2
 10
276.0947
 20
-12.728
 11
277.0947
 21
-12.728
  0
ENDBLK
  0
BLOCK
  8
LAYER_2
  2
AIGNBL02010041
 70
64
 10
0
 20
0
 30
0
  3
AIGNBL02010041
  0
LINE
  8
LAYER_2
 10
277.0947
 20
-12.728
 11
277.448
 21
-13.0818
  0
ENDBLK
  0
BLOCK
  8
LAYER_2
  2
AIGNBL02010042
 70
64
 10
0
 20
0
 30
0
  3
AIGNBL02010042
  0
LINE
  8
LAYER_2
 10
279.6947
 20
-13.728
 11
280.6947
 21
-13.728
  0
ENDBLK
  0
BLOCK
  8
LAYER_2
  2
AIGNBL02010043
 70
64
 10
0
 20
0
 30
0
  3
AIGNBL02010043
  0
LINE
  8
LAYER_2
 10
280.6947
 20
-13.728
 11
282.3947
 21
-14.228
  0
ENDBLK
  0
BLOCK
  8
LAYER_2
  2
AIGNBL02010044
 70
64
 10
0
 20
0
 30
0
  3
AIGNBL02010044
  0
LINE
  8
LAYER_2
 10
282.3947
 20
-14.228
 11
282.3947
 21
-13.228
  0
ENDBLK
  0
BLOCK
  8
LAYER_2
  2
AIGNBL02010045
 70
64
 10
0
 20
0
 30
0
  3
AIGNBL02010045
  0
LINE
  8
LAYER_2
 10
282.3947
 20
-13.228
 11
280.6947
 21
-12.728
  0
ENDBLK
  0
BLOCK
  8
LAYER_2
  2
AIGNBL02010046
 70
64
 10
0
 20
0
 30
0
  3
AIGNBL02010046
  0
LINE
  8
LAYER_2
 10
280.6947
 20
-12.728
 11
279.6947
 21
-12.728
  0
ENDBLK
  0
BLOCK
  8
LAYER_2
  2
AIGNBL02010047
 70
64
 10
0
 20
0
 30
0
  3
AIGNBL02010047
  0
LINE
  8
LAYER_2
 10
279.6947
 20
-12.728
 11
279.3389
 21
-13.0793
  0
ENDBLK
  0
BLOCK
  8
LAYER_2
  2
AIGNBL02010048
 70
64
 10
0
 20
0
 30
0
  3
AIGNBL02010048
  0
LINE
  8
LAYER_2
 10
279.3389
 20
-13.0793
 11
277.448
 21
-13.0793
  0
ENDBLK
  0
BLOCK
  8
LAYER_2
  2
AIGNBL02010049
 70
64
 10
0
 20
0
 30
0
  3
AIGNBL02010049
  0
LINE
  8
LAYER_2
 10
285.3947
 20
-12.728
 11
291.3947
 21
-12.728
  0
LINE
  8
LAYER_2
 10
291.3947
 20
-12.728
 11
291.3947
 21
-12.228
  0
LINE
  8
LAYER_2
 10
291.3947
 20
-12.228
 11
285.3947
 21
-12.228
  0
LINE
  8
LAYER_2
 10
285.3947
 20
-12.228
 11
285.3947
 21
-12.728
  0
ENDBLK
  0
BLOCK
  8
LAYER_2
  2
AIGNBL0201004A
 70
64
 10
0
 20
0
 30
0
  3
AIGNBL0201004A
  0
LINE
  8
LAYER_2
 10
285.8947
 20
-12.228
 11
290.8947
 21
-12.228
  0
ARC
  8
LAYER_2
 10
290.8947
 20
-11.728
 40
0.5
 50
270.0037619
 51
359.9962381
  0
LINE
  8
LAYER_2
 10
291.3947
 20
-11.728
 11
291.3947
 21
-11.228
  0
ARC
  8
LAYER_2
 10
289.8947
 20
-11.228
 40
1.5
 50
0.0004551940579
 51
89.99954479
  0
LINE
  8
LAYER_2
 10
289.8947
 20
-9.728
 11
286.8947
 21
-9.728
  0
ARC
  8
LAYER_2
 10
286.8947
 20
-11.228
 40
1.5
 50
89.9987459
 51
180.0012541
  0
LINE
  8
LAYER_2
 10
285.3947
 20
-11.228
 11
285.3947
 21
-11.728
  0
ARC
  8
LAYER_2
 10
285.8947
 20
-11.728
 40
0.5
 50
179.9986347
 51
270.0013653
  0
ENDBLK
  0
BLOCK
  8
LAYER_2
  2
AIGNBL0201004B
 70
64
 10
0
 20
0
 30
0
  3
AIGNBL0201004B
  0
LINE
  8
LAYER_2
 10
287.0947
 20
-13.728
 11
287.0947
 21
-14.228
  0
LINE
  8
LAYER_2
 10
287.0947
 20
-14.228
 11
289.6947
 21
-14.228
  0
LINE
  8
LAYER_2
 10
289.6947
 20
-14.228
 11
289.6947
 21
-13.728
  0
ENDBLK
  0
BLOCK
  8
LAYER_2
  2
AIGNBL0201004C
 70
64
 10
0
 20
0
 30
0
  3
AIGNBL0201004C
  0
LINE
  8
LAYER_2
 10
287.0947
 20
-13.728
 11
286.0947
 21
-13.728
  0
ENDBLK
  0
BLOCK
  8
LAYER_2
  2
AIGNBL0201004D
 70
64
 10
0
 20
0
 30
0
  3
AIGNBL0201004D
  0
LINE
  8
LAYER_2
 10
286.0947
 20
-13.728
 11
284.3947
 21
-14.228
  0
ENDBLK
  0
BLOCK
  8
LAYER_2
  2
AIGNBL0201004E
 70
64
 10
0
 20
0
 30
0
  3
AIGNBL0201004E
  0
LINE
  8
LAYER_2
 10
284.3947
 20
-14.228
 11
284.3947
 21
-13.228
  0
ENDBLK
  0
BLOCK
  8
LAYER_2
  2
AIGNBL0201004F
 70
64
 10
0
 20
0
 30
0
  3
AIGNBL0201004F
  0
LINE
  8
LAYER_2
 10
284.3947
 20
-13.228
 11
286.0947
 21
-12.728
  0
ENDBLK
  0
BLOCK
  8
LAYER_2
  2
AIGNBL02010050
 70
64
 10
0
 20
0
 30
0
  3
AIGNBL02010050
  0
LINE
  8
LAYER_2
 10
286.0947
 20
-12.728
 11
287.0947
 21
-12.728
  0
ENDBLK
  0
BLOCK
  8
LAYER_2
  2
AIGNBL02010051
 70
64
 10
0
 20
0
 30
0
  3
AIGNBL02010051
  0
LINE
  8
LAYER_2
 10
287.0947
 20
-12.728
 11
287.448
 21
-13.0818
  0
ENDBLK
  0
BLOCK
  8
LAYER_2
  2
AIGNBL02010052
 70
64
 10
0
 20
0
 30
0
  3
AIGNBL02010052
  0
LINE
  8
LAYER_2
 10
289.6947
 20
-13.728
 11
290.6947
 21
-13.728
  0
ENDBLK
  0
BLOCK
  8
LAYER_2
  2
AIGNBL02010053
 70
64
 10
0
 20
0
 30
0
  3
AIGNBL02010053
  0
LINE
  8
LAYER_2
 10
290.6947
 20
-13.728
 11
292.3947
 21
-14.228
  0
ENDBLK
  0
BLOCK
  8
LAYER_2
  2
AIGNBL02010054
 70
64
 10
0
 20
0
 30
0
  3
AIGNBL02010054
  0
LINE
  8
LAYER_2
 10
292.3947
 20
-14.228
 11
292.3947
 21
-13.228
  0
ENDBLK
  0
BLOCK
  8
LAYER_2
  2
AIGNBL02010055
 70
64
 10
0
 20
0
 30
0
  3
AIGNBL02010055
  0
LINE
  8
LAYER_2
 10
292.3947
 20
-13.228
 11
290.6947
 21
-12.728
  0
ENDBLK
  0
BLOCK
  8
LAYER_2
  2
AIGNBL02010056
 70
64
 10
0
 20
0
 30
0
  3
AIGNBL02010056
  0
LINE
  8
LAYER_2
 10
290.6947
 20
-12.728
 11
289.6947
 21
-12.728
  0
ENDBLK
  0
BLOCK
  8
LAYER_2
  2
AIGNBL02010057
 70
64
 10
0
 20
0
 30
0
  3
AIGNBL02010057
  0
LINE
  8
LAYER_2
 10
289.6947
 20
-12.728
 11
289.3389
 21
-13.0793
  0
ENDBLK
  0
BLOCK
  8
LAYER_2
  2
AIGNBL02010058
 70
64
 10
0
 20
0
 30
0
  3
AIGNBL02010058
  0
LINE
  8
LAYER_2
 10
289.3389
 20
-13.0793
 11
287.448
 21
-13.0793
  0
ENDBLK
  0
BLOCK
  8
LAYER_2
  2
AIGNBL02010059
 70
64
 10
0
 20
0
 30
0
  3
AIGNBL02010059
  0
LINE
  8
LAYER_2
 10
305.3947
 20
-12.728
 11
311.3947
 21
-12.728
  0
LINE
  8
LAYER_2
 10
311.3947
 20
-12.728
 11
311.3947
 21
-12.228
  0
LINE
  8
LAYER_2
 10
311.3947
 20
-12.228
 11
305.3947
 21
-12.228
  0
LINE
  8
LAYER_2
 10
305.3947
 20
-12.228
 11
305.3947
 21
-12.728
  0
ENDBLK
  0
BLOCK
  8
LAYER_2
  2
AIGNBL0201005A
 70
64
 10
0
 20
0
 30
0
  3
AIGNBL0201005A
  0
LINE
  8
LAYER_2
 10
305.8947
 20
-12.228
 11
310.8947
 21
-12.228
  0
ARC
  8
LAYER_2
 10
310.8947
 20
-11.728
 40
0.5
 50
270.0037616
 51
359.9962384
  0
LINE
  8
LAYER_2
 10
311.3947
 20
-11.728
 11
311.3947
 21
-11.228
  0
ARC
  8
LAYER_2
 10
309.8947
 20
-11.228
 40
1.5
 50
0.0004550985486
 51
89.99954489
  0
LINE
  8
LAYER_2
 10
309.8947
 20
-9.728
 11
306.8947
 21
-9.728
  0
ARC
  8
LAYER_2
 10
306.8947
 20
-11.228
 40
1.5
 50
89.998746
 51
180.001254
  0
LINE
  8
LAYER_2
 10
305.3947
 20
-11.228
 11
305.3947
 21
-11.728
  0
ARC
  8
LAYER_2
 10
305.8947
 20
-11.728
 40
0.5
 50
179.9986349
 51
270.001365
  0
ENDBLK
  0
BLOCK
  8
LAYER_2
  2
AIGNBL0201005B
 70
64
 10
0
 20
0
 30
0
  3
AIGNBL0201005B
  0
LINE
  8
LAYER_2
 10
307.0947
 20
-13.728
 11
307.0947
 21
-14.228
  0
LINE
  8
LAYER_2
 10
307.0947
 20
-14.228
 11
309.6947
 21
-14.228
  0
LINE
  8
LAYER_2
 10
309.6947
 20
-14.228
 11
309.6947
 21
-13.728
  0
ENDBLK
  0
BLOCK
  8
LAYER_2
  2
AIGNBL0201005C
 70
64
 10
0
 20
0
 30
0
  3
AIGNBL0201005C
  0
LINE
  8
LAYER_2
 10
307.0947
 20
-13.728
 11
306.0947
 21
-13.728
  0
ENDBLK
  0
BLOCK
  8
LAYER_2
  2
AIGNBL0201005D
 70
64
 10
0
 20
0
 30
0
  3
AIGNBL0201005D
  0
LINE
  8
LAYER_2
 10
306.0947
 20
-13.728
 11
304.3947
 21
-14.228
  0
ENDBLK
  0
BLOCK
  8
LAYER_2
  2
AIGNBL0201005E
 70
64
 10
0
 20
0
 30
0
  3
AIGNBL0201005E
  0
LINE
  8
LAYER_2
 10
304.3947
 20
-14.228
 11
304.3947
 21
-13.228
  0
ENDBLK
  0
BLOCK
  8
LAYER_2
  2
AIGNBL0201005F
 70
64
 10
0
 20
0
 30
0
  3
AIGNBL0201005F
  0
LINE
  8
LAYER_2
 10
304.3947
 20
-13.228
 11
306.0947
 21
-12.728
  0
ENDBLK
  0
BLOCK
  8
LAYER_2
  2
AIGNBL02010060
 70
64
 10
0
 20
0
 30
0
  3
AIGNBL02010060
  0
LINE
  8
LAYER_2
 10
306.0947
 20
-12.728
 11
307.0947
 21
-12.728
  0
ENDBLK
  0
BLOCK
  8
LAYER_2
  2
AIGNBL02010061
 70
64
 10
0
 20
0
 30
0
  3
AIGNBL02010061
  0
LINE
  8
LAYER_2
 10
307.0947
 20
-12.728
 11
307.448
 21
-13.0818
  0
ENDBLK
  0
BLOCK
  8
LAYER_2
  2
AIGNBL02010062
 70
64
 10
0
 20
0
 30
0
  3
AIGNBL02010062
  0
LINE
  8
LAYER_2
 10
309.6947
 20
-13.728
 11
310.6947
 21
-13.728
  0
ENDBLK
  0
BLOCK
  8
LAYER_2
  2
AIGNBL02010063
 70
64
 10
0
 20
0
 30
0
  3
AIGNBL02010063
  0
LINE
  8
LAYER_2
 10
310.6947
 20
-13.728
 11
312.3947
 21
-14.228
  0
ENDBLK
  0
BLOCK
  8
LAYER_2
  2
AIGNBL02010064
 70
64
 10
0
 20
0
 30
0
  3
AIGNBL02010064
  0
LINE
  8
LAYER_2
 10
312.3947
 20
-14.228
 11
312.3947
 21
-13.228
  0
ENDBLK
  0
BLOCK
  8
LAYER_2
  2
AIGNBL02010065
 70
64
 10
0
 20
0
 30
0
  3
AIGNBL02010065
  0
LINE
  8
LAYER_2
 10
312.3947
 20
-13.228
 11
310.6947
 21
-12.728
  0
ENDBLK
  0
BLOCK
  8
LAYER_2
  2
AIGNBL02010066
 70
64
 10
0
 20
0
 30
0
  3
AIGNBL02010066
  0
LINE
  8
LAYER_2
 10
310.6947
 20
-12.728
 11
309.6947
 21
-12.728
  0
ENDBLK
  0
BLOCK
  8
LAYER_2
  2
AIGNBL02010067
 70
64
 10
0
 20
0
 30
0
  3
AIGNBL02010067
  0
LINE
  8
LAYER_2
 10
309.6947
 20
-12.728
 11
309.3389
 21
-13.0793
  0
ENDBLK
  0
BLOCK
  8
LAYER_2
  2
AIGNBL02010068
 70
64
 10
0
 20
0
 30
0
  3
AIGNBL02010068
  0
LINE
  8
LAYER_2
 10
309.3389
 20
-13.0793
 11
307.448
 21
-13.0793
  0
ENDBLK
  0
BLOCK
  8
LAYER_2
  2
AIGNBL02010069
 70
64
 10
0
 20
0
 30
0
  3
AIGNBL02010069
  0
LINE
  8
LAYER_2
 10
284.3947
 20
-14.728
 11
292.3947
 21
-14.728
  0
LINE
  8
LAYER_2
 10
292.3947
 20
-14.728
 11
292.3947
 21
-14.228
  0
LINE
  8
LAYER_2
 10
292.3947
 20
-14.228
 11
284.3947
 21
-14.228
  0
LINE
  8
LAYER_2
 10
284.3947
 20
-14.228
 11
284.3947
 21
-14.728
  0
ENDBLK
  0
BLOCK
  8
LAYER_2
  2
AIGNBL0201006A
 70
64
 10
0
 20
0
 30
0
  3
AIGNBL0201006A
  0
LINE
  8
LAYER_2
 10
294.3947
 20
-14.728
 11
302.3947
 21
-14.728
  0
LINE
  8
LAYER_2
 10
302.3947
 20
-14.728
 11
302.3947
 21
-14.228
  0
LINE
  8
LAYER_2
 10
302.3947
 20
-14.228
 11
294.3947
 21
-14.228
  0
LINE
  8
LAYER_2
 10
294.3947
 20
-14.228
 11
294.3947
 21
-14.728
  0
ENDBLK
  0
BLOCK
  8
LAYER_2
  2
AIGNBL0201006B
 70
64
 10
0
 20
0
 30
0
  3
AIGNBL0201006B
  0
LINE
  8
LAYER_2
 10
304.3947
 20
-14.728
 11
312.3947
 21
-14.728
  0
LINE
  8
LAYER_2
 10
312.3947
 20
-14.728
 11
312.3947
 21
-14.228
  0
LINE
  8
LAYER_2
 10
312.3947
 20
-14.228
 11
304.3947
 21
-14.228
  0
LINE
  8
LAYER_2
 10
304.3947
 20
-14.228
 11
304.3947
 21
-14.728
  0
ENDBLK
  0
BLOCK
  8
LAYER_2
  2
AIGNBL0201006C
 70
64
 10
0
 20
0
 30
0
  3
AIGNBL0201006C
  0
ARC
  8
LAYER_2
 10
301.0111
 20
-14.2345
 40
0.3836
 50
0.9718649367
 51
30.69137462
  0
ARC
  8
LAYER_2
 10
300.7672
 20
-14.3837
 40
0.6695
 50
31.01809634
 51
49.75000993
  0
ARC
  8
LAYER_2
 10
300.3086
 20
-14.9209
 40
1.3759
 50
49.62691743
 51
62.61750652
  0
ARC
  8
LAYER_2
 10
299.6813
 20
-16.1125
 40
2.7225
 50
62.42936732
 51
71.58601043
  0
ARC
  8
LAYER_2
 10
298.8227
 20
-18.7248
 40
5.4722
 50
71.69620873
 51
85.50628075
  0
ARC
  8
LAYER_2
 10
298.4037
 20
-21.9334
 40
8.7054
 50
84.41132593
 51
90.05913836
  0
ARC
  8
LAYER_2
 10
298.3601
 20
-21.1904
 40
7.9624
 50
89.75129069
 51
102.1258218
  0
ARC
  8
LAYER_2
 10
297.421
 20
-16.7948
 40
3.4677
 50
102.2102792
 51
119.0030309
  0
ARC
  8
LAYER_2
 10
296.2599
 20
-14.6226
 40
1.0056
 50
121.1525364
 51
138.3461645
  0
ARC
  8
LAYER_2
 10
295.8397
 20
-14.2525
 40
0.4457
 50
138.0003902
 51
176.8549175
  0
ENDBLK
  0
BLOCK
  8
LAYER_2
  2
AIGNBL0201006D
 70
64
 10
0
 20
0
 30
0
  3
AIGNBL0201006D
  0
ENDBLK
  0
BLOCK
  8
LAYER_2
  2
AIGNBL0201006E
 70
64
 10
0
 20
0
 30
0
  3
AIGNBL0201006E
  0
ENDBLK
  0
BLOCK
  8
LAYER_2
  2
AIGNBL0201006F
 70
64
 10
0
 20
0
 30
0
  3
AIGNBL0201006F
  0
ENDBLK
  0
BLOCK
  8
LAYER_2
  2
AIGNBL02010070
 70
64
 10
0
 20
0
 30
0
  3
AIGNBL02010070
  0
LINE
  8
LAYER_2
 10
391.1903
 20
52.0044
 11
393.1903
 21
52.0044
  0
ENDBLK
  0
BLOCK
  8
LAYER_2
  2
AIGNBL02010071
 70
64
 10
0
 20
0
 30
0
  3
AIGNBL02010071
  0
LINE
  8
LAYER_2
 10
393.1903
 20
52.0044
 11
393.1903
 21
54.0044
  0
ENDBLK
  0
BLOCK
  8
LAYER_2
  2
AIGNBL02010072
 70
64
 10
0
 20
0
 30
0
  3
AIGNBL02010072
  0
LINE
  8
LAYER_2
 10
393.1903
 20
54.0044
 11
393.9903
 21
52.0044
  0
ENDBLK
  0
BLOCK
  8
LAYER_2
  2
AIGNBL02010073
 70
64
 10
0
 20
0
 30
0
  3
AIGNBL02010073
  0
LINE
  8
LAYER_2
 10
393.9903
 20
52.0044
 11
393.9903
 21
48.9044
  0
ENDBLK
  0
BLOCK
  8
LAYER_2
  2
AIGNBL02010074
 70
64
 10
0
 20
0
 30
0
  3
AIGNBL02010074
  0
LINE
  8
LAYER_2
 10
393.5903
 20
87.0044
 11
393.2077
 21
84.2306
  0
ENDBLK
  0
BLOCK
  8
LAYER_2
  2
AIGNBL02010075
 70
64
 10
0
 20
0
 30
0
  3
AIGNBL02010075
  0
LINE
  8
LAYER_2
 10
392.1903
 20
87.0044
 11
393.2077
 21
84.2306
  0
ENDBLK
  0
BLOCK
  8
LAYER_3
  2
AIGNBL03010002
 70
64
 10
0
 20
0
 30
0
  3
AIGNBL03010002
  0
LINE
  8
LAYER_3
 62
3
 10
267.7697
 20
106.9044
 11
250.0751
 21
106.9044
  0
ENDBLK
  0
BLOCK
  8
LAYER_3
  2
AIGNBL03010003
 70
64
 10
0
 20
0
 30
0
  3
AIGNBL03010003
  0
LINE
  8
LAYER_3
 62
3
 10
267.7697
 20
31.9044
 11
250.0751
 21
31.9044
  0
ENDBLK
  0
BLOCK
  8
LAYER_3
  2
AIGNBL03010004
 70
64
 10
0
 20
0
 30
0
  3
AIGNBL03010004
  0
LINE
  8
LAYER_3
 62
3
 10
251.3251
 20
104.4044
 11
251.3251
 21
34.4044
  0
ENDBLK
  0
BLOCK
  8
LAYER_3
  2
AIGNBL03010005
 70
64
 10
0
 20
0
 30
0
  3
AIGNBL03010005
  0
LINE
  8
LAYER_3
 62
3
 10
250.9085
 20
104.4044
 11
251.3251
 21
106.9044
  0
LINE
  8
LAYER_3
 62
3
 10
251.3251
 20
106.9044
 11
251.7418
 21
104.4044
  0
LINE
  8
LAYER_3
 62
3
 10
251.7418
 20
104.4044
 11
250.9085
 21
104.4044
  0
ENDBLK
  0
BLOCK
  8
LAYER_3
  2
AIGNBL03010006
 70
64
 10
0
 20
0
 30
0
  3
AIGNBL03010006
  0
LINE
  8
LAYER_3
 62
3
 10
250.9085
 20
34.4044
 11
251.3251
 21
31.9044
  0
LINE
  8
LAYER_3
 62
3
 10
251.3251
 20
31.9044
 11
251.7418
 21
34.4044
  0
LINE
  8
LAYER_3
 62
3
 10
251.7418
 20
34.4044
 11
250.9085
 21
34.4044
  0
ENDBLK
  0
BLOCK
  8
LAYER_3
  2
AIGNBL03010007
 70
64
 10
0
 20
0
 30
0
  3
AIGNBL03010007
  0
TEXT
  8
LAYER_3
 10
250.6576
 20
67.4519
 11
250.6576
 21
67.4519
 40
3.7421
 41
0.5
 50
89.99999999
 62
3
  1
75
  0
ENDBLK
  0
BLOCK
  8
LAYER_3
  2
AIGNBL03010008
 70
64
 10
0
 20
0
 30
0
  3
AIGNBL03010008
  0
LINE
  8
LAYER_3
 62
3
 10
268.3947
 20
31.2794
 11
268.3947
 21
13.3057
  0
ENDBLK
  0
BLOCK
  8
LAYER_3
  2
AIGNBL03010009
 70
64
 10
0
 20
0
 30
0
  3
AIGNBL03010009
  0
LINE
  8
LAYER_3
 62
3
 10
318.3947
 20
31.2794
 11
318.3947
 21
13.3057
  0
ENDBLK
  0
BLOCK
  8
LAYER_3
  2
AIGNBL0301000A
 70
64
 10
0
 20
0
 30
0
  3
AIGNBL0301000A
  0
LINE
  8
LAYER_3
 62
3
 10
270.8947
 20
14.5557
 11
315.8947
 21
14.5557
  0
ENDBLK
  0
BLOCK
  8
LAYER_3
  2
AIGNBL0301000B
 70
64
 10
0
 20
0
 30
0
  3
AIGNBL0301000B
  0
LINE
  8
LAYER_3
 62
3
 10
270.8947
 20
14.9724
 11
268.3947
 21
14.5557
  0
LINE
  8
LAYER_3
 62
3
 10
268.3947
 20
14.5557
 11
270.8947
 21
14.1391
  0
LINE
  8
LAYER_3
 62
3
 10
270.8947
 20
14.1391
 11
270.8947
 21
14.9724
  0
ENDBLK
  0
BLOCK
  8
LAYER_3
  2
AIGNBL0301000C
 70
64
 10
0
 20
0
 30
0
  3
AIGNBL0301000C
  0
LINE
  8
LAYER_3
 62
3
 10
315.8947
 20
14.9724
 11
318.3947
 21
14.5557
  0
LINE
  8
LAYER_3
 62
3
 10
318.3947
 20
14.5557
 11
315.8947
 21
14.1391
  0
LINE
  8
LAYER_3
 62
3
 10
315.8947
 20
14.1391
 11
315.8947
 21
14.9724
  0
ENDBLK
  0
BLOCK
  8
LAYER_3
  2
AIGNBL0301000D
 70
64
 10
0
 20
0
 30
0
  3
AIGNBL0301000D
  0
TEXT
  8
LAYER_3
 10
291.4659
 20
15.2234
 11
291.4659
 21
15.2234
 40
3.7421
 41
0.5
 62
3
  1
50
  0
ENDBLK
  0
BLOCK
  8
LAYER_3
  2
AIGNBL0301000E
 70
64
 10
0
 20
0
 30
0
  3
AIGNBL0301000E
  0
LINE
  8
LAYER_3
 62
3
 10
393.9903
 20
26.7794
 11
393.9903
 21
13.3057
  0
ENDBLK
  0
BLOCK
  8
LAYER_3
  2
AIGNBL0301000F
 70
64
 10
0
 20
0
 30
0
  3
AIGNBL0301000F
  0
LINE
  8
LAYER_3
 62
3
 10
354.9903
 20
26.7794
 11
354.9903
 21
13.3057
  0
ENDBLK
  0
BLOCK
  8
LAYER_3
  2
AIGNBL03010010
 70
64
 10
0
 20
0
 30
0
  3
AIGNBL03010010
  0
LINE
  8
LAYER_3
 62
3
 10
391.2768
 20
14.5557
 11
357.4903
 21
14.5557
  0
ENDBLK
  0
BLOCK
  8
LAYER_3
  2
AIGNBL03010011
 70
64
 10
0
 20
0
 30
0
  3
AIGNBL03010011
  0
LINE
  8
LAYER_3
 62
3
 10
391.2768
 20
14.9823
 11
393.8364
 21
14.5557
  0
LINE
  8
LAYER_3
 62
3
 10
393.8364
 20
14.5557
 11
391.2768
 21
14.1291
  0
LINE
  8
LAYER_3
 62
3
 10
391.2768
 20
14.1291
 11
391.2768
 21
14.9823
  0
ENDBLK
  0
BLOCK
  8
LAYER_3
  2
AIGNBL03010012
 70
64
 10
0
 20
0
 30
0
  3
AIGNBL03010012
  0
LINE
  8
LAYER_3
 62
3
 10
357.4903
 20
14.9724
 11
354.9903
 21
14.5557
  0
LINE
  8
LAYER_3
 62
3
 10
354.9903
 20
14.5557
 11
357.4903
 21
14.1391
  0
LINE
  8
LAYER_3
 62
3
 10
357.4903
 20
14.1391
 11
357.4903
 21
14.9724
  0
ENDBLK
  0
BLOCK
  8
LAYER_3
  2
AIGNBL03010013
 70
64
 10
0
 20
0
 30
0
  3
AIGNBL03010013
  0
TEXT
  8
LAYER_3
 10
372.0528
 20
15.2243
 11
372.0528
 21
15.2243
 40
3.7421
 41
0.5
 62
3
  1
39
  0
ENDBLK
  0
BLOCK
  8
LAYER_3
  2
AIGNBL03010014
 70
64
 10
0
 20
0
 30
0
  3
AIGNBL03010014
  0
LINE
  8
LAYER_3
 62
3
 10
267.7697
 20
-5.128
 11
250.0751
 21
-5.128
  0
ENDBLK
  0
BLOCK
  8
LAYER_3
  2
AIGNBL03010015
 70
64
 10
0
 20
0
 30
0
  3
AIGNBL03010015
  0
LINE
  8
LAYER_3
 62
3
 10
267.7697
 20
-44.128
 11
250.0751
 21
-44.128
  0
ENDBLK
  0
BLOCK
  8
LAYER_3
  2
AIGNBL03010016
 70
64
 10
0
 20
0
 30
0
  3
AIGNBL03010016
  0
LINE
  8
LAYER_3
 62
3
 10
251.3251
 20
-7.628
 11
251.3251
 21
-41.628
  0
ENDBLK
  0
BLOCK
  8
LAYER_3
  2
AIGNBL03010017
 70
64
 10
0
 20
0
 30
0
  3
AIGNBL03010017
  0
LINE
  8
LAYER_3
 62
3
 10
250.9085
 20
-7.628
 11
251.3251
 21
-5.128
  0
LINE
  8
LAYER_3
 62
3
 10
251.3251
 20
-5.128
 11
251.7418
 21
-7.628
  0
LINE
  8
LAYER_3
 62
3
 10
251.7418
 20
-7.628
 11
250.9085
 21
-7.628
  0
ENDBLK
  0
BLOCK
  8
LAYER_3
  2
AIGNBL03010018
 70
64
 10
0
 20
0
 30
0
  3
AIGNBL03010018
  0
LINE
  8
LAYER_3
 62
3
 10
250.9085
 20
-41.628
 11
251.3251
 21
-44.128
  0
LINE
  8
LAYER_3
 62
3
 10
251.3251
 20
-44.128
 11
251.7418
 21
-41.628
  0
LINE
  8
LAYER_3
 62
3
 10
251.7418
 20
-41.628
 11
250.9085
 21
-41.628
  0
ENDBLK
  0
BLOCK
  8
LAYER_3
  2
AIGNBL03010019
 70
64
 10
0
 20
0
 30
0
  3
AIGNBL03010019
  0
TEXT
  8
LAYER_3
 10
250.6566
 20
-26.5655
 11
250.6566
 21
-26.5655
 40
3.7421
 41
0.5
 50
89.99999999
 62
3
  1
39
  0
ENDBLK
  0
BLOCK
  8
LAYER_4
  2
AIGNBL04010002
 70
64
 10
0
 20
0
 30
0
  3
AIGNBL04010002
  0
LINE
  8
LAYER_4
 10
268.3947
 20
106.9044
 11
318.3947
 21
106.9044
  0
LINE
  8
LAYER_4
 10
318.3947
 20
106.9044
 11
318.3947
 21
31.9044
  0
LINE
  8
LAYER_4
 10
318.3947
 20
31.9044
 11
268.3947
 21
31.9044
  0
LINE
  8
LAYER_4
 10
268.3947
 20
31.9044
 11
268.3947
 21
106.9044
  0
ENDBLK
  0
BLOCK
  8
LAYER_4
  2
AIGNBL04010003
 70
64
 10
0
 20
0
 30
0
  3
AIGNBL04010003
  0
LINE
  8
LAYER_4
 10
272.3947
 20
31.9044
 11
272.3947
 21
46.9044
  0
ENDBLK
  0
BLOCK
  8
LAYER_4
  2
AIGNBL04010004
 70
64
 10
0
 20
0
 30
0
  3
AIGNBL04010004
  0
ARC
  8
LAYER_4
 10
273.3947
 20
46.9044
 40
1
 50
90.00006683
 51
179.9999331
  0
ENDBLK
  0
BLOCK
  8
LAYER_4
  2
AIGNBL04010005
 70
64
 10
0
 20
0
 30
0
  3
AIGNBL04010005
  0
LINE
  8
LAYER_4
 10
273.3947
 20
47.9044
 11
313.3947
 21
47.9044
  0
ENDBLK
  0
BLOCK
  8
LAYER_4
  2
AIGNBL04010006
 70
64
 10
0
 20
0
 30
0
  3
AIGNBL04010006
  0
LINE
  8
LAYER_4
 10
314.3947
 20
46.9044
 11
314.3947
 21
31.9044
  0
ENDBLK
  0
BLOCK
  8
LAYER_4
  2
AIGNBL04010007
 70
64
 10
0
 20
0
 30
0
  3
AIGNBL04010007
  0
ARC
  8
LAYER_4
 10
313.3947
 20
46.9044
 40
1
 50
0.002630343882
 51
89.99736964
  0
ENDBLK
  0
BLOCK
  8
LAYER_4
  2
AIGNBL04010008
 70
64
 10
0
 20
0
 30
0
  3
AIGNBL04010008
  0
LINE
  8
LAYER_4
 10
272.3947
 20
46.4044
 11
314.3947
 21
46.4044
  0
ENDBLK
  0
BLOCK
  8
LAYER_4
  2
AIGNBL04010009
 70
64
 10
0
 20
0
 30
0
  3
AIGNBL04010009
  0
LINE
  8
LAYER_4
 10
272.3947
 20
46.4044
 11
314.3947
 21
46.4044
  0
LINE
  8
LAYER_4
 10
314.3947
 20
46.4044
 11
314.3947
 21
43.4044
  0
LINE
  8
LAYER_4
 10
314.3947
 20
43.4044
 11
272.3947
 21
43.4044
  0
LINE
  8
LAYER_4
 10
272.3947
 20
43.4044
 11
272.3947
 21
46.4044
  0
ENDBLK
  0
BLOCK
  8
LAYER_4
  2
AIGNBL0401000A
 70
64
 10
0
 20
0
 30
0
  3
AIGNBL0401000A
  0
LINE
  8
LAYER_4
 10
272.3947
 20
43.4044
 11
274.3947
 21
43.4044
  0
LINE
  8
LAYER_4
 10
274.3947
 20
43.4044
 11
274.3947
 21
31.9044
  0
LINE
  8
LAYER_4
 10
274.3947
 20
31.9044
 11
272.3947
 21
31.9044
  0
LINE
  8
LAYER_4
 10
272.3947
 20
31.9044
 11
272.3947
 21
43.4044
  0
ENDBLK
  0
BLOCK
  8
LAYER_4
  2
AIGNBL0401000B
 70
64
 10
0
 20
0
 30
0
  3
AIGNBL0401000B
  0
LINE
  8
LAYER_4
 10
274.3947
 20
43.4044
 11
282.3947
 21
43.4044
  0
LINE
  8
LAYER_4
 10
282.3947
 20
43.4044
 11
282.3947
 21
31.9044
  0
LINE
  8
LAYER_4
 10
282.3947
 20
31.9044
 11
274.3947
 21
31.9044
  0
LINE
  8
LAYER_4
 10
274.3947
 20
31.9044
 11
274.3947
 21
43.4044
  0
ENDBLK
  0
BLOCK
  8
LAYER_4
  2
AIGNBL0401000C
 70
64
 10
0
 20
0
 30
0
  3
AIGNBL0401000C
  0
LINE
  8
LAYER_4
 10
282.3947
 20
43.4044
 11
284.3947
 21
43.4044
  0
LINE
  8
LAYER_4
 10
284.3947
 20
43.4044
 11
284.3947
 21
31.9044
  0
LINE
  8
LAYER_4
 10
284.3947
 20
31.9044
 11
282.3947
 21
31.9044
  0
LINE
  8
LAYER_4
 10
282.3947
 20
31.9044
 11
282.3947
 21
43.4044
  0
ENDBLK
  0
BLOCK
  8
LAYER_4
  2
AIGNBL0401000D
 70
64
 10
0
 20
0
 30
0
  3
AIGNBL0401000D
  0
LINE
  8
LAYER_4
 10
284.3947
 20
43.4044
 11
292.3947
 21
43.4044
  0
LINE
  8
LAYER_4
 10
292.3947
 20
43.4044
 11
292.3947
 21
31.9044
  0
LINE
  8
LAYER_4
 10
292.3947
 20
31.9044
 11
284.3947
 21
31.9044
  0
LINE
  8
LAYER_4
 10
284.3947
 20
31.9044
 11
284.3947
 21
43.4044
  0
ENDBLK
  0
BLOCK
  8
LAYER_4
  2
AIGNBL0401000E
 70
64
 10
0
 20
0
 30
0
  3
AIGNBL0401000E
  0
LINE
  8
LAYER_4
 10
292.3947
 20
43.4044
 11
294.3947
 21
43.4044
  0
LINE
  8
LAYER_4
 10
294.3947
 20
43.4044
 11
294.3947
 21
31.9044
  0
LINE
  8
LAYER_4
 10
294.3947
 20
31.9044
 11
292.3947
 21
31.9044
  0
LINE
  8
LAYER_4
 10
292.3947
 20
31.9044
 11
292.3947
 21
43.4044
  0
ENDBLK
  0
BLOCK
  8
LAYER_4
  2
AIGNBL0401000F
 70
64
 10
0
 20
0
 30
0
  3
AIGNBL0401000F
  0
LINE
  8
LAYER_4
 10
294.3947
 20
43.4044
 11
302.3947
 21
43.4044
  0
LINE
  8
LAYER_4
 10
302.3947
 20
43.4044
 11
302.3947
 21
31.9044
  0
LINE
  8
LAYER_4
 10
302.3947
 20
31.9044
 11
294.3947
 21
31.9044
  0
LINE
  8
LAYER_4
 10
294.3947
 20
31.9044
 11
294.3947
 21
43.4044
  0
ENDBLK
  0
BLOCK
  8
LAYER_4
  2
AIGNBL04010010
 70
64
 10
0
 20
0
 30
0
  3
AIGNBL04010010
  0
LINE
  8
LAYER_4
 10
302.3947
 20
43.4044
 11
304.3947
 21
43.4044
  0
LINE
  8
LAYER_4
 10
304.3947
 20
43.4044
 11
304.3947
 21
31.9044
  0
LINE
  8
LAYER_4
 10
304.3947
 20
31.9044
 11
302.3947
 21
31.9044
  0
LINE
  8
LAYER_4
 10
302.3947
 20
31.9044
 11
302.3947
 21
43.4044
  0
ENDBLK
  0
BLOCK
  8
LAYER_4
  2
AIGNBL04010011
 70
64
 10
0
 20
0
 30
0
  3
AIGNBL04010011
  0
LINE
  8
LAYER_4
 10
304.3947
 20
43.4044
 11
312.3947
 21
43.4044
  0
LINE
  8
LAYER_4
 10
312.3947
 20
43.4044
 11
312.3947
 21
31.9044
  0
LINE
  8
LAYER_4
 10
312.3947
 20
31.9044
 11
304.3947
 21
31.9044
  0
LINE
  8
LAYER_4
 10
304.3947
 20
31.9044
 11
304.3947
 21
43.4044
  0
ENDBLK
  0
BLOCK
  8
LAYER_4
  2
AIGNBL04010012
 70
64
 10
0
 20
0
 30
0
  3
AIGNBL04010012
  0
LINE
  8
LAYER_4
 10
312.3947
 20
43.4044
 11
314.3947
 21
43.4044
  0
LINE
  8
LAYER_4
 10
314.3947
 20
43.4044
 11
314.3947
 21
31.9044
  0
LINE
  8
LAYER_4
 10
314.3947
 20
31.9044
 11
312.3947
 21
31.9044
  0
LINE
  8
LAYER_4
 10
312.3947
 20
31.9044
 11
312.3947
 21
43.4044
  0
ENDBLK
  0
BLOCK
  8
LAYER_4
  2
AIGNBL04010013
 70
64
 10
0
 20
0
 30
0
  3
AIGNBL04010013
  0
LINE
  8
LAYER_4
 10
276.8947
 20
43.4044
 11
279.8947
 21
43.4044
  0
LINE
  8
LAYER_4
 10
279.8947
 20
43.4044
 11
279.8947
 21
44.6044
  0
LINE
  8
LAYER_4
 10
279.8947
 20
44.6044
 11
276.8947
 21
44.6044
  0
LINE
  8
LAYER_4
 10
276.8947
 20
44.6044
 11
276.8947
 21
43.4044
  0
ENDBLK
  0
BLOCK
  8
LAYER_4
  2
AIGNBL04010014
 70
64
 10
0
 20
0
 30
0
  3
AIGNBL04010014
  0
LINE
  8
LAYER_4
 10
286.8947
 20
43.4044
 11
289.8947
 21
43.4044
  0
LINE
  8
LAYER_4
 10
289.8947
 20
43.4044
 11
289.8947
 21
44.6044
  0
LINE
  8
LAYER_4
 10
289.8947
 20
44.6044
 11
286.8947
 21
44.6044
  0
LINE
  8
LAYER_4
 10
286.8947
 20
44.6044
 11
286.8947
 21
43.4044
  0
ENDBLK
  0
BLOCK
  8
LAYER_4
  2
AIGNBL04010015
 70
64
 10
0
 20
0
 30
0
  3
AIGNBL04010015
  0
LINE
  8
LAYER_4
 10
296.8947
 20
43.4044
 11
299.8947
 21
43.4044
  0
LINE
  8
LAYER_4
 10
299.8947
 20
43.4044
 11
299.8947
 21
44.6044
  0
LINE
  8
LAYER_4
 10
299.8947
 20
44.6044
 11
296.8947
 21
44.6044
  0
LINE
  8
LAYER_4
 10
296.8947
 20
44.6044
 11
296.8947
 21
43.4044
  0
ENDBLK
  0
BLOCK
  8
LAYER_4
  2
AIGNBL04010016
 70
64
 10
0
 20
0
 30
0
  3
AIGNBL04010016
  0
LINE
  8
LAYER_4
 10
306.8947
 20
43.4044
 11
309.8947
 21
43.4044
  0
LINE
  8
LAYER_4
 10
309.8947
 20
43.4044
 11
309.8947
 21
44.6044
  0
LINE
  8
LAYER_4
 10
309.8947
 20
44.6044
 11
306.8947
 21
44.6044
  0
LINE
  8
LAYER_4
 10
306.8947
 20
44.6044
 11
306.8947
 21
43.4044
  0
ENDBLK
  0
BLOCK
  8
LAYER_4
  2
AIGNBL04010017
 70
64
 10
0
 20
0
 30
0
  3
AIGNBL04010017
  0
LINE
  8
LAYER_4
 10
272.3947
 20
31.9044
 11
274.3947
 21
31.9044
  0
LINE
  8
LAYER_4
 10
274.3947
 20
31.9044
 11
274.3947
 21
33.9044
  0
LINE
  8
LAYER_4
 10
274.3947
 20
33.9044
 11
272.3947
 21
33.9044
  0
LINE
  8
LAYER_4
 10
272.3947
 20
33.9044
 11
272.3947
 21
31.9044
  0
ENDBLK
  0
BLOCK
  8
LAYER_4
  2
AIGNBL04010018
 70
64
 10
0
 20
0
 30
0
  3
AIGNBL04010018
  0
LINE
  8
LAYER_4
 10
282.3947
 20
31.9044
 11
284.3947
 21
31.9044
  0
LINE
  8
LAYER_4
 10
284.3947
 20
31.9044
 11
284.3947
 21
33.9044
  0
LINE
  8
LAYER_4
 10
284.3947
 20
33.9044
 11
282.3947
 21
33.9044
  0
LINE
  8
LAYER_4
 10
282.3947
 20
33.9044
 11
282.3947
 21
31.9044
  0
ENDBLK
  0
BLOCK
  8
LAYER_4
  2
AIGNBL04010019
 70
64
 10
0
 20
0
 30
0
  3
AIGNBL04010019
  0
LINE
  8
LAYER_4
 10
292.3947
 20
31.9044
 11
294.3947
 21
31.9044
  0
LINE
  8
LAYER_4
 10
294.3947
 20
31.9044
 11
294.3947
 21
33.9044
  0
LINE
  8
LAYER_4
 10
294.3947
 20
33.9044
 11
292.3947
 21
33.9044
  0
LINE
  8
LAYER_4
 10
292.3947
 20
33.9044
 11
292.3947
 21
31.9044
  0
ENDBLK
  0
BLOCK
  8
LAYER_4
  2
AIGNBL0401001A
 70
64
 10
0
 20
0
 30
0
  3
AIGNBL0401001A
  0
LINE
  8
LAYER_4
 10
302.3947
 20
31.9044
 11
304.3947
 21
31.9044
  0
LINE
  8
LAYER_4
 10
304.3947
 20
31.9044
 11
304.3947
 21
33.9044
  0
LINE
  8
LAYER_4
 10
304.3947
 20
33.9044
 11
302.3947
 21
33.9044
  0
LINE
  8
LAYER_4
 10
302.3947
 20
33.9044
 11
302.3947
 21
31.9044
  0
ENDBLK
  0
BLOCK
  8
LAYER_4
  2
AIGNBL0401001B
 70
64
 10
0
 20
0
 30
0
  3
AIGNBL0401001B
  0
LINE
  8
LAYER_4
 10
312.3947
 20
31.9044
 11
314.3947
 21
31.9044
  0
LINE
  8
LAYER_4
 10
314.3947
 20
31.9044
 11
314.3947
 21
33.9044
  0
LINE
  8
LAYER_4
 10
314.3947
 20
33.9044
 11
312.3947
 21
33.9044
  0
LINE
  8
LAYER_4
 10
312.3947
 20
33.9044
 11
312.3947
 21
31.9044
  0
ENDBLK
  0
BLOCK
  8
LAYER_4
  2
AIGNBL0401001C
 70
64
 10
0
 20
0
 30
0
  3
AIGNBL0401001C
  0
ARC
  8
LAYER_4
 10
278.3947
 20
38.4044
 40
3
 50
90.00002228
 51
179.9999777
  0
ARC
  8
LAYER_4
 10
278.3947
 20
38.4044
 40
3
 50
0.0008769198005
 51
89.99912307
  0
ARC
  8
LAYER_4
 10
278.3947
 20
38.4044
 40
3
 50
269.9999778
 51
2.224339394e-005
  0
ARC
  8
LAYER_4
 10
278.3947
 20
38.4044
 40
3
 50
179.999123
 51
270.000877
  0
ENDBLK
  0
BLOCK
  8
LAYER_4
  2
AIGNBL0401001D
 70
64
 10
0
 20
0
 30
0
  3
AIGNBL0401001D
  0
ENDBLK
  0
BLOCK
  8
LAYER_4
  2
AIGNBL0401001E
 70
64
 10
0
 20
0
 30
0
  3
AIGNBL0401001E
  0
LINE
  8
LAYER_4
 10
282.3947
 20
42.4044
 11
274.3947
 21
42.4044
  0
LINE
  8
LAYER_4
 10
274.3947
 20
42.4044
 11
274.3947
 21
34.4044
  0
LINE
  8
LAYER_4
 10
274.3947
 20
34.4044
 11
282.3947
 21
34.4044
  0
LINE
  8
LAYER_4
 10
282.3947
 20
34.4044
 11
282.3947
 21
42.4044
  0
ENDBLK
  0
BLOCK
  8
LAYER_4
  2
AIGNBL0401001F
 70
64
 10
0
 20
0
 30
0
  3
AIGNBL0401001F
  0
LINE
  8
LAYER_4
 10
278.8947
 20
38.9044
 11
278.8947
 21
39.9044
  0
LINE
  8
LAYER_4
 10
278.8947
 20
39.9044
 11
277.8947
 21
39.9044
  0
LINE
  8
LAYER_4
 10
277.8947
 20
39.9044
 11
277.8947
 21
38.9044
  0
ENDBLK
  0
BLOCK
  8
LAYER_4
  2
AIGNBL04010020
 70
64
 10
0
 20
0
 30
0
  3
AIGNBL04010020
  0
LINE
  8
LAYER_4
 10
277.8947
 20
37.9044
 11
277.8947
 21
36.9044
  0
LINE
  8
LAYER_4
 10
277.8947
 20
36.9044
 11
278.8947
 21
36.9044
  0
LINE
  8
LAYER_4
 10
278.8947
 20
36.9044
 11
278.8947
 21
37.9044
  0
ENDBLK
  0
BLOCK
  8
LAYER_4
  2
AIGNBL04010021
 70
64
 10
0
 20
0
 30
0
  3
AIGNBL04010021
  0
LINE
  8
LAYER_4
 10
278.8947
 20
38.9044
 11
279.8947
 21
38.9044
  0
LINE
  8
LAYER_4
 10
279.8947
 20
38.9044
 11
279.8947
 21
37.9044
  0
LINE
  8
LAYER_4
 10
279.8947
 20
37.9044
 11
278.8947
 21
37.9044
  0
ENDBLK
  0
BLOCK
  8
LAYER_4
  2
AIGNBL04010022
 70
64
 10
0
 20
0
 30
0
  3
AIGNBL04010022
  0
LINE
  8
LAYER_4
 10
277.8947
 20
37.9044
 11
276.8947
 21
37.9044
  0
LINE
  8
LAYER_4
 10
276.8947
 20
37.9044
 11
276.8947
 21
38.9044
  0
LINE
  8
LAYER_4
 10
276.8947
 20
38.9044
 11
277.8947
 21
38.9044
  0
ENDBLK
  0
BLOCK
  8
LAYER_4
  2
AIGNBL04010023
 70
64
 10
0
 20
0
 30
0
  3
AIGNBL04010023
  0
ARC
  8
LAYER_4
 10
288.3947
 20
38.4044
 40
3
 50
90.00002231
 51
179.9999777
  0
ARC
  8
LAYER_4
 10
288.3947
 20
38.4044
 40
3
 50
0.0008768959308
 51
89.99912309
  0
ARC
  8
LAYER_4
 10
288.3947
 20
38.4044
 40
3
 50
269.9999777
 51
2.226726509e-005
  0
ARC
  8
LAYER_4
 10
288.3947
 20
38.4044
 40
3
 50
179.9991231
 51
270.0008769
  0
ENDBLK
  0
BLOCK
  8
LAYER_4
  2
AIGNBL04010024
 70
64
 10
0
 20
0
 30
0
  3
AIGNBL04010024
  0
LINE
  8
LAYER_4
 10
292.3947
 20
42.4044
 11
284.3947
 21
42.4044
  0
LINE
  8
LAYER_4
 10
284.3947
 20
42.4044
 11
284.3947
 21
34.4044
  0
LINE
  8
LAYER_4
 10
284.3947
 20
34.4044
 11
292.3947
 21
34.4044
  0
LINE
  8
LAYER_4
 10
292.3947
 20
34.4044
 11
292.3947
 21
42.4044
  0
ENDBLK
  0
BLOCK
  8
LAYER_4
  2
AIGNBL04010025
 70
64
 10
0
 20
0
 30
0
  3
AIGNBL04010025
  0
LINE
  8
LAYER_4
 10
288.8947
 20
38.9044
 11
288.8947
 21
39.9044
  0
LINE
  8
LAYER_4
 10
288.8947
 20
39.9044
 11
287.8947
 21
39.9044
  0
LINE
  8
LAYER_4
 10
287.8947
 20
39.9044
 11
287.8947
 21
38.9044
  0
ENDBLK
  0
BLOCK
  8
LAYER_4
  2
AIGNBL04010026
 70
64
 10
0
 20
0
 30
0
  3
AIGNBL04010026
  0
LINE
  8
LAYER_4
 10
287.8947
 20
37.9044
 11
287.8947
 21
36.9044
  0
LINE
  8
LAYER_4
 10
287.8947
 20
36.9044
 11
288.8947
 21
36.9044
  0
LINE
  8
LAYER_4
 10
288.8947
 20
36.9044
 11
288.8947
 21
37.9044
  0
ENDBLK
  0
BLOCK
  8
LAYER_4
  2
AIGNBL04010027
 70
64
 10
0
 20
0
 30
0
  3
AIGNBL04010027
  0
LINE
  8
LAYER_4
 10
288.8947
 20
38.9044
 11
289.8947
 21
38.9044
  0
LINE
  8
LAYER_4
 10
289.8947
 20
38.9044
 11
289.8947
 21
37.9044
  0
LINE
  8
LAYER_4
 10
289.8947
 20
37.9044
 11
288.8947
 21
37.9044
  0
ENDBLK
  0
BLOCK
  8
LAYER_4
  2
AIGNBL04010028
 70
64
 10
0
 20
0
 30
0
  3
AIGNBL04010028
  0
LINE
  8
LAYER_4
 10
287.8947
 20
37.9044
 11
286.8947
 21
37.9044
  0
LINE
  8
LAYER_4
 10
286.8947
 20
37.9044
 11
286.8947
 21
38.9044
  0
LINE
  8
LAYER_4
 10
286.8947
 20
38.9044
 11
287.8947
 21
38.9044
  0
ENDBLK
  0
BLOCK
  8
LAYER_4
  2
AIGNBL04010029
 70
64
 10
0
 20
0
 30
0
  3
AIGNBL04010029
  0
ARC
  8
LAYER_4
 10
298.3947
 20
38.4044
 40
3
 50
90.00002233
 51
179.9999776
  0
ARC
  8
LAYER_4
 10
298.3947
 20
38.4044
 40
3
 50
0.0008768720548
 51
89.99912312
  0
ARC
  8
LAYER_4
 10
298.3947
 20
38.4044
 40
3
 50
269.9999777
 51
2.229114265e-005
  0
ARC
  8
LAYER_4
 10
298.3947
 20
38.4044
 40
3
 50
179.9991231
 51
270.0008769
  0
ENDBLK
  0
BLOCK
  8
LAYER_4
  2
AIGNBL0401002A
 70
64
 10
0
 20
0
 30
0
  3
AIGNBL0401002A
  0
LINE
  8
LAYER_4
 10
302.3947
 20
42.4044
 11
294.3947
 21
42.4044
  0
LINE
  8
LAYER_4
 10
294.3947
 20
42.4044
 11
294.3947
 21
34.4044
  0
LINE
  8
LAYER_4
 10
294.3947
 20
34.4044
 11
302.3947
 21
34.4044
  0
LINE
  8
LAYER_4
 10
302.3947
 20
34.4044
 11
302.3947
 21
42.4044
  0
ENDBLK
  0
BLOCK
  8
LAYER_4
  2
AIGNBL0401002B
 70
64
 10
0
 20
0
 30
0
  3
AIGNBL0401002B
  0
ARC
  8
LAYER_4
 10
308.3947
 20
38.4044
 40
3
 50
90.00002235
 51
179.9999776
  0
ARC
  8
LAYER_4
 10
308.3947
 20
38.4044
 40
3
 50
0.0008768481913
 51
89.99912314
  0
ARC
  8
LAYER_4
 10
308.3947
 20
38.4044
 40
3
 50
269.9999777
 51
2.231500767e-005
  0
ARC
  8
LAYER_4
 10
308.3947
 20
38.4044
 40
3
 50
179.9991231
 51
270.0008769
  0
ENDBLK
  0
BLOCK
  8
LAYER_4
  2
AIGNBL0401002C
 70
64
 10
0
 20
0
 30
0
  3
AIGNBL0401002C
  0
LINE
  8
LAYER_4
 10
312.3947
 20
42.4044
 11
304.3947
 21
42.4044
  0
LINE
  8
LAYER_4
 10
304.3947
 20
42.4044
 11
304.3947
 21
34.4044
  0
LINE
  8
LAYER_4
 10
304.3947
 20
34.4044
 11
312.3947
 21
34.4044
  0
LINE
  8
LAYER_4
 10
312.3947
 20
34.4044
 11
312.3947
 21
42.4044
  0
ENDBLK
  0
BLOCK
  8
LAYER_4
  2
AIGNBL0401002D
 70
64
 10
0
 20
0
 30
0
  3
AIGNBL0401002D
  0
LINE
  8
LAYER_4
 10
308.8947
 20
38.9044
 11
308.8947
 21
39.9044
  0
LINE
  8
LAYER_4
 10
308.8947
 20
39.9044
 11
307.8947
 21
39.9044
  0
LINE
  8
LAYER_4
 10
307.8947
 20
39.9044
 11
307.8947
 21
38.9044
  0
ENDBLK
  0
BLOCK
  8
LAYER_4
  2
AIGNBL0401002E
 70
64
 10
0
 20
0
 30
0
  3
AIGNBL0401002E
  0
LINE
  8
LAYER_4
 10
307.8947
 20
37.9044
 11
307.8947
 21
36.9044
  0
LINE
  8
LAYER_4
 10
307.8947
 20
36.9044
 11
308.8947
 21
36.9044
  0
LINE
  8
LAYER_4
 10
308.8947
 20
36.9044
 11
308.8947
 21
37.9044
  0
ENDBLK
  0
BLOCK
  8
LAYER_4
  2
AIGNBL0401002F
 70
64
 10
0
 20
0
 30
0
  3
AIGNBL0401002F
  0
LINE
  8
LAYER_4
 10
308.8947
 20
38.9044
 11
309.8947
 21
38.9044
  0
LINE
  8
LAYER_4
 10
309.8947
 20
38.9044
 11
309.8947
 21
37.9044
  0
LINE
  8
LAYER_4
 10
309.8947
 20
37.9044
 11
308.8947
 21
37.9044
  0
ENDBLK
  0
BLOCK
  8
LAYER_4
  2
AIGNBL04010030
 70
64
 10
0
 20
0
 30
0
  3
AIGNBL04010030
  0
LINE
  8
LAYER_4
 10
307.8947
 20
37.9044
 11
306.8947
 21
37.9044
  0
LINE
  8
LAYER_4
 10
306.8947
 20
37.9044
 11
306.8947
 21
38.9044
  0
LINE
  8
LAYER_4
 10
306.8947
 20
38.9044
 11
307.8947
 21
38.9044
  0
ENDBLK
  0
BLOCK
  8
LAYER_4
  2
AIGNBL04010031
 70
64
 10
0
 20
0
 30
0
  3
AIGNBL04010031
  0
LINE
  8
LAYER_4
 10
354.9903
 20
106.9044
 11
384.9903
 21
106.9044
  0
LINE
  8
LAYER_4
 10
384.9903
 20
106.9044
 11
384.9903
 21
31.9044
  0
LINE
  8
LAYER_4
 10
384.9903
 20
31.9044
 11
354.9903
 21
31.9044
  0
LINE
  8
LAYER_4
 10
354.9903
 20
31.9044
 11
354.9903
 21
106.9044
  0
ENDBLK
  0
BLOCK
  8
LAYER_4
  2
AIGNBL04010032
 70
64
 10
0
 20
0
 30
0
  3
AIGNBL04010032
  0
LINE
  8
LAYER_4
 10
393.9903
 20
104.4044
 11
393.9903
 21
89.9044
  0
ENDBLK
  0
BLOCK
  8
LAYER_4
  2
AIGNBL04010033
 70
64
 10
0
 20
0
 30
0
  3
AIGNBL04010033
  0
LINE
  8
LAYER_4
 10
393.9903
 20
34.4044
 11
393.9903
 21
48.9044
  0
ENDBLK
  0
BLOCK
  8
LAYER_4
  2
AIGNBL04010034
 70
64
 10
0
 20
0
 30
0
  3
AIGNBL04010034
  0
LINE
  8
LAYER_4
 10
391.1903
 20
87.0044
 11
393.5903
 21
87.0044
  0
ENDBLK
  0
BLOCK
  8
LAYER_4
  2
AIGNBL04010035
 70
64
 10
0
 20
0
 30
0
  3
AIGNBL04010035
  0
LINE
  8
LAYER_4
 10
393.5903
 20
87.0044
 11
393.9903
 21
89.9044
  0
ENDBLK
  0
BLOCK
  8
LAYER_4
  2
AIGNBL04010036
 70
64
 10
0
 20
0
 30
0
  3
AIGNBL04010036
  0
LINE
  8
LAYER_4
 10
393.9903
 20
34.4044
 11
393.9903
 21
48.9044
  0
ENDBLK
  0
BLOCK
  8
LAYER_4
  2
AIGNBL04010037
 70
64
 10
0
 20
0
 30
0
  3
AIGNBL04010037
  0
LINE
  8
LAYER_4
 10
391.1903
 20
87.0044
 11
391.1903
 21
52.0044
  0
ENDBLK
  0
BLOCK
  8
LAYER_4
  2
AIGNBL04010038
 70
64
 10
0
 20
0
 30
0
  3
AIGNBL04010038
  0
LINE
  8
LAYER_4
 10
391.1903
 20
52.0044
 11
393.9903
 21
48.9044
  0
ENDBLK
  0
BLOCK
  8
LAYER_4
  2
AIGNBL04010039
 70
64
 10
0
 20
0
 30
0
  3
AIGNBL04010039
  0
LINE
  8
LAYER_4
 10
393.9903
 20
104.4044
 11
384.9903
 21
104.4044
  0
ENDBLK
  0
BLOCK
  8
LAYER_4
  2
AIGNBL0401003A
 70
64
 10
0
 20
0
 30
0
  3
AIGNBL0401003A
  0
LINE
  8
LAYER_4
 10
393.9903
 20
34.4044
 11
385.0107
 21
34.4044
  0
ENDBLK
  0
ENDSEC
  0
SECTION
  2
ENTITIES
  0
INSERT
  8
LAYER_1
  2
AIGNBL01010002
 10
0
 20
0
 30
0
  0
INSERT
  8
LAYER_1
  2
AIGNBL01010003
 10
0
 20
0
 30
0
  0
TEXT
  8
LAYER_1
 10
348.9088
 20
-30.5741
 11
348.9088
 21
-30.5741
 40
3.1044
 41
0.5
 72
1
  1
品名
  0
TEXT
  8
LAYER_1
 10
348.9088
 20
-35.2308
 11
348.9088
 21
-35.2308
 40
3.1044
 41
0.5
 72
1
  1
PRODUCT
  0
TEXT
  8
LAYER_1
 10
414.219
 20
-30.5741
 11
414.219
 21
-30.5741
 40
3.1044
 41
0.5
 72
1
  1
型式
  0
TEXT
  8
LAYER_1
 10
414.219
 20
-35.2308
 11
414.219
 21
-35.2308
 40
3.1044
 41
0.5
 72
1
  1
TYPE
  0
TEXT
  8
LAYER_1
 10
414.219
 20
-40.4516
 11
414.219
 21
-40.4516
 40
3.1044
 41
0.5
 72
1
  1
単位
  0
TEXT
  8
LAYER_1
 10
414.219
 20
-45.1084
 11
414.219
 21
-45.1084
 40
3.1044
 41
0.5
 72
1
  1
UNIT
  0
TEXT
  8
LAYER_1
 10
414.219
 20
-60.5799
 11
414.219
 21
-60.5799
 40
3.4815
 41
0.5
 72
1
  1
設計
  0
TEXT
  8
LAYER_1
 10
414.2191
 20
-65.802
 11
414.2191
 21
-65.802
 40
3.4815
 41
0.5
 72
1
  1
DESIGNED
  0
TEXT
  8
LAYER_1
 10
349.219
 20
-40.4517
 11
349.219
 21
-40.4517
 40
3.1044
 41
0.5
 72
1
  1
寸法
  0
TEXT
  8
LAYER_1
 10
349.219
 20
-45.1085
 11
349.219
 21
-45.1085
 40
3.1044
 41
0.5
 72
1
  1
SIZE
  0
TEXT
  8
LAYER_1
 10
349.219
 20
-60.5801
 11
349.219
 21
-60.5801
 40
3.1044
 41
0.5
 72
1
  1
材質
  0
TEXT
  8
LAYER_1
 10
349.219
 20
-65.2368
 11
349.219
 21
-65.2368
 40
3.1044
 41
0.5
 72
1
  1
MATERIAL
  0
TEXT
  8
LAYER_1
 10
349.7268
 20
-50.452
 11
349.7268
 21
-50.452
 40
3.1044
 41
0.5
 72
1
  1
ネジ
  0
TEXT
  8
LAYER_1
 10
349.219
 20
-55.1087
 11
349.219
 21
-55.1087
 40
3.1044
 41
0.5
 72
1
  1
SCREW
  0
TEXT
  8
LAYER_1
 10
413.9088
 20
-50.4519
 11
413.9088
 21
-50.4519
 40
3.1044
 41
0.5
 72
1
  1
日付
  0
TEXT
  8
LAYER_1
 10
413.9088
 20
-55.1086
 11
413.9088
 21
-55.1086
 40
3.1044
 41
0.5
 72
1
  1
DATE
  0
TEXT
  8
LAYER_1
 10
380.3575
 20
-43.2231
 11
380.3575
 21
-43.2231
 40
3.6689
 41
0.5
 72
1
  1
W50×H75×D39
  0
TEXT
  8
LAYER_1
 10
446.7193
 20
-43.2231
 11
446.7193
 21
-43.2231
 40
3.6689
 41
0.5
 72
1
  1
mm
  0
TEXT
  8
LAYER_1
 10
446.7193
 20
-33.1043
 11
446.7193
 21
-33.1043
 40
3.6689
 41
0.5
 72
1
  1
NR-48T
  0
TEXT
  8
LAYER_1
 10
446.7193
 20
-53.2231
 11
446.7193
 21
-53.2231
 40
3.6689
 41
0.5
 72
1
  1
2017.07.24
  0
TEXT
  8
LAYER_1
 10
446.719
 20
-63.2231
 11
446.719
 21
-63.2231
 40
3.6689
 41
0.5
 72
1
  1
戸森 幹二
  0
TEXT
  8
LAYER_1
 10
381.7193
 20
-63.2231
 11
381.7193
 21
-63.2231
 40
3.6689
 41
0.5
 72
1
  1
ABS 黒
  0
TEXT
  8
LAYER_1
 10
381.7193
 20
-30.8515
 11
381.7193
 21
-30.8515
 40
3.1044
 41
0.5
 72
1
  1
伝送回線用
  0
TEXT
  8
LAYER_1
 10
383.5683
 20
-35.5083
 11
383.5683
 21
-35.5083
 40
3.1044
 41
0.5
 72
1
  1
モリブデン避雷器
  0
TEXT
  8
LAYER_1
 10
383.9476
 20
-50.8515
 11
383.9476
 21
-50.8515
 40
3.1044
 41
0.5
 72
1
  1
黄銅 ニッケルメッキ
  0
TEXT
  8
LAYER_1
 10
381.7193
 20
-55.5083
 11
381.7193
 21
-55.5083
 40
3.1044
 41
0.5
 72
1
  1
M3.5
  0
INSERT
  8
LAYER_1
  2
AIGNBL0101000A
 10
0
 20
0
 30
0
  0
INSERT
  8
LAYER_2
  2
AIGNBL02010002
 10
0
 20
0
 30
0
  0
INSERT
  8
LAYER_2
  2
AIGNBL02010003
 10
0
 20
0
 30
0
  0
INSERT
  8
LAYER_2
  2
AIGNBL02010004
 10
0
 20
0
 30
0
  0
INSERT
  8
LAYER_2
  2
AIGNBL02010005
 10
0
 20
0
 30
0
  0
INSERT
  8
LAYER_2
  2
AIGNBL02010006
 10
0
 20
0
 30
0
  0
INSERT
  8
LAYER_2
  2
AIGNBL02010007
 10
0
 20
0
 30
0
  0
INSERT
  8
LAYER_2
  2
AIGNBL02010008
 10
0
 20
0
 30
0
  0
INSERT
  8
LAYER_2
  2
AIGNBL02010009
 10
0
 20
0
 30
0
  0
INSERT
  8
LAYER_2
  2
AIGNBL0201000A
 10
0
 20
0
 30
0
  0
INSERT
  8
LAYER_2
  2
AIGNBL0201000B
 10
0
 20
0
 30
0
  0
INSERT
  8
LAYER_2
  2
AIGNBL0201000C
 10
0
 20
0
 30
0
  0
INSERT
  8
LAYER_2
  2
AIGNBL0201000D
 10
0
 20
0
 30
0
  0
INSERT
  8
LAYER_2
  2
AIGNBL0201000E
 10
0
 20
0
 30
0
  0
INSERT
  8
LAYER_2
  2
AIGNBL0201000F
 10
0
 20
0
 30
0
  0
INSERT
  8
LAYER_2
  2
AIGNBL02010010
 10
0
 20
0
 30
0
  0
INSERT
  8
LAYER_2
  2
AIGNBL02010011
 10
0
 20
0
 30
0
  0
INSERT
  8
LAYER_2
  2
AIGNBL02010012
 10
0
 20
0
 30
0
  0
INSERT
  8
LAYER_2
  2
AIGNBL02010013
 10
0
 20
0
 30
0
  0
INSERT
  8
LAYER_2
  2
AIGNBL02010014
 10
0
 20
0
 30
0
  0
INSERT
  8
LAYER_2
  2
AIGNBL02010015
 10
0
 20
0
 30
0
  0
INSERT
  8
LAYER_2
  2
AIGNBL02010016
 10
0
 20
0
 30
0
  0
INSERT
  8
LAYER_2
  2
AIGNBL02010017
 10
0
 20
0
 30
0
  0
INSERT
  8
LAYER_2
  2
AIGNBL02010018
 10
0
 20
0
 30
0
  0
INSERT
  8
LAYER_2
  2
AIGNBL02010019
 10
0
 20
0
 30
0
  0
INSERT
  8
LAYER_2
  2
AIGNBL0201001A
 10
0
 20
0
 30
0
  0
INSERT
  8
LAYER_2
  2
AIGNBL0201001B
 10
0
 20
0
 30
0
  0
INSERT
  8
LAYER_2
  2
AIGNBL0201001C
 10
0
 20
0
 30
0
  0
INSERT
  8
LAYER_2
  2
AIGNBL0201001D
 10
0
 20
0
 30
0
  0
INSERT
  8
LAYER_2
  2
AIGNBL0201001E
 10
0
 20
0
 30
0
  0
INSERT
  8
LAYER_2
  2
AIGNBL0201001F
 10
0
 20
0
 30
0
  0
INSERT
  8
LAYER_2
  2
AIGNBL02010020
 10
0
 20
0
 30
0
  0
INSERT
  8
LAYER_2
  2
AIGNBL02010021
 10
0
 20
0
 30
0
  0
INSERT
  8
LAYER_2
  2
AIGNBL02010022
 10
0
 20
0
 30
0
  0
INSERT
  8
LAYER_2
  2
AIGNBL02010023
 10
0
 20
0
 30
0
  0
INSERT
  8
LAYER_2
  2
AIGNBL02010024
 10
0
 20
0
 30
0
  0
INSERT
  8
LAYER_2
  2
AIGNBL02010025
 10
0
 20
0
 30
0
  0
INSERT
  8
LAYER_2
  2
AIGNBL02010026
 10
0
 20
0
 30
0
  0
INSERT
  8
LAYER_2
  2
AIGNBL02010027
 10
0
 20
0
 30
0
  0
INSERT
  8
LAYER_2
  2
AIGNBL02010028
 10
0
 20
0
 30
0
  0
INSERT
  8
LAYER_2
  2
AIGNBL02010029
 10
0
 20
0
 30
0
  0
INSERT
  8
LAYER_2
  2
AIGNBL0201002A
 10
0
 20
0
 30
0
  0
INSERT
  8
LAYER_2
  2
AIGNBL0201002B
 10
0
 20
0
 30
0
  0
INSERT
  8
LAYER_2
  2
AIGNBL0201002C
 10
0
 20
0
 30
0
  0
INSERT
  8
LAYER_2
  2
AIGNBL0201002D
 10
0
 20
0
 30
0
  0
INSERT
  8
LAYER_2
  2
AIGNBL0201002E
 10
0
 20
0
 30
0
  0
INSERT
  8
LAYER_2
  2
AIGNBL0201002F
 10
0
 20
0
 30
0
  0
INSERT
  8
LAYER_2
  2
AIGNBL02010030
 10
0
 20
0
 30
0
  0
INSERT
  8
LAYER_2
  2
AIGNBL02010031
 10
0
 20
0
 30
0
  0
INSERT
  8
LAYER_2
  2
AIGNBL02010032
 10
0
 20
0
 30
0
  0
INSERT
  8
LAYER_2
  2
AIGNBL02010033
 10
0
 20
0
 30
0
  0
INSERT
  8
LAYER_2
  2
AIGNBL02010034
 10
0
 20
0
 30
0
  0
INSERT
  8
LAYER_2
  2
AIGNBL02010035
 10
0
 20
0
 30
0
  0
INSERT
  8
LAYER_2
  2
AIGNBL02010036
 10
0
 20
0
 30
0
  0
INSERT
  8
LAYER_2
  2
AIGNBL02010037
 10
0
 20
0
 30
0
  0
INSERT
  8
LAYER_2
  2
AIGNBL02010038
 10
0
 20
0
 30
0
  0
INSERT
  8
LAYER_2
  2
AIGNBL02010039
 10
0
 20
0
 30
0
  0
INSERT
  8
LAYER_2
  2
AIGNBL0201003A
 10
0
 20
0
 30
0
  0
INSERT
  8
LAYER_2
  2
AIGNBL0201003B
 10
0
 20
0
 30
0
  0
INSERT
  8
LAYER_2
  2
AIGNBL0201003C
 10
0
 20
0
 30
0
  0
INSERT
  8
LAYER_2
  2
AIGNBL0201003D
 10
0
 20
0
 30
0
  0
INSERT
  8
LAYER_2
  2
AIGNBL0201003E
 10
0
 20
0
 30
0
  0
INSERT
  8
LAYER_2
  2
AIGNBL0201003F
 10
0
 20
0
 30
0
  0
INSERT
  8
LAYER_2
  2
AIGNBL02010040
 10
0
 20
0
 30
0
  0
INSERT
  8
LAYER_2
  2
AIGNBL02010041
 10
0
 20
0
 30
0
  0
INSERT
  8
LAYER_2
  2
AIGNBL02010042
 10
0
 20
0
 30
0
  0
INSERT
  8
LAYER_2
  2
AIGNBL02010043
 10
0
 20
0
 30
0
  0
INSERT
  8
LAYER_2
  2
AIGNBL02010044
 10
0
 20
0
 30
0
  0
INSERT
  8
LAYER_2
  2
AIGNBL02010045
 10
0
 20
0
 30
0
  0
INSERT
  8
LAYER_2
  2
AIGNBL02010046
 10
0
 20
0
 30
0
  0
INSERT
  8
LAYER_2
  2
AIGNBL02010047
 10
0
 20
0
 30
0
  0
INSERT
  8
LAYER_2
  2
AIGNBL02010048
 10
0
 20
0
 30
0
  0
INSERT
  8
LAYER_2
  2
AIGNBL02010049
 10
0
 20
0
 30
0
  0
INSERT
  8
LAYER_2
  2
AIGNBL0201004A
 10
0
 20
0
 30
0
  0
INSERT
  8
LAYER_2
  2
AIGNBL0201004B
 10
0
 20
0
 30
0
  0
INSERT
  8
LAYER_2
  2
AIGNBL0201004C
 10
0
 20
0
 30
0
  0
INSERT
  8
LAYER_2
  2
AIGNBL0201004D
 10
0
 20
0
 30
0
  0
INSERT
  8
LAYER_2
  2
AIGNBL0201004E
 10
0
 20
0
 30
0
  0
INSERT
  8
LAYER_2
  2
AIGNBL0201004F
 10
0
 20
0
 30
0
  0
INSERT
  8
LAYER_2
  2
AIGNBL02010050
 10
0
 20
0
 30
0
  0
INSERT
  8
LAYER_2
  2
AIGNBL02010051
 10
0
 20
0
 30
0
  0
INSERT
  8
LAYER_2
  2
AIGNBL02010052
 10
0
 20
0
 30
0
  0
INSERT
  8
LAYER_2
  2
AIGNBL02010053
 10
0
 20
0
 30
0
  0
INSERT
  8
LAYER_2
  2
AIGNBL02010054
 10
0
 20
0
 30
0
  0
INSERT
  8
LAYER_2
  2
AIGNBL02010055
 10
0
 20
0
 30
0
  0
INSERT
  8
LAYER_2
  2
AIGNBL02010056
 10
0
 20
0
 30
0
  0
INSERT
  8
LAYER_2
  2
AIGNBL02010057
 10
0
 20
0
 30
0
  0
INSERT
  8
LAYER_2
  2
AIGNBL02010058
 10
0
 20
0
 30
0
  0
INSERT
  8
LAYER_2
  2
AIGNBL02010059
 10
0
 20
0
 30
0
  0
INSERT
  8
LAYER_2
  2
AIGNBL0201005A
 10
0
 20
0
 30
0
  0
INSERT
  8
LAYER_2
  2
AIGNBL0201005B
 10
0
 20
0
 30
0
  0
INSERT
  8
LAYER_2
  2
AIGNBL0201005C
 10
0
 20
0
 30
0
  0
INSERT
  8
LAYER_2
  2
AIGNBL0201005D
 10
0
 20
0
 30
0
  0
INSERT
  8
LAYER_2
  2
AIGNBL0201005E
 10
0
 20
0
 30
0
  0
INSERT
  8
LAYER_2
  2
AIGNBL0201005F
 10
0
 20
0
 30
0
  0
INSERT
  8
LAYER_2
  2
AIGNBL02010060
 10
0
 20
0
 30
0
  0
INSERT
  8
LAYER_2
  2
AIGNBL02010061
 10
0
 20
0
 30
0
  0
INSERT
  8
LAYER_2
  2
AIGNBL02010062
 10
0
 20
0
 30
0
  0
INSERT
  8
LAYER_2
  2
AIGNBL02010063
 10
0
 20
0
 30
0
  0
INSERT
  8
LAYER_2
  2
AIGNBL02010064
 10
0
 20
0
 30
0
  0
INSERT
  8
LAYER_2
  2
AIGNBL02010065
 10
0
 20
0
 30
0
  0
INSERT
  8
LAYER_2
  2
AIGNBL02010066
 10
0
 20
0
 30
0
  0
INSERT
  8
LAYER_2
  2
AIGNBL02010067
 10
0
 20
0
 30
0
  0
INSERT
  8
LAYER_2
  2
AIGNBL02010068
 10
0
 20
0
 30
0
  0
INSERT
  8
LAYER_2
  2
AIGNBL02010069
 10
0
 20
0
 30
0
  0
INSERT
  8
LAYER_2
  2
AIGNBL0201006A
 10
0
 20
0
 30
0
  0
INSERT
  8
LAYER_2
  2
AIGNBL0201006B
 10
0
 20
0
 30
0
  0
INSERT
  8
LAYER_2
  2
AIGNBL0201006C
 10
0
 20
0
 30
0
  0
INSERT
  8
LAYER_2
  2
AIGNBL0201006D
 10
0
 20
0
 30
0
  0
INSERT
  8
LAYER_2
  2
AIGNBL0201006E
 10
0
 20
0
 30
0
  0
INSERT
  8
LAYER_2
  2
AIGNBL0201006F
 10
0
 20
0
 30
0
  0
INSERT
  8
LAYER_2
  2
AIGNBL02010070
 10
0
 20
0
 30
0
  0
INSERT
  8
LAYER_2
  2
AIGNBL02010071
 10
0
 20
0
 30
0
  0
INSERT
  8
LAYER_2
  2
AIGNBL02010072
 10
0
 20
0
 30
0
  0
INSERT
  8
LAYER_2
  2
AIGNBL02010073
 10
0
 20
0
 30
0
  0
INSERT
  8
LAYER_2
  2
AIGNBL02010074
 10
0
 20
0
 30
0
  0
INSERT
  8
LAYER_2
  2
AIGNBL02010075
 10
0
 20
0
 30
0
  0
INSERT
  8
LAYER_3
  2
AIGNBL03010002
 10
0
 20
0
 30
0
  0
INSERT
  8
LAYER_3
  2
AIGNBL03010003
 10
0
 20
0
 30
0
  0
INSERT
  8
LAYER_3
  2
AIGNBL03010004
 10
0
 20
0
 30
0
  0
INSERT
  8
LAYER_3
  2
AIGNBL03010005
 10
0
 20
0
 30
0
  0
INSERT
  8
LAYER_3
  2
AIGNBL03010006
 10
0
 20
0
 30
0
  0
INSERT
  8
LAYER_3
  2
AIGNBL03010007
 10
0
 20
0
 30
0
  0
INSERT
  8
LAYER_3
  2
AIGNBL03010008
 10
0
 20
0
 30
0
  0
INSERT
  8
LAYER_3
  2
AIGNBL03010009
 10
0
 20
0
 30
0
  0
INSERT
  8
LAYER_3
  2
AIGNBL0301000A
 10
0
 20
0
 30
0
  0
INSERT
  8
LAYER_3
  2
AIGNBL0301000B
 10
0
 20
0
 30
0
  0
INSERT
  8
LAYER_3
  2
AIGNBL0301000C
 10
0
 20
0
 30
0
  0
INSERT
  8
LAYER_3
  2
AIGNBL0301000D
 10
0
 20
0
 30
0
  0
INSERT
  8
LAYER_3
  2
AIGNBL0301000E
 10
0
 20
0
 30
0
  0
INSERT
  8
LAYER_3
  2
AIGNBL0301000F
 10
0
 20
0
 30
0
  0
INSERT
  8
LAYER_3
  2
AIGNBL03010010
 10
0
 20
0
 30
0
  0
INSERT
  8
LAYER_3
  2
AIGNBL03010011
 10
0
 20
0
 30
0
  0
INSERT
  8
LAYER_3
  2
AIGNBL03010012
 10
0
 20
0
 30
0
  0
INSERT
  8
LAYER_3
  2
AIGNBL03010013
 10
0
 20
0
 30
0
  0
INSERT
  8
LAYER_3
  2
AIGNBL03010014
 10
0
 20
0
 30
0
  0
INSERT
  8
LAYER_3
  2
AIGNBL03010015
 10
0
 20
0
 30
0
  0
INSERT
  8
LAYER_3
  2
AIGNBL03010016
 10
0
 20
0
 30
0
  0
INSERT
  8
LAYER_3
  2
AIGNBL03010017
 10
0
 20
0
 30
0
  0
INSERT
  8
LAYER_3
  2
AIGNBL03010018
 10
0
 20
0
 30
0
  0
INSERT
  8
LAYER_3
  2
AIGNBL03010019
 10
0
 20
0
 30
0
  0
INSERT
  8
LAYER_4
  2
AIGNBL04010002
 10
0
 20
0
 30
0
  0
INSERT
  8
LAYER_4
  2
AIGNBL04010003
 10
0
 20
0
 30
0
  0
INSERT
  8
LAYER_4
  2
AIGNBL04010004
 10
0
 20
0
 30
0
  0
INSERT
  8
LAYER_4
  2
AIGNBL04010005
 10
0
 20
0
 30
0
  0
INSERT
  8
LAYER_4
  2
AIGNBL04010006
 10
0
 20
0
 30
0
  0
INSERT
  8
LAYER_4
  2
AIGNBL04010007
 10
0
 20
0
 30
0
  0
INSERT
  8
LAYER_4
  2
AIGNBL04010008
 10
0
 20
0
 30
0
  0
INSERT
  8
LAYER_4
  2
AIGNBL04010009
 10
0
 20
0
 30
0
  0
INSERT
  8
LAYER_4
  2
AIGNBL0401000A
 10
0
 20
0
 30
0
  0
INSERT
  8
LAYER_4
  2
AIGNBL0401000B
 10
0
 20
0
 30
0
  0
INSERT
  8
LAYER_4
  2
AIGNBL0401000C
 10
0
 20
0
 30
0
  0
INSERT
  8
LAYER_4
  2
AIGNBL0401000D
 10
0
 20
0
 30
0
  0
INSERT
  8
LAYER_4
  2
AIGNBL0401000E
 10
0
 20
0
 30
0
  0
INSERT
  8
LAYER_4
  2
AIGNBL0401000F
 10
0
 20
0
 30
0
  0
INSERT
  8
LAYER_4
  2
AIGNBL04010010
 10
0
 20
0
 30
0
  0
INSERT
  8
LAYER_4
  2
AIGNBL04010011
 10
0
 20
0
 30
0
  0
INSERT
  8
LAYER_4
  2
AIGNBL04010012
 10
0
 20
0
 30
0
  0
INSERT
  8
LAYER_4
  2
AIGNBL04010013
 10
0
 20
0
 30
0
  0
INSERT
  8
LAYER_4
  2
AIGNBL04010014
 10
0
 20
0
 30
0
  0
INSERT
  8
LAYER_4
  2
AIGNBL04010015
 10
0
 20
0
 30
0
  0
INSERT
  8
LAYER_4
  2
AIGNBL04010016
 10
0
 20
0
 30
0
  0
INSERT
  8
LAYER_4
  2
AIGNBL04010017
 10
0
 20
0
 30
0
  0
INSERT
  8
LAYER_4
  2
AIGNBL04010018
 10
0
 20
0
 30
0
  0
INSERT
  8
LAYER_4
  2
AIGNBL04010019
 10
0
 20
0
 30
0
  0
INSERT
  8
LAYER_4
  2
AIGNBL0401001A
 10
0
 20
0
 30
0
  0
INSERT
  8
LAYER_4
  2
AIGNBL0401001B
 10
0
 20
0
 30
0
  0
INSERT
  8
LAYER_4
  2
AIGNBL0401001C
 10
0
 20
0
 30
0
  0
INSERT
  8
LAYER_4
  2
AIGNBL0401001D
 10
0
 20
0
 30
0
  0
INSERT
  8
LAYER_4
  2
AIGNBL0401001E
 10
0
 20
0
 30
0
  0
INSERT
  8
LAYER_4
  2
AIGNBL0401001F
 10
0
 20
0
 30
0
  0
INSERT
  8
LAYER_4
  2
AIGNBL04010020
 10
0
 20
0
 30
0
  0
INSERT
  8
LAYER_4
  2
AIGNBL04010021
 10
0
 20
0
 30
0
  0
INSERT
  8
LAYER_4
  2
AIGNBL04010022
 10
0
 20
0
 30
0
  0
INSERT
  8
LAYER_4
  2
AIGNBL04010023
 10
0
 20
0
 30
0
  0
INSERT
  8
LAYER_4
  2
AIGNBL04010024
 10
0
 20
0
 30
0
  0
INSERT
  8
LAYER_4
  2
AIGNBL04010025
 10
0
 20
0
 30
0
  0
INSERT
  8
LAYER_4
  2
AIGNBL04010026
 10
0
 20
0
 30
0
  0
INSERT
  8
LAYER_4
  2
AIGNBL04010027
 10
0
 20
0
 30
0
  0
INSERT
  8
LAYER_4
  2
AIGNBL04010028
 10
0
 20
0
 30
0
  0
INSERT
  8
LAYER_4
  2
AIGNBL04010029
 10
0
 20
0
 30
0
  0
INSERT
  8
LAYER_4
  2
AIGNBL0401002A
 10
0
 20
0
 30
0
  0
INSERT
  8
LAYER_4
  2
AIGNBL0401002B
 10
0
 20
0
 30
0
  0
INSERT
  8
LAYER_4
  2
AIGNBL0401002C
 10
0
 20
0
 30
0
  0
INSERT
  8
LAYER_4
  2
AIGNBL0401002D
 10
0
 20
0
 30
0
  0
INSERT
  8
LAYER_4
  2
AIGNBL0401002E
 10
0
 20
0
 30
0
  0
INSERT
  8
LAYER_4
  2
AIGNBL0401002F
 10
0
 20
0
 30
0
  0
INSERT
  8
LAYER_4
  2
AIGNBL04010030
 10
0
 20
0
 30
0
  0
INSERT
  8
LAYER_4
  2
AIGNBL04010031
 10
0
 20
0
 30
0
  0
INSERT
  8
LAYER_4
  2
AIGNBL04010032
 10
0
 20
0
 30
0
  0
INSERT
  8
LAYER_4
  2
AIGNBL04010033
 10
0
 20
0
 30
0
  0
INSERT
  8
LAYER_4
  2
AIGNBL04010034
 10
0
 20
0
 30
0
  0
INSERT
  8
LAYER_4
  2
AIGNBL04010035
 10
0
 20
0
 30
0
  0
INSERT
  8
LAYER_4
  2
AIGNBL04010036
 10
0
 20
0
 30
0
  0
INSERT
  8
LAYER_4
  2
AIGNBL04010037
 10
0
 20
0
 30
0
  0
INSERT
  8
LAYER_4
  2
AIGNBL04010038
 10
0
 20
0
 30
0
  0
INSERT
  8
LAYER_4
  2
AIGNBL04010039
 10
0
 20
0
 30
0
  0
INSERT
  8
LAYER_4
  2
AIGNBL0401003A
 10
0
 20
0
 30
0
  0
ENDSEC
  0
EOF
