  0
SECTION
  2
HEADER
  9
$ACADVER
  1
AC1009
  9
$LUNITS
 70
2
  9
$LUPREC
 70
4
  9
$LTSCALE
 40
1.0
  9
$EXTMIN
 10
192.2192
 20
-66.6014
 30
0
  9
$EXTMAX
 10
469.2192
 20
123.3986
 30
0
  0
ENDSEC
  0
SECTION
  2
TABLES
  0
TABLE
  2
LTYPE
 70
256
  0
ENDTAB
  0
TABLE
  2
LAYER
 70
4
  0
LAYER
  2
LAYER_1
 70
64
 62
7
  6
CONTINUOUS
  0
LAYER
  2
LAYER_2
 70
64
 62
7
  6
CONTINUOUS
  0
LAYER
  2
LAYER_3
 70
64
 62
7
  6
CONTINUOUS
  0
LAYER
  2
LAYER_4
 70
64
 62
7
  6
CONTINUOUS
  0
ENDTAB
  0
TABLE
  2
STYLE
 70
6
  0
STYLE
  2
STANDARD
 70
0
 40
0
 50
0
 71
0
 41
0
 42
0
  3
TXT
  4
BIGFONT
  0
ENDTAB
  0
ENDSEC
  0
SECTION
  2
BLOCKS
  0
BLOCK
  8
LAYER_1
  2
AIGNBL01020004
 70
64
 10
0
 20
0
 30
0
  3
AIGNBL01020004
  0
LINE
  8
LAYER_1
 10
351.634
 20
-18.6711
 11
351.634
 21
-24.6285
  0
LINE
  8
LAYER_1
 10
351.634
 20
-24.6285
 11
352.6587
 21
-24.6285
  0
LINE
  8
LAYER_1
 10
352.6587
 20
-24.6285
 11
352.6587
 21
-24.1826
  0
LINE
  8
LAYER_1
 10
352.6587
 20
-24.1826
 11
355.3363
 21
-24.1826
  0
LINE
  8
LAYER_1
 10
355.3363
 20
-24.1826
 11
355.3363
 21
-24.6285
  0
LINE
  8
LAYER_1
 10
355.3363
 20
-24.6285
 11
356.4088
 21
-24.6285
  0
LINE
  8
LAYER_1
 10
356.4088
 20
-24.6285
 11
356.4088
 21
-18.6711
  0
LINE
  8
LAYER_1
 10
356.4088
 20
-18.6711
 11
351.634
 21
-18.6711
  0
LINE
  8
LAYER_1
 10
355.3363
 20
-23.1898
 11
352.6586
 21
-23.1898
  0
LINE
  8
LAYER_1
 10
352.6586
 20
-23.1898
 11
352.6586
 21
-21.8997
  0
LINE
  8
LAYER_1
 10
352.6586
 20
-21.8997
 11
355.3363
 21
-21.8997
  0
LINE
  8
LAYER_1
 10
355.3363
 20
-21.8997
 11
355.3363
 21
-23.1898
  0
LINE
  8
LAYER_1
 10
355.3363
 20
-20.9271
 11
352.6586
 21
-20.9271
  0
LINE
  8
LAYER_1
 10
352.6586
 20
-20.9271
 11
352.6586
 21
-19.6639
  0
LINE
  8
LAYER_1
 10
352.6586
 20
-19.6639
 11
355.3363
 21
-19.6639
  0
LINE
  8
LAYER_1
 10
355.3363
 20
-19.6639
 11
355.3363
 21
-20.9271
  0
ENDBLK
  0
BLOCK
  8
LAYER_1
  2
AIGNBL01020005
 70
64
 10
0
 20
0
 30
0
  3
AIGNBL01020005
  0
LINE
  8
LAYER_1
 10
361.1681
 20
-20.6459
 11
363.008
 21
-20.6459
  0
LINE
  8
LAYER_1
 10
363.008
 20
-20.6459
 11
363.008
 21
-19.7228
  0
LINE
  8
LAYER_1
 10
363.008
 20
-19.7228
 11
360.6276
 21
-19.7228
  0
LINE
  8
LAYER_1
 10
360.6276
 20
-19.7228
 11
360.6276
 21
-18.5117
  0
LINE
  8
LAYER_1
 10
360.6276
 20
-18.5117
 11
359.6812
 21
-18.5117
  0
LINE
  8
LAYER_1
 10
359.6812
 20
-18.5117
 11
359.6812
 21
-19.7228
  0
LINE
  8
LAYER_1
 10
359.6812
 20
-19.7228
 11
357.3157
 21
-19.7228
  0
LINE
  8
LAYER_1
 10
357.3157
 20
-19.7228
 11
357.3157
 21
-20.6459
  0
LINE
  8
LAYER_1
 10
357.3157
 20
-20.6459
 11
359.1556
 21
-20.6459
  0
ARC
  8
LAYER_1
 10
352.8276
 20
-17.2979
 40
7.1591
 50
320.0917859
 51
332.1180421
  0
ARC
  8
LAYER_1
 10
354.1944
 20
-18.4775
 40
5.354
 50
306.7907036
 51
320.3902793
  0
ARC
  8
LAYER_1
 10
355.3363
 20
-19.9182
 40
3.5167
 50
299.7830223
 51
305.9495886
  0
ARC
  8
LAYER_1
 10
357.3366
 20
-22.9301
 40
0.2567
 50
189.041004
 51
222.7124317
  0
ARC
  8
LAYER_1
 10
349.1542
 20
-31.1842
 40
11.3661
 50
41.86910415
 51
45.30722701
  0
ARC
  8
LAYER_1
 10
356.4547
 20
-24.3706
 40
1.3966
 50
27.03066843
 51
33.5811519
  0
ARC
  8
LAYER_1
 10
357.1788
 20
-22.7326
 40
1.13
 50
297.394358
 51
310.3971421
  0
ARC
  8
LAYER_1
 10
353.9902
 20
-18.4282
 40
6.4846
 50
307.2029948
 51
316.160652
  0
LINE
  8
LAYER_1
 10
358.6675
 20
-22.9197
 11
358.6675
 21
-23.6346
  0
LINE
  8
LAYER_1
 10
358.6675
 20
-23.6346
 11
359.6812
 21
-23.6346
  0
LINE
  8
LAYER_1
 10
359.6812
 20
-23.6346
 11
359.6812
 21
-24.6759
  0
LINE
  8
LAYER_1
 10
359.6812
 20
-24.6759
 11
360.6276
 21
-24.6759
  0
LINE
  8
LAYER_1
 10
360.6276
 20
-24.6759
 11
360.6276
 21
-23.6346
  0
LINE
  8
LAYER_1
 10
360.6276
 20
-23.6346
 11
361.6037
 21
-23.6346
  0
LINE
  8
LAYER_1
 10
361.6037
 20
-23.6346
 11
361.6037
 21
-22.841
  0
ARC
  8
LAYER_1
 10
367.4661
 20
-17.4087
 40
7.9923
 50
222.8194562
 51
229.3954874
  0
ARC
  8
LAYER_1
 10
363.3101
 20
-22.3212
 40
1.5583
 50
227.8544941
 51
243.3097661
  0
ARC
  8
LAYER_1
 10
365.3024
 20
-25.2751
 40
3.1124
 50
130.023252
 51
149.8845162
  0
ARC
  8
LAYER_1
 10
366.6789
 20
-17.3801
 40
6.4644
 50
224.4780119
 51
238.495716
  0
ARC
  8
LAYER_1
 10
366.2221
 20
-18.0281
 40
5.6863
 50
209.4870909
 51
223.04385
  0
ARC
  8
LAYER_1
 10
368.6669
 20
-16.4506
 40
8.5926
 50
209.2256363
 51
210.6193192
  0
LINE
  8
LAYER_1
 10
359.6812
 20
-22.7172
 11
358.8476
 21
-22.7172
  0
ARC
  8
LAYER_1
 10
349.8686
 20
-15.6118
 40
11.4502
 50
321.6442745
 51
327.3776932
  0
ARC
  8
LAYER_1
 10
358.7097
 20
-21.1904
 40
0.9988
 50
323.4874232
 51
346.5604038
  0
LINE
  8
LAYER_1
 10
359.6812
 20
-21.4225
 11
359.6812
 21
-22.7172
  0
LINE
  8
LAYER_1
 10
360.6276
 20
-22.7172
 11
360.6201
 21
-21.417
  0
ARC
  8
LAYER_1
 10
362.6431
 20
-20.5799
 40
2.1894
 50
202.4797564
 51
213.37689
  0
ARC
  8
LAYER_1
 10
369.8308
 20
-15.9598
 40
10.7338
 50
212.8634514
 51
219.016696
  0
LINE
  8
LAYER_1
 10
361.4911
 20
-22.7172
 11
360.6276
 21
-22.7172
  0
ENDBLK
  0
BLOCK
  8
LAYER_1
  2
AIGNBL01020006
 70
64
 10
0
 20
0
 30
0
  3
AIGNBL01020006
  0
LINE
  8
LAYER_1
 10
364.353
 20
-22.0385
 11
364.353
 21
-24.6934
  0
LINE
  8
LAYER_1
 10
364.353
 20
-24.6934
 11
365.251
 21
-24.6934
  0
LINE
  8
LAYER_1
 10
365.251
 20
-24.6934
 11
365.251
 21
-24.5104
  0
LINE
  8
LAYER_1
 10
365.251
 20
-24.5104
 11
367.9774
 21
-24.5104
  0
LINE
  8
LAYER_1
 10
367.9774
 20
-24.5104
 11
367.9774
 21
-24.6413
  0
LINE
  8
LAYER_1
 10
367.9774
 20
-24.6413
 11
368.9207
 21
-24.6413
  0
LINE
  8
LAYER_1
 10
368.9207
 20
-24.6413
 11
368.9207
 21
-22.0385
  0
LINE
  8
LAYER_1
 10
368.9207
 20
-22.0385
 11
364.353
 21
-22.0385
  0
LINE
  8
LAYER_1
 10
365.251
 20
-22.5754
 11
366.1491
 21
-22.5754
  0
LINE
  8
LAYER_1
 10
366.1491
 20
-22.5754
 11
366.1491
 21
-23.001
  0
LINE
  8
LAYER_1
 10
366.1491
 20
-23.001
 11
365.251
 21
-23.001
  0
LINE
  8
LAYER_1
 10
365.251
 20
-23.001
 11
365.251
 21
-22.5754
  0
LINE
  8
LAYER_1
 10
366.1554
 20
-23.9658
 11
365.2445
 21
-23.9658
  0
LINE
  8
LAYER_1
 10
365.2445
 20
-23.9658
 11
365.2445
 21
-23.5598
  0
LINE
  8
LAYER_1
 10
365.2445
 20
-23.5598
 11
366.1554
 21
-23.5598
  0
LINE
  8
LAYER_1
 10
366.1554
 20
-23.5598
 11
366.1554
 21
-23.9658
  0
LINE
  8
LAYER_1
 10
367.9774
 20
-23.9658
 11
367.0666
 21
-23.9658
  0
LINE
  8
LAYER_1
 10
367.0666
 20
-23.9658
 11
367.0666
 21
-23.5598
  0
LINE
  8
LAYER_1
 10
367.0666
 20
-23.5598
 11
367.9774
 21
-23.5598
  0
LINE
  8
LAYER_1
 10
367.9774
 20
-23.5598
 11
367.9774
 21
-23.9658
  0
LINE
  8
LAYER_1
 10
367.9774
 20
-22.9838
 11
367.0666
 21
-22.9838
  0
LINE
  8
LAYER_1
 10
367.0666
 20
-22.9838
 11
367.0666
 21
-22.5778
  0
LINE
  8
LAYER_1
 10
367.0666
 20
-22.5778
 11
367.9774
 21
-22.5778
  0
LINE
  8
LAYER_1
 10
367.9774
 20
-22.5778
 11
367.9774
 21
-22.9838
  0
ENDBLK
  0
BLOCK
  8
LAYER_1
  2
AIGNBL01020007
 70
64
 10
0
 20
0
 30
0
  3
AIGNBL01020007
  0
LINE
  8
LAYER_1
 10
372.7452
 20
-19.4621
 11
372.7452
 21
-18.6054
  0
LINE
  8
LAYER_1
 10
372.7452
 20
-18.6054
 11
370.0962
 21
-18.6054
  0
LINE
  8
LAYER_1
 10
370.0962
 20
-18.6054
 11
370.0962
 21
-19.4621
  0
LINE
  8
LAYER_1
 10
370.0962
 20
-19.4621
 11
370.7877
 21
-19.4621
  0
ARC
  8
LAYER_1
 10
356.4551
 20
-17.2525
 40
14.5019
 50
345.1349411
 51
351.2357341
  0
ARC
  8
LAYER_1
 10
366.802
 20
-20.0262
 40
3.7898
 50
328.8608594
 51
345.5353604
  0
ARC
  8
LAYER_1
 10
368.4031
 20
-20.8719
 40
1.9848
 50
321.3923211
 51
325.8550342
  0
ARC
  8
LAYER_1
 10
368.3485
 20
-23.4939
 40
2.1195
 50
13.84391695
 51
40.75156376
  0
LINE
  8
LAYER_1
 10
370.4064
 20
-22.9868
 11
370.5615
 21
-22.7841
  0
LINE
  8
LAYER_1
 10
370.5615
 20
-22.7841
 11
370.5615
 21
-24.2749
  0
LINE
  8
LAYER_1
 10
370.5615
 20
-24.2749
 11
371.369
 21
-24.2749
  0
LINE
  8
LAYER_1
 10
371.369
 20
-24.2749
 11
371.369
 21
-23.8042
  0
LINE
  8
LAYER_1
 10
371.369
 20
-23.8042
 11
372.6033
 21
-23.8042
  0
LINE
  8
LAYER_1
 10
372.6033
 20
-23.8042
 11
372.6033
 21
-20.6849
  0
LINE
  8
LAYER_1
 10
372.6033
 20
-20.6849
 11
371.4401
 21
-20.6849
  0
ARC
  8
LAYER_1
 10
363.6739
 20
-18.489
 40
8.0707
 50
344.211629
 51
353.0748089
  0
LINE
  8
LAYER_1
 10
371.6857
 20
-19.4621
 11
372.7452
 21
-19.4621
  0
LINE
  8
LAYER_1
 10
371.7762
 20
-22.9803
 11
371.369
 21
-22.9803
  0
LINE
  8
LAYER_1
 10
371.369
 20
-22.9803
 11
371.369
 21
-21.5088
  0
LINE
  8
LAYER_1
 10
371.369
 20
-21.5088
 11
371.7762
 21
-21.5088
  0
LINE
  8
LAYER_1
 10
371.7762
 20
-21.5088
 11
371.7762
 21
-22.9803
  0
ENDBLK
  0
BLOCK
  8
LAYER_1
  2
AIGNBL01020008
 70
64
 10
0
 20
0
 30
0
  3
AIGNBL01020008
  0
LINE
  8
LAYER_1
 10
375.5575
 20
-21.051
 11
375.5575
 21
-19.4816
  0
LINE
  8
LAYER_1
 10
375.5575
 20
-19.4816
 11
376.0616
 21
-19.4816
  0
LINE
  8
LAYER_1
 10
376.0616
 20
-19.4816
 11
376.0616
 21
-18.6054
  0
LINE
  8
LAYER_1
 10
376.0616
 20
-18.6054
 11
372.8633
 21
-18.6054
  0
LINE
  8
LAYER_1
 10
372.8633
 20
-18.6054
 11
372.8633
 21
-19.4816
  0
LINE
  8
LAYER_1
 10
372.8633
 20
-19.4816
 11
373.2962
 21
-19.4816
  0
LINE
  8
LAYER_1
 10
373.2962
 20
-19.4816
 11
373.2962
 21
-21.051
  0
LINE
  8
LAYER_1
 10
373.2962
 20
-21.051
 11
372.7018
 21
-21.051
  0
LINE
  8
LAYER_1
 10
372.7018
 20
-21.051
 11
372.7018
 21
-21.947
  0
LINE
  8
LAYER_1
 10
372.7018
 20
-21.947
 11
373.2703
 21
-21.947
  0
ARC
  8
LAYER_1
 10
370.4907
 20
-21.8995
 40
2.78
 50
338.6739026
 51
359.020829
  0
ARC
  8
LAYER_1
 10
370.2143
 20
-21.8418
 40
3.0588
 50
321.0666271
 51
339.5496315
  0
ARC
  8
LAYER_1
 10
370.4444
 20
-22.0084
 40
2.7752
 50
312.3585522
 51
320.7581845
  0
ARC
  8
LAYER_1
 10
369.8947
 20
-28.2056
 40
4.8008
 50
49.00077315
 51
59.73701801
  0
ARC
  8
LAYER_1
 10
371.6019
 20
-22.7805
 40
2.3081
 50
308.6774859
 51
331.7345597
  0
ARC
  8
LAYER_1
 10
370.3082
 20
-22.0282
 40
3.8042
 50
330.9812449
 51
347.5175671
  0
ARC
  8
LAYER_1
 10
369.0208
 20
-21.651
 40
5.1434
 50
346.5148777
 51
356.7006512
  0
LINE
  8
LAYER_1
 10
374.1557
 20
-21.947
 11
374.666
 21
-21.947
  0
LINE
  8
LAYER_1
 10
374.666
 20
-21.947
 11
374.666
 21
-24.5628
  0
LINE
  8
LAYER_1
 10
374.666
 20
-24.5628
 11
375.5575
 21
-24.5628
  0
LINE
  8
LAYER_1
 10
375.5575
 20
-24.5628
 11
375.5575
 21
-21.947
  0
LINE
  8
LAYER_1
 10
375.5575
 20
-21.947
 11
376.1391
 21
-21.947
  0
LINE
  8
LAYER_1
 10
376.1391
 20
-21.947
 11
376.1391
 21
-21.051
  0
LINE
  8
LAYER_1
 10
376.1391
 20
-21.051
 11
375.5575
 21
-21.051
  0
LINE
  8
LAYER_1
 10
374.666
 20
-21.051
 11
374.175
 21
-21.051
  0
LINE
  8
LAYER_1
 10
374.175
 20
-21.051
 11
374.175
 21
-19.4816
  0
LINE
  8
LAYER_1
 10
374.175
 20
-19.4816
 11
374.666
 21
-19.4816
  0
LINE
  8
LAYER_1
 10
374.666
 20
-19.4816
 11
374.666
 21
-21.051
  0
ENDBLK
  0
BLOCK
  8
LAYER_1
  2
AIGNBL01020009
 70
64
 10
0
 20
0
 30
0
  3
AIGNBL01020009
  0
ARC
  8
LAYER_1
 10
348.7477
 20
-19.6909
 40
1.9543
 50
288.5797233
 51
313.5605526
  0
ARC
  8
LAYER_1
 10
349.2658
 20
-20.3305
 40
1.1357
 50
316.8592502
 51
347.2169924
  0
ARC
  8
LAYER_1
 10
348.4324
 20
-20.1279
 40
1.9933
 50
346.8357246
 51
1.013818946
  0
ARC
  8
LAYER_1
 10
349.1667
 20
-20.0958
 40
1.2587
 50
0.1437428936
 51
45.46620489
  0
ARC
  8
LAYER_1
 10
348.6376
 20
-20.5947
 40
1.9857
 50
44.68101911
 51
67.71603928
  0
ARC
  8
LAYER_1
 10
348.3757
 20
-21.0773
 40
2.5322
 50
66.37312008
 51
86.05362229
  0
ARC
  8
LAYER_1
 10
348.4798
 20
-20.2861
 40
1.7364
 50
87.68404332
 51
89.78894779
  0
LINE
  8
LAYER_1
 10
348.4862
 20
-18.5497
 11
345.5153
 21
-18.5497
  0
LINE
  8
LAYER_1
 10
345.5153
 20
-18.5497
 11
345.5153
 21
-21.8112
  0
LINE
  8
LAYER_1
 10
345.5153
 20
-21.8112
 11
347.2783
 21
-21.8112
  0
ARC
  8
LAYER_1
 10
347.3042
 20
-23.4491
 40
1.6382
 50
64.35464453
 51
90.90591812
  0
ARC
  8
LAYER_1
 10
347.505
 20
-22.9498
 40
1.1016
 50
16.86208198
 51
62.52674647
  0
ARC
  8
LAYER_1
 10
347.6845
 20
-22.8808
 40
0.91
 50
0.3653414868
 51
15.98543397
  0
LINE
  8
LAYER_1
 10
348.5944
 20
-22.875
 11
348.5944
 21
-24.6076
  0
LINE
  8
LAYER_1
 10
348.5944
 20
-24.6076
 11
350.1389
 21
-24.6076
  0
LINE
  8
LAYER_1
 10
350.1389
 20
-24.6076
 11
350.1389
 21
-22.7788
  0
ARC
  8
LAYER_1
 10
348.0901
 20
-22.7357
 40
2.0493
 50
358.7952707
 51
12.52382505
  0
ARC
  8
LAYER_1
 10
349.1418
 20
-22.4969
 40
0.9708
 50
12.22608926
 51
45.01685242
  0
ARC
  8
LAYER_1
 10
348.9638
 20
-22.7666
 40
1.289
 50
47.8965793
 51
71.61411127
  0
LINE
  8
LAYER_1
 10
348.296
 20
-20.7595
 11
347.0579
 21
-20.7595
  0
LINE
  8
LAYER_1
 10
347.0579
 20
-20.7595
 11
347.0579
 21
-19.6056
  0
LINE
  8
LAYER_1
 10
347.0579
 20
-19.6056
 11
347.094
 21
-19.6056
  0
LINE
  8
LAYER_1
 10
347.094
 20
-19.6056
 11
348.328
 21
-19.6056
  0
ARC
  8
LAYER_1
 10
348.2872
 20
-20.2689
 40
0.6645
 50
46.60866758
 51
86.48378525
  0
ARC
  8
LAYER_1
 10
348.3533
 20
-20.1538
 40
0.5364
 50
356.9381223
 51
43.29359479
  0
ARC
  8
LAYER_1
 10
348.3437
 20
-20.1812
 40
0.5453
 50
290.0148134
 51
359.8586292
  0
ARC
  8
LAYER_1
 10
348.1673
 20
-19.8538
 40
0.9148
 50
278.085377
 51
293.3808036
  0
ENDBLK
  0
BLOCK
  8
LAYER_1
  2
AIGNBL0102000B
 70
64
 10
0
 20
0
 30
0
  3
AIGNBL0102000B
  0
LINE
  8
LAYER_1
 10
411.3663
 20
-23.7788
 11
411.3663
 21
-20.805
  0
LINE
  8
LAYER_1
 10
411.3663
 20
-20.805
 11
411.6775
 21
-20.805
  0
LINE
  8
LAYER_1
 10
411.6775
 20
-20.805
 11
411.6775
 21
-24.2983
  0
LINE
  8
LAYER_1
 10
411.6775
 20
-24.2983
 11
411.3442
 21
-24.2983
  0
LINE
  8
LAYER_1
 10
411.3442
 20
-24.2983
 11
409.3676
 21
-21.1812
  0
LINE
  8
LAYER_1
 10
409.3676
 20
-21.1812
 11
409.3676
 21
-24.2983
  0
LINE
  8
LAYER_1
 10
409.3676
 20
-24.2983
 11
409.0568
 21
-24.2983
  0
LINE
  8
LAYER_1
 10
409.0568
 20
-24.2983
 11
409.0568
 21
-20.805
  0
LINE
  8
LAYER_1
 10
409.0568
 20
-20.805
 11
409.4564
 21
-20.805
  0
LINE
  8
LAYER_1
 10
409.4564
 20
-20.805
 11
411.3663
 21
-23.7788
  0
ENDBLK
  0
BLOCK
  8
LAYER_1
  2
AIGNBL0102000C
 70
64
 10
0
 20
0
 30
0
  3
AIGNBL0102000C
  0
LINE
  8
LAYER_1
 10
412.7213
 20
-21.1812
 11
412.3662
 21
-21.1812
  0
LINE
  8
LAYER_1
 10
412.3662
 20
-21.1812
 11
412.3662
 21
-20.805
  0
LINE
  8
LAYER_1
 10
412.3662
 20
-20.805
 11
412.7213
 21
-20.805
  0
LINE
  8
LAYER_1
 10
412.7213
 20
-20.805
 11
412.7213
 21
-21.1812
  0
LINE
  8
LAYER_1
 10
412.6992
 20
-24.2983
 11
412.3883
 21
-24.2983
  0
LINE
  8
LAYER_1
 10
412.3883
 20
-24.2983
 11
412.3883
 21
-21.844
  0
LINE
  8
LAYER_1
 10
412.3883
 20
-21.844
 11
412.6992
 21
-21.844
  0
LINE
  8
LAYER_1
 10
412.6992
 20
-21.844
 11
412.6992
 21
-24.2983
  0
ENDBLK
  0
BLOCK
  8
LAYER_1
  2
AIGNBL0102000D
 70
64
 10
0
 20
0
 30
0
  3
AIGNBL0102000D
  0
LINE
  8
LAYER_1
 10
413.7208
 20
-24.2983
 11
413.41
 21
-24.2983
  0
LINE
  8
LAYER_1
 10
413.41
 20
-24.2983
 11
413.41
 21
-20.805
  0
LINE
  8
LAYER_1
 10
413.41
 20
-20.805
 11
413.7208
 21
-20.805
  0
LINE
  8
LAYER_1
 10
413.7208
 20
-20.805
 11
413.7208
 21
-22.3456
  0
ARC
  8
LAYER_1
 10
414.7412
 20
-22.97
 40
1.1963
 50
129.0581564
 51
148.535367
  0
ARC
  8
LAYER_1
 10
414.5474
 20
-22.7443
 40
0.8989
 50
91.66149666
 51
128.5326562
  0
ARC
  8
LAYER_1
 10
414.5843
 20
-22.9836
 40
1.1396
 50
89.86220225
 51
93.16479917
  0
ARC
  8
LAYER_1
 10
414.6225
 20
-22.7572
 40
0.9138
 50
55.35965389
 51
92.22938038
  0
ARC
  8
LAYER_1
 10
414.6893
 20
-22.5364
 40
0.6979
 50
7.406258716
 51
49.55637664
  0
ARC
  8
LAYER_1
 10
413.7768
 20
-22.7443
 40
1.632
 50
359.5284552
 51
10.51345892
  0
LINE
  8
LAYER_1
 10
415.4087
 20
-22.7577
 11
415.4087
 21
-24.2983
  0
LINE
  8
LAYER_1
 10
415.4087
 20
-24.2983
 11
415.0978
 21
-24.2983
  0
LINE
  8
LAYER_1
 10
415.0978
 20
-24.2983
 11
415.0978
 21
-22.7935
  0
ARC
  8
LAYER_1
 10
413.963
 20
-22.7535
 40
1.1355
 50
357.9833119
 51
16.97464203
  0
ARC
  8
LAYER_1
 10
414.6328
 20
-22.546
 40
0.4343
 50
16.58473378
 51
48.59958143
  0
ARC
  8
LAYER_1
 10
414.5491
 20
-22.7027
 40
0.6086
 50
52.45081808
 51
92.70402631
  0
ARC
  8
LAYER_1
 10
414.5207
 20
-22.788
 40
0.6932
 50
90.02872182
 51
129.8856998
  0
ARC
  8
LAYER_1
 10
414.6533
 20
-22.9936
 40
0.9364
 50
128.0438965
 51
164.2242718
  0
ARC
  8
LAYER_1
 10
414.7089
 20
-22.9859
 40
0.9881
 50
165.531143
 51
180.2736079
  0
LINE
  8
LAYER_1
 10
413.7208
 20
-22.9906
 11
413.7208
 21
-24.2983
  0
ENDBLK
  0
BLOCK
  8
LAYER_1
  2
AIGNBL0102000E
 70
64
 10
0
 20
0
 30
0
  3
AIGNBL0102000E
  0
ARC
  8
LAYER_1
 10
417.2335
 20
-23.0299
 40
1.1859
 50
50.66150285
 51
90.17219299
  0
ARC
  8
LAYER_1
 10
417.3775
 20
-22.8549
 40
0.9592
 50
14.76585385
 51
50.68641275
  0
ARC
  8
LAYER_1
 10
416.7659
 20
-23.0364
 40
1.597
 50
359.0757295
 51
15.47348178
  0
ARC
  8
LAYER_1
 10
416.8742
 20
-23.1002
 40
1.489
 50
332.9248548
 51
1.463570552
  0
ARC
  8
LAYER_1
 10
417.4165
 20
-23.3266
 40
0.9042
 50
308.9730079
 51
330.0558863
  0
ARC
  8
LAYER_1
 10
417.2308
 20
-23.1049
 40
1.1934
 50
269.9580643
 51
309.2082399
  0
ARC
  8
LAYER_1
 10
417.2261
 20
-23.114
 40
1.1843
 50
230.6338742
 51
270.1854435
  0
ARC
  8
LAYER_1
 10
417.0754
 20
-23.2952
 40
0.9487
 50
194.5571008
 51
230.7288295
  0
ARC
  8
LAYER_1
 10
417.7577
 20
-23.0912
 40
1.6605
 50
179.000404
 51
195.4530529
  0
ARC
  8
LAYER_1
 10
417.5317
 20
-23.0262
 40
1.4347
 50
152.4410049
 51
181.436924
  0
ARC
  8
LAYER_1
 10
417.0482
 20
-22.8242
 40
0.9137
 50
128.860566
 51
149.6458489
  0
ARC
  8
LAYER_1
 10
417.2288
 20
-23.0359
 40
1.1919
 50
89.94611367
 51
129.2345685
  0
ARC
  8
LAYER_1
 10
417.2001
 20
-22.8659
 40
0.7489
 50
129.9690508
 51
170.50432
  0
ARC
  8
LAYER_1
 10
417.9519
 20
-23.0488
 40
1.5216
 50
168.3814377
 51
180.5052229
  0
ARC
  8
LAYER_1
 10
417.6422
 20
-23.1071
 40
1.2127
 50
177.8785198
 51
209.7588518
  0
ARC
  8
LAYER_1
 10
417.1246
 20
-23.3485
 40
0.6453
 50
213.9659461
 51
231.0581026
  0
ARC
  8
LAYER_1
 10
417.2229
 20
-23.2317
 40
0.7979
 50
230.8389638
 51
270.5040327
  0
ARC
  8
LAYER_1
 10
417.2354
 20
-23.2277
 40
0.8019
 50
269.6052449
 51
309.0587652
  0
ARC
  8
LAYER_1
 10
417.2578
 20
-23.2775
 40
0.7493
 50
310.1261004
 51
351.2041251
  0
ARC
  8
LAYER_1
 10
416.4244
 20
-23.0772
 40
1.6051
 50
348.6865185
 51
0.5343953487
  0
ARC
  8
LAYER_1
 10
416.868
 20
-23.0205
 40
1.1621
 50
357.9422659
 51
30.40728733
  0
ARC
  8
LAYER_1
 10
417.3249
 20
-22.8058
 40
0.661
 50
34.40395552
 51
51.02323355
  0
ARC
  8
LAYER_1
 10
417.2356
 20
-22.9142
 40
0.8015
 50
50.93185275
 51
90.40413715
  0
ARC
  8
LAYER_1
 10
417.2248
 20
-22.9159
 40
0.8033
 50
89.63368354
 51
129.02332
  0
ENDBLK
  0
BLOCK
  8
LAYER_1
  2
AIGNBL0102000F
 70
64
 10
0
 20
0
 30
0
  3
AIGNBL0102000F
  0
ARC
  8
LAYER_1
 10
420.3609
 20
-22.5203
 40
0.6524
 50
6.056198854
 51
49.63190274
  0
ARC
  8
LAYER_1
 10
419.5869
 20
-22.6803
 40
1.4411
 50
359.7752786
 51
9.138499501
  0
LINE
  8
LAYER_1
 10
421.028
 20
-22.686
 11
421.028
 21
-24.2983
  0
LINE
  8
LAYER_1
 10
421.028
 20
-24.2983
 11
420.7172
 21
-24.2983
  0
LINE
  8
LAYER_1
 10
420.7172
 20
-24.2983
 11
420.7172
 21
-22.7218
  0
ARC
  8
LAYER_1
 10
419.8575
 20
-22.6927
 40
0.8602
 50
358.0627892
 51
19.48702453
  0
ARC
  8
LAYER_1
 10
420.2608
 20
-22.5517
 40
0.4329
 50
19.69341995
 51
49.96487887
  0
ARC
  8
LAYER_1
 10
420.2054
 20
-22.6762
 40
0.5652
 50
53.78595339
 51
94.42350984
  0
ARC
  8
LAYER_1
 10
420.1622
 20
-22.8062
 40
0.6935
 50
90.03695159
 51
129.87747
  0
ARC
  8
LAYER_1
 10
420.4206
 20
-23.1363
 40
1.1125
 50
129.1906977
 51
162.05573
  0
LINE
  8
LAYER_1
 10
419.3622
 20
-22.7935
 11
419.3622
 21
-24.2983
  0
LINE
  8
LAYER_1
 10
419.3622
 20
-24.2983
 11
419.0514
 21
-24.2983
  0
LINE
  8
LAYER_1
 10
419.0514
 20
-24.2983
 11
419.0514
 21
-21.844
  0
LINE
  8
LAYER_1
 10
419.0514
 20
-21.844
 11
419.3622
 21
-21.844
  0
LINE
  8
LAYER_1
 10
419.3622
 20
-21.844
 11
419.3622
 21
-22.3456
  0
ARC
  8
LAYER_1
 10
420.2828
 20
-22.9369
 40
1.0941
 50
128.1836958
 51
147.2859099
  0
ARC
  8
LAYER_1
 10
420.255
 20
-22.8561
 40
1.0138
 50
94.72061871
 51
129.7725865
  0
ARC
  8
LAYER_1
 10
420.2278
 20
-22.7625
 40
0.9185
 50
89.95863166
 51
93.51281454
  0
ARC
  8
LAYER_1
 10
420.2477
 20
-22.7355
 40
0.8917
 50
53.91062343
 51
91.23682227
  0
ARC
  8
LAYER_1
 10
420.2991
 20
-22.6253
 40
0.7728
 50
51.18261751
 51
52.17312697
  0
ENDBLK
  0
BLOCK
  8
LAYER_1
  2
AIGNBL01020010
 70
64
 10
0
 20
0
 30
0
  3
AIGNBL01020010
  0
LINE
  8
LAYER_1
 10
424.5146
 20
-24.2983
 11
424.1371
 21
-24.2983
  0
LINE
  8
LAYER_1
 10
424.1371
 20
-24.2983
 11
422.9822
 21
-22.686
  0
LINE
  8
LAYER_1
 10
422.9822
 20
-22.686
 11
422.0272
 21
-22.686
  0
LINE
  8
LAYER_1
 10
422.0272
 20
-22.686
 11
422.0272
 21
-24.2983
  0
LINE
  8
LAYER_1
 10
422.0272
 20
-24.2983
 11
421.7164
 21
-24.2983
  0
LINE
  8
LAYER_1
 10
421.7164
 20
-24.2983
 11
421.7164
 21
-20.805
  0
LINE
  8
LAYER_1
 10
421.7164
 20
-20.805
 11
423.1155
 21
-20.805
  0
ARC
  8
LAYER_1
 10
423.1641
 20
-22.5165
 40
1.7122
 50
64.78634393
 51
91.62619302
  0
ARC
  8
LAYER_1
 10
423.468
 20
-21.7485
 40
0.8895
 50
51.15329891
 51
61.42266901
  0
ARC
  8
LAYER_1
 10
423.4997
 20
-21.7079
 40
0.8379
 50
358.0408562
 51
51.09666914
  0
ARC
  8
LAYER_1
 10
423.4548
 20
-21.7534
 40
0.8825
 50
324.0471581
 51
1.094656138
  0
ARC
  8
LAYER_1
 10
423.4857
 20
-21.7434
 40
0.8637
 50
308.7150246
 51
322.3076092
  0
ARC
  8
LAYER_1
 10
423.4083
 20
-21.6265
 40
1.0034
 50
290.1225305
 51
307.9861977
  0
ARC
  8
LAYER_1
 10
423.1377
 20
-20.8711
 40
1.8057
 50
275.6510591
 51
289.9407673
  0
LINE
  8
LAYER_1
 10
423.3155
 20
-22.6681
 11
424.5146
 21
-24.2983
  0
LINE
  8
LAYER_1
 10
422.0272
 20
-21.0737
 11
422.0272
 21
-22.4173
  0
LINE
  8
LAYER_1
 10
422.0272
 20
-22.4173
 11
423.0267
 21
-22.4173
  0
ARC
  8
LAYER_1
 10
423.0621
 20
-20.709
 40
1.7086
 50
268.8133874
 51
283.8344155
  0
ARC
  8
LAYER_1
 10
423.2758
 20
-21.5574
 40
0.8338
 50
283.5109031
 51
307.3499878
  0
ARC
  8
LAYER_1
 10
423.4086
 20
-21.756
 40
0.5955
 50
308.7937325
 51
1.880035625
  0
ARC
  8
LAYER_1
 10
423.3919
 20
-21.7246
 40
0.6121
 50
358.8899656
 51
50.43626632
  0
ARC
  8
LAYER_1
 10
423.3321
 20
-21.8328
 40
0.7338
 50
52.21889406
 51
73.15361896
  0
ARC
  8
LAYER_1
 10
423.1505
 20
-22.4608
 40
1.3875
 50
73.49211873
 51
91.44652297
  0
LINE
  8
LAYER_1
 10
423.1155
 20
-21.0737
 11
422.0272
 21
-21.0737
  0
ENDBLK
  0
BLOCK
  8
LAYER_1
  2
AIGNBL01020011
 70
64
 10
0
 20
0
 30
0
  3
AIGNBL01020011
  0
ARC
  8
LAYER_1
 10
426.3548
 20
-22.5481
 40
0.6477
 50
358.8953531
 51
51.5122055
  0
LINE
  8
LAYER_1
 10
427.0024
 20
-22.5606
 11
427.0024
 21
-23.7788
  0
ARC
  8
LAYER_1
 10
428.0409
 20
-23.7892
 40
1.0385
 50
179.4270287
 51
209.3553955
  0
LINE
  8
LAYER_1
 10
427.1357
 20
-24.2983
 11
426.8024
 21
-24.2983
  0
ARC
  8
LAYER_1
 10
427.4021
 20
-23.9166
 40
0.7109
 50
181.8885664
 51
212.4786329
  0
ARC
  8
LAYER_1
 10
426.0306
 20
-23.3705
 40
0.8725
 50
307.2065985
 51
319.2522862
  0
ARC
  8
LAYER_1
 10
425.9027
 20
-23.2448
 40
1.0503
 50
274.3420676
 51
308.6162638
  0
ARC
  8
LAYER_1
 10
425.8539
 20
-22.9841
 40
1.3142
 50
269.7147373
 51
275.6018165
  0
ARC
  8
LAYER_1
 10
425.8234
 20
-23.2839
 40
1.0147
 50
236.3001934
 51
271.3550992
  0
ARC
  8
LAYER_1
 10
425.7432
 20
-23.4601
 40
0.8242
 50
231.0753322
 51
234.1411685
  0
ARC
  8
LAYER_1
 10
425.5583
 20
-23.6855
 40
0.5327
 50
178.4773223
 51
231.3228192
  0
ARC
  8
LAYER_1
 10
425.5612
 20
-23.6756
 40
0.5354
 50
125.8132499
 51
179.5421234
  0
ARC
  8
LAYER_1
 10
426.0445
 20
-24.3056
 40
1.3294
 50
111.9745831
 51
126.816651
  0
ARC
  8
LAYER_1
 10
426.9583
 20
-26.4845
 40
3.692
 50
106.0711961
 51
112.471547
  0
ARC
  8
LAYER_1
 10
424.9028
 20
-19.0743
 40
3.9984
 50
284.9781471
 51
296.5755079
  0
ARC
  8
LAYER_1
 10
426.1565
 20
-22.617
 40
0.5362
 50
356.4513406
 51
44.96821806
  0
ARC
  8
LAYER_1
 10
426.1185
 20
-22.7715
 40
0.6773
 50
51.96445878
 51
92.27588681
  0
ARC
  8
LAYER_1
 10
426.082
 20
-22.7596
 40
0.6649
 50
89.17404094
 51
128.3382067
  0
ARC
  8
LAYER_1
 10
426.0388
 20
-22.6787
 40
0.5748
 50
129.96305
 51
171.7703657
  0
LINE
  8
LAYER_1
 10
425.4699
 20
-22.5964
 11
425.1145
 21
-22.5964
  0
ARC
  8
LAYER_1
 10
425.9473
 20
-22.7183
 40
0.8416
 50
126.427446
 51
171.6723572
  0
ARC
  8
LAYER_1
 10
426.013
 20
-22.7684
 40
0.9213
 50
91.53886103
 51
127.8634325
  0
ARC
  8
LAYER_1
 10
426.0856
 20
-23.201
 40
1.3571
 50
89.74461501
 51
94.11281446
  0
ARC
  8
LAYER_1
 10
426.1263
 20
-22.9733
 40
1.1298
 50
58.62195339
 51
91.75891306
  0
ARC
  8
LAYER_1
 10
426.2728
 20
-22.645
 40
0.7746
 50
51.2265923
 51
55.23076799
  0
ARC
  8
LAYER_1
 10
425.6206
 20
-20.8
 40
2.3902
 50
282.4572156
 51
296.6202321
  0
ARC
  8
LAYER_1
 10
426.4549
 20
-24.8213
 40
1.7172
 50
100.6943898
 51
123.2193271
  0
ARC
  8
LAYER_1
 10
425.7369
 20
-23.6909
 40
0.3787
 50
126.0379939
 51
177.0272144
  0
ARC
  8
LAYER_1
 10
425.6739
 20
-23.6646
 40
0.3153
 50
181.2206789
 51
234.7605386
  0
ARC
  8
LAYER_1
 10
425.8256
 20
-23.4673
 40
0.564
 50
233.7415385
 51
274.4679247
  0
ARC
  8
LAYER_1
 10
425.8985
 20
-23.1627
 40
0.8673
 50
268.0847434
 51
305.5521241
  0
ARC
  8
LAYER_1
 10
425.3598
 20
-22.529
 40
1.6976
 50
307.9070572
 51
321.6748
  0
LINE
  8
LAYER_1
 10
426.6916
 20
-23.5817
 11
426.6916
 21
-22.9368
  0
ENDBLK
  0
BLOCK
  8
LAYER_1
  2
AIGNBL01020012
 70
64
 10
0
 20
0
 30
0
  3
AIGNBL01020012
  0
LINE
  8
LAYER_1
 10
428.1794
 20
-21.1812
 11
427.8244
 21
-21.1812
  0
LINE
  8
LAYER_1
 10
427.8244
 20
-21.1812
 11
427.8244
 21
-20.805
  0
LINE
  8
LAYER_1
 10
427.8244
 20
-20.805
 11
428.1794
 21
-20.805
  0
LINE
  8
LAYER_1
 10
428.1794
 20
-20.805
 11
428.1794
 21
-21.1812
  0
LINE
  8
LAYER_1
 10
428.1573
 20
-24.2983
 11
427.8465
 21
-24.2983
  0
LINE
  8
LAYER_1
 10
427.8465
 20
-24.2983
 11
427.8465
 21
-21.844
  0
LINE
  8
LAYER_1
 10
427.8465
 20
-21.844
 11
428.1573
 21
-21.844
  0
LINE
  8
LAYER_1
 10
428.1573
 20
-21.844
 11
428.1573
 21
-24.2983
  0
ENDBLK
  0
BLOCK
  8
LAYER_1
  2
AIGNBL01020013
 70
64
 10
0
 20
0
 30
0
  3
AIGNBL01020013
  0
LINE
  8
LAYER_1
 10
429.179
 20
-23.0085
 11
430.4894
 21
-21.844
  0
LINE
  8
LAYER_1
 10
430.4894
 20
-21.844
 11
430.8889
 21
-21.844
  0
LINE
  8
LAYER_1
 10
430.8889
 20
-21.844
 11
429.8898
 21
-22.7577
  0
LINE
  8
LAYER_1
 10
429.8898
 20
-22.7577
 11
431.0447
 21
-24.2983
  0
LINE
  8
LAYER_1
 10
431.0447
 20
-24.2983
 11
430.6669
 21
-24.2983
  0
LINE
  8
LAYER_1
 10
430.6669
 20
-24.2983
 11
429.6677
 21
-22.9547
  0
LINE
  8
LAYER_1
 10
429.6677
 20
-22.9547
 11
429.179
 21
-23.3668
  0
LINE
  8
LAYER_1
 10
429.179
 20
-23.3668
 11
429.179
 21
-24.2983
  0
LINE
  8
LAYER_1
 10
429.179
 20
-24.2983
 11
428.8681
 21
-24.2983
  0
LINE
  8
LAYER_1
 10
428.8681
 20
-24.2983
 11
428.8681
 21
-20.805
  0
LINE
  8
LAYER_1
 10
428.8681
 20
-20.805
 11
429.179
 21
-20.805
  0
LINE
  8
LAYER_1
 10
429.179
 20
-20.805
 11
429.179
 21
-23.0085
  0
ENDBLK
  0
BLOCK
  8
LAYER_1
  2
AIGNBL01020014
 70
64
 10
0
 20
0
 30
0
  3
AIGNBL01020014
  0
ARC
  8
LAYER_1
 10
433.0098
 20
-22.7468
 40
0.8773
 50
12.60342893
 51
49.78011216
  0
ARC
  8
LAYER_1
 10
431.8998
 20
-23.07
 40
2.0324
 50
358.7039478
 51
14.66866777
  0
LINE
  8
LAYER_1
 10
433.9317
 20
-23.116
 11
432.066
 21
-23.116
  0
ARC
  8
LAYER_1
 10
433.2312
 20
-23.1128
 40
1.1652
 50
180.1560842
 51
212.928069
  0
ARC
  8
LAYER_1
 10
432.7411
 20
-23.3724
 40
0.6146
 50
217.4550261
 51
231.0501092
  0
ARC
  8
LAYER_1
 10
432.8585
 20
-23.2321
 40
0.7976
 50
230.8301274
 51
270.5128691
  0
ARC
  8
LAYER_1
 10
432.8711
 20
-23.2277
 40
0.8019
 50
269.6052449
 51
309.0587652
  0
ARC
  8
LAYER_1
 10
433.0167
 20
-23.4102
 40
0.5685
 50
309.2566345
 51
349.8814655
  0
LINE
  8
LAYER_1
 10
433.5763
 20
-23.5101
 11
433.8872
 21
-23.5101
  0
ARC
  8
LAYER_1
 10
433.0669
 20
-23.418
 40
0.8254
 50
314.8934248
 51
353.5925085
  0
ARC
  8
LAYER_1
 10
433.1146
 20
-23.4436
 40
0.7738
 50
308.7020055
 51
313.7346419
  0
ARC
  8
LAYER_1
 10
432.8866
 20
-23.1638
 40
1.1347
 50
268.9374945
 51
308.8494155
  0
ARC
  8
LAYER_1
 10
432.8479
 20
-23.0714
 40
1.227
 50
239.2915575
 51
270.8243559
  0
ARC
  8
LAYER_1
 10
432.7984
 20
-23.1989
 40
1.0923
 50
230.9757754
 51
238.1127847
  0
ARC
  8
LAYER_1
 10
432.7097
 20
-23.3174
 40
0.9445
 50
194.4673121
 51
230.6254269
  0
ARC
  8
LAYER_1
 10
433.4446
 20
-23.0952
 40
1.7118
 50
178.8963074
 51
195.5256383
  0
ARC
  8
LAYER_1
 10
433.1968
 20
-23.0273
 40
1.4642
 50
152.2578244
 51
181.3644851
  0
ARC
  8
LAYER_1
 10
432.7467
 20
-22.8403
 40
0.9797
 50
128.8098969
 51
149.6829014
  0
ARC
  8
LAYER_1
 10
432.7879
 20
-22.9043
 40
1.0554
 50
94.53864952
 51
128.3744089
  0
ARC
  8
LAYER_1
 10
432.8565
 20
-23.2516
 40
1.4076
 50
89.62815208
 51
96.20276689
  0
ARC
  8
LAYER_1
 10
432.884
 20
-23.0055
 40
1.1617
 50
58.69526604
 51
90.90628106
  0
ARC
  8
LAYER_1
 10
432.9411
 20
-22.865
 40
1.0122
 50
51.13395218
 51
57.32732918
  0
ARC
  8
LAYER_1
 10
432.7059
 20
-22.8568
 40
0.8926
 50
0.6140575039
 51
37.95411585
  0
ARC
  8
LAYER_1
 10
433.0087
 20
-22.6817
 40
0.5482
 50
42.99467696
 51
50.92037445
  0
ARC
  8
LAYER_1
 10
432.8896
 20
-22.8429
 40
0.7485
 50
51.62770734
 51
91.84038067
  0
ARC
  8
LAYER_1
 10
432.8435
 20
-22.9144
 40
0.8199
 50
88.4523364
 51
126.591286
  0
ARC
  8
LAYER_1
 10
432.848
 20
-22.8631
 40
0.7821
 50
129.1002074
 51
178.8369681
  0
LINE
  8
LAYER_1
 10
432.066
 20
-22.8472
 11
433.5984
 21
-22.8472
  0
ENDBLK
  0
BLOCK
  8
LAYER_1
  2
AIGNBL01020015
 70
64
 10
0
 20
0
 30
0
  3
AIGNBL01020015
  0
ARC
  8
LAYER_1
 10
435.9299
 20
-22.5203
 40
0.6524
 50
6.056198854
 51
49.63190274
  0
ARC
  8
LAYER_1
 10
435.1559
 20
-22.6803
 40
1.4411
 50
359.7752786
 51
9.138499501
  0
LINE
  8
LAYER_1
 10
436.597
 20
-22.686
 11
436.597
 21
-24.2983
  0
LINE
  8
LAYER_1
 10
436.597
 20
-24.2983
 11
436.2862
 21
-24.2983
  0
LINE
  8
LAYER_1
 10
436.2862
 20
-24.2983
 11
436.2862
 21
-22.7218
  0
ARC
  8
LAYER_1
 10
435.4265
 20
-22.6927
 40
0.8602
 50
358.0627892
 51
19.48702453
  0
ARC
  8
LAYER_1
 10
435.8298
 20
-22.5517
 40
0.4329
 50
19.69341995
 51
49.96487887
  0
ARC
  8
LAYER_1
 10
435.7745
 20
-22.6759
 40
0.5649
 50
53.77483402
 51
94.43462921
  0
ARC
  8
LAYER_1
 10
435.7312
 20
-22.8058
 40
0.6931
 50
90.03352854
 51
129.8891711
  0
ARC
  8
LAYER_1
 10
435.9893
 20
-23.136
 40
1.1121
 50
129.1838779
 51
162.0625498
  0
LINE
  8
LAYER_1
 10
434.9313
 20
-22.7935
 11
434.9313
 21
-24.2983
  0
LINE
  8
LAYER_1
 10
434.9313
 20
-24.2983
 11
434.6204
 21
-24.2983
  0
LINE
  8
LAYER_1
 10
434.6204
 20
-24.2983
 11
434.6204
 21
-21.844
  0
LINE
  8
LAYER_1
 10
434.6204
 20
-21.844
 11
434.9313
 21
-21.844
  0
LINE
  8
LAYER_1
 10
434.9313
 20
-21.844
 11
434.9313
 21
-22.3456
  0
ARC
  8
LAYER_1
 10
435.849
 20
-22.9343
 40
1.0903
 50
128.1496285
 51
147.3199772
  0
ARC
  8
LAYER_1
 10
435.8239
 20
-22.8555
 40
1.0132
 50
94.71600563
 51
129.7843011
  0
ARC
  8
LAYER_1
 10
435.7968
 20
-22.7624
 40
0.9184
 50
89.95857338
 51
93.51287669
  0
ARC
  8
LAYER_1
 10
435.8168
 20
-22.7353
 40
0.8916
 50
53.90672978
 51
91.24072559
  0
ARC
  8
LAYER_1
 10
435.868
 20
-22.6255
 40
0.773
 50
51.182327
 51
52.17256148
  0
ENDBLK
  0
BLOCK
  8
LAYER_1
  2
AIGNBL01020016
 70
64
 10
0
 20
0
 30
0
  3
AIGNBL01020016
  0
LINE
  8
LAYER_1
 10
438.7291
 20
-23.8684
 11
439.7953
 21
-20.805
  0
LINE
  8
LAYER_1
 10
439.7953
 20
-20.805
 11
440.1728
 21
-20.805
  0
LINE
  8
LAYER_1
 10
440.1728
 20
-20.805
 11
438.907
 21
-24.2983
  0
LINE
  8
LAYER_1
 10
438.907
 20
-24.2983
 11
438.5516
 21
-24.2983
  0
LINE
  8
LAYER_1
 10
438.5516
 20
-24.2983
 11
437.2857
 21
-20.805
  0
LINE
  8
LAYER_1
 10
437.2857
 20
-20.805
 11
437.6632
 21
-20.805
  0
LINE
  8
LAYER_1
 10
437.6632
 20
-20.805
 11
438.7291
 21
-23.8684
  0
ENDBLK
  0
BLOCK
  8
LAYER_1
  2
AIGNBL01020017
 70
64
 10
0
 20
0
 30
0
  3
AIGNBL01020017
  0
ARC
  8
LAYER_1
 10
442.1382
 20
-22.7468
 40
0.8773
 50
12.60342893
 51
49.78011216
  0
ARC
  8
LAYER_1
 10
441.0282
 20
-23.07
 40
2.0324
 50
358.7039478
 51
14.66866777
  0
LINE
  8
LAYER_1
 10
443.0601
 20
-23.116
 11
441.1944
 21
-23.116
  0
ARC
  8
LAYER_1
 10
442.3596
 20
-23.1128
 40
1.1652
 50
180.1560842
 51
212.928069
  0
ARC
  8
LAYER_1
 10
441.8695
 20
-23.3724
 40
0.6146
 50
217.4550261
 51
231.0501092
  0
ARC
  8
LAYER_1
 10
441.9869
 20
-23.2321
 40
0.7976
 50
230.8301274
 51
270.5128691
  0
ARC
  8
LAYER_1
 10
441.9995
 20
-23.2277
 40
0.8019
 50
269.6052449
 51
309.0587652
  0
ARC
  8
LAYER_1
 10
442.1451
 20
-23.4102
 40
0.5685
 50
309.2566345
 51
349.8814655
  0
LINE
  8
LAYER_1
 10
442.7047
 20
-23.5101
 11
443.0156
 21
-23.5101
  0
ARC
  8
LAYER_1
 10
442.1953
 20
-23.418
 40
0.8254
 50
314.8934248
 51
353.5925085
  0
ARC
  8
LAYER_1
 10
442.243
 20
-23.4436
 40
0.7738
 50
308.7020055
 51
313.7346419
  0
ARC
  8
LAYER_1
 10
442.015
 20
-23.1638
 40
1.1347
 50
268.9374945
 51
308.8494155
  0
ARC
  8
LAYER_1
 10
441.9763
 20
-23.0714
 40
1.227
 50
239.2915575
 51
270.8243559
  0
ARC
  8
LAYER_1
 10
441.9268
 20
-23.1989
 40
1.0923
 50
230.9757754
 51
238.1127847
  0
ARC
  8
LAYER_1
 10
441.8381
 20
-23.3174
 40
0.9445
 50
194.4673121
 51
230.6254269
  0
ARC
  8
LAYER_1
 10
442.573
 20
-23.0952
 40
1.7118
 50
178.8963074
 51
195.5256383
  0
ARC
  8
LAYER_1
 10
442.3252
 20
-23.0273
 40
1.4642
 50
152.2578244
 51
181.3644851
  0
ARC
  8
LAYER_1
 10
441.8751
 20
-22.8403
 40
0.9797
 50
128.8098969
 51
149.6829014
  0
ARC
  8
LAYER_1
 10
441.9163
 20
-22.9043
 40
1.0554
 50
94.53864952
 51
128.3744089
  0
ARC
  8
LAYER_1
 10
441.9849
 20
-23.2516
 40
1.4076
 50
89.62815208
 51
96.20276689
  0
ARC
  8
LAYER_1
 10
442.0124
 20
-23.0055
 40
1.1617
 50
58.69526604
 51
90.90628106
  0
ARC
  8
LAYER_1
 10
442.0695
 20
-22.865
 40
1.0122
 50
51.13395218
 51
57.32732918
  0
ARC
  8
LAYER_1
 10
441.8343
 20
-22.8568
 40
0.8926
 50
0.614057504
 51
37.95411585
  0
ARC
  8
LAYER_1
 10
442.1371
 20
-22.6817
 40
0.5482
 50
42.99467696
 51
50.92037445
  0
ARC
  8
LAYER_1
 10
442.0179
 20
-22.8433
 40
0.7489
 50
51.63702495
 51
91.83106306
  0
ARC
  8
LAYER_1
 10
441.9719
 20
-22.9144
 40
0.8199
 50
88.4523364
 51
126.591286
  0
ARC
  8
LAYER_1
 10
441.9764
 20
-22.8631
 40
0.7821
 50
129.1002074
 51
178.8369681
  0
LINE
  8
LAYER_1
 10
441.1944
 20
-22.8472
 11
442.7268
 21
-22.8472
  0
ENDBLK
  0
BLOCK
  8
LAYER_1
  2
AIGNBL01020018
 70
64
 10
0
 20
0
 30
0
  3
AIGNBL01020018
  0
ARC
  8
LAYER_1
 10
445.0433
 20
-22.7108
 40
0.838
 50
1.693681608
 51
51.0556463
  0
LINE
  8
LAYER_1
 10
445.8809
 20
-22.686
 11
445.5476
 21
-22.686
  0
ARC
  8
LAYER_1
 10
444.9034
 20
-22.704
 40
0.6445
 50
1.597237292
 51
45.70981563
  0
ARC
  8
LAYER_1
 10
445.0546
 20
-22.6
 40
0.4658
 50
50.10159936
 51
50.97837998
  0
ARC
  8
LAYER_1
 10
444.9301
 20
-22.773
 40
0.6787
 50
52.00800242
 51
92.22480384
  0
ARC
  8
LAYER_1
 10
444.8986
 20
-22.8987
 40
0.8039
 50
89.62906034
 51
129.0069382
  0
ARC
  8
LAYER_1
 10
444.905
 20
-22.8912
 40
0.8022
 50
129.6953429
 51
169.2422479
  0
ARC
  8
LAYER_1
 10
445.5899
 20
-23.0652
 40
1.5082
 50
167.6061446
 51
180.565491
  0
ARC
  8
LAYER_1
 10
445.2939
 20
-23.125
 40
1.2129
 50
177.8763812
 51
209.7521938
  0
ARC
  8
LAYER_1
 10
444.7763
 20
-23.3663
 40
0.6455
 50
213.9633399
 51
231.0556063
  0
ARC
  8
LAYER_1
 10
444.8667
 20
-23.2706
 40
0.7769
 50
230.3018069
 51
269.4441898
  0
ARC
  8
LAYER_1
 10
444.8794
 20
-23.4124
 40
0.6354
 50
268.1802574
 51
306.6648982
  0
ARC
  8
LAYER_1
 10
444.828
 20
-23.402
 40
0.6753
 50
309.6313204
 51
331.3959845
  0
ARC
  8
LAYER_1
 10
444.3944
 20
-23.1781
 40
1.1632
 50
331.9405103
 51
352.4534227
  0
LINE
  8
LAYER_1
 10
445.5476
 20
-23.3309
 11
445.8809
 21
-23.3309
  0
ARC
  8
LAYER_1
 10
444.6971
 20
-23.2617
 40
1.1858
 50
324.4717917
 51
356.654566
  0
ARC
  8
LAYER_1
 10
445.0719
 20
-23.4754
 40
0.7579
 50
308.8797879
 51
321.1555968
  0
ARC
  8
LAYER_1
 10
444.8914
 20
-23.2577
 40
1.0406
 50
269.4427039
 51
309.0906518
  0
ARC
  8
LAYER_1
 10
444.8572
 20
-23.0785
 40
1.2201
 50
239.4756042
 51
271.1328127
  0
ARC
  8
LAYER_1
 10
444.7631
 20
-23.3043
 40
0.9783
 50
231.0737229
 51
237.5038096
  0
ARC
  8
LAYER_1
 10
444.7858
 20
-23.2802
 40
1.0113
 50
196.2076981
 51
230.9284391
  0
ARC
  8
LAYER_1
 10
445.3362
 20
-23.109
 40
1.5877
 50
178.9571715
 51
196.5979576
  0
ARC
  8
LAYER_1
 10
445.2124
 20
-23.0453
 40
1.464
 50
152.2530449
 51
181.3625408
  0
ARC
  8
LAYER_1
 10
444.7629
 20
-22.8585
 40
0.9802
 50
128.8211147
 51
149.6825298
  0
ARC
  8
LAYER_1
 10
444.8675
 20
-22.9977
 40
1.1542
 50
88.19746034
 51
128.5358562
  0
ARC
  8
LAYER_1
 10
444.9247
 20
-22.9326
 40
1.0888
 50
57.47761268
 51
91.09750413
  0
ARC
  8
LAYER_1
 10
444.9927
 20
-22.775
 40
0.9198
 50
51.1221789
 51
55.77272022
  0
ENDBLK
  0
BLOCK
  8
LAYER_1
  2
AIGNBL01020019
 70
64
 10
0
 20
0
 30
0
  3
AIGNBL01020019
  0
LINE
  8
LAYER_1
 10
446.9471
 20
-22.1127
 11
446.5696
 21
-22.1127
  0
LINE
  8
LAYER_1
 10
446.5696
 20
-22.1127
 11
446.5696
 21
-21.844
  0
LINE
  8
LAYER_1
 10
446.5696
 20
-21.844
 11
446.9471
 21
-21.844
  0
LINE
  8
LAYER_1
 10
446.9471
 20
-21.844
 11
446.9471
 21
-21.1633
  0
LINE
  8
LAYER_1
 10
446.9471
 20
-21.1633
 11
447.2579
 21
-21.1633
  0
LINE
  8
LAYER_1
 10
447.2579
 20
-21.1633
 11
447.2579
 21
-21.844
  0
LINE
  8
LAYER_1
 10
447.2579
 20
-21.844
 11
447.902
 21
-21.844
  0
LINE
  8
LAYER_1
 10
447.902
 20
-21.844
 11
447.902
 21
-22.1127
  0
LINE
  8
LAYER_1
 10
447.902
 20
-22.1127
 11
447.2579
 21
-22.1127
  0
LINE
  8
LAYER_1
 10
447.2579
 20
-22.1127
 11
447.2579
 21
-23.8146
  0
ARC
  8
LAYER_1
 10
447.4531
 20
-23.8283
 40
0.1957
 50
175.9776718
 51
228.9540035
  0
ARC
  8
LAYER_1
 10
447.5135
 20
-23.6806
 40
0.3506
 50
237.3894116
 51
275.4142225
  0
ARC
  8
LAYER_1
 10
447.4743
 20
-21.9748
 40
2.0561
 50
272.0139483
 51
283.2785335
  0
LINE
  8
LAYER_1
 10
447.9466
 20
-23.9759
 11
447.9466
 21
-24.2446
  0
ARC
  8
LAYER_1
 10
447.538
 20
-22.7291
 40
1.5697
 50
268.6889408
 51
285.0880874
  0
ARC
  8
LAYER_1
 10
447.4557
 20
-23.5994
 40
0.7004
 50
237.5992903
 51
273.7981536
  0
ARC
  8
LAYER_1
 10
447.3287
 20
-23.8994
 40
0.3828
 50
175.3554851
 51
229.5709398
  0
LINE
  8
LAYER_1
 10
446.9471
 20
-23.8684
 11
446.9471
 21
-22.1127
  0
ENDBLK
  0
BLOCK
  8
LAYER_1
  2
AIGNBL0102001A
 70
64
 10
0
 20
0
 30
0
  3
AIGNBL0102001A
  0
ARC
  8
LAYER_1
 10
449.771
 20
-23.0302
 40
1.1862
 50
50.66677427
 51
90.17171201
  0
ARC
  8
LAYER_1
 10
449.9151
 20
-22.8549
 40
0.9592
 50
14.76585385
 51
50.68641275
  0
ARC
  8
LAYER_1
 10
449.3035
 20
-23.0364
 40
1.597
 50
359.0757295
 51
15.47348178
  0
ARC
  8
LAYER_1
 10
449.4118
 20
-23.1002
 40
1.489
 50
332.9248548
 51
1.463570552
  0
ARC
  8
LAYER_1
 10
449.9541
 20
-23.3266
 40
0.9042
 50
308.9730079
 51
330.0558863
  0
ARC
  8
LAYER_1
 10
449.7683
 20
-23.1047
 40
1.1936
 50
269.9562788
 51
309.2052349
  0
ARC
  8
LAYER_1
 10
449.7636
 20
-23.114
 40
1.1844
 50
230.6348894
 51
270.1844284
  0
ARC
  8
LAYER_1
 10
449.6133
 20
-23.2949
 40
0.9491
 50
194.5638459
 51
230.717391
  0
ARC
  8
LAYER_1
 10
450.2947
 20
-23.0911
 40
1.6601
 50
179.0015303
 51
195.4587807
  0
ARC
  8
LAYER_1
 10
450.069
 20
-23.0263
 40
1.4346
 50
152.436114
 51
181.4349136
  0
ARC
  8
LAYER_1
 10
449.5861
 20
-22.8244
 40
0.9141
 50
128.8724161
 51
149.6456964
  0
ARC
  8
LAYER_1
 10
449.7664
 20
-23.0363
 40
1.1923
 50
89.95302455
 51
129.2276577
  0
ARC
  8
LAYER_1
 10
449.7373
 20
-22.8657
 40
0.7485
 50
129.9545216
 51
170.5146889
  0
ARC
  8
LAYER_1
 10
450.4903
 20
-23.0488
 40
1.5225
 50
168.3885338
 51
180.5058284
  0
ARC
  8
LAYER_1
 10
450.1798
 20
-23.1072
 40
1.2127
 50
177.8753432
 51
209.7549112
  0
ARC
  8
LAYER_1
 10
449.6619
 20
-23.3486
 40
0.645
 50
213.9695822
 51
231.0732277
  0
ARC
  8
LAYER_1
 10
449.7603
 20
-23.2323
 40
0.7974
 50
230.8249409
 51
270.5110491
  0
ARC
  8
LAYER_1
 10
449.773
 20
-23.228
 40
0.8016
 50
269.5985724
 51
309.0654377
  0
ARC
  8
LAYER_1
 10
449.7989
 20
-23.28
 40
0.7451
 50
310.0400492
 51
350.802338
  0
ARC
  8
LAYER_1
 10
448.9766
 20
-23.0782
 40
1.5905
 50
348.3611623
 51
0.5759523641
  0
ARC
  8
LAYER_1
 10
449.406
 20
-23.0205
 40
1.1618
 50
357.9409237
 51
30.41562059
  0
ARC
  8
LAYER_1
 10
449.8626
 20
-22.8058
 40
0.661
 50
34.41492789
 51
51.03830788
  0
ARC
  8
LAYER_1
 10
449.7732
 20
-22.9137
 40
0.801
 50
50.91885077
 51
90.41713913
  0
ARC
  8
LAYER_1
 10
449.7622
 20
-22.9156
 40
0.8029
 50
89.63079039
 51
129.0332197
  0
ENDBLK
  0
BLOCK
  8
LAYER_1
  2
AIGNBL0102001B
 70
64
 10
0
 20
0
 30
0
  3
AIGNBL0102001B
  0
ARC
  8
LAYER_1
 10
452.9792
 20
-23.1948
 40
1.0468
 50
91.95415936
 51
126.0445998
  0
ARC
  8
LAYER_1
 10
452.9248
 20
-23.0831
 40
0.9247
 50
127.3934949
 51
128.9083714
  0
ARC
  8
LAYER_1
 10
453.1657
 20
-23.3662
 40
1.2964
 50
129.3336566
 51
159.8975151
  0
ARC
  8
LAYER_1
 10
453.5016
 20
-23.5317
 40
1.6692
 50
158.5262093
 51
163.6632547
  0
LINE
  8
LAYER_1
 10
451.8998
 20
-23.0622
 11
451.8998
 21
-24.2983
  0
LINE
  8
LAYER_1
 10
451.8998
 20
-24.2983
 11
451.589
 21
-24.2983
  0
LINE
  8
LAYER_1
 10
451.589
 20
-24.2983
 11
451.589
 21
-21.844
  0
LINE
  8
LAYER_1
 10
451.589
 20
-21.844
 11
451.8998
 21
-21.844
  0
LINE
  8
LAYER_1
 10
451.8998
 20
-21.844
 11
451.8998
 21
-22.4889
  0
ARC
  8
LAYER_1
 10
452.8238
 20
-22.9357
 40
1.0263
 50
126.6854221
 51
154.190519
  0
ARC
  8
LAYER_1
 10
452.9729
 20
-23.0804
 40
1.2319
 50
96.74353549
 51
128.2269731
  0
ARC
  8
LAYER_1
 10
453.0724
 20
-23.4967
 40
1.6577
 50
94.46061072
 51
98.47202668
  0
LINE
  8
LAYER_1
 10
452.9435
 20
-21.844
 11
452.9435
 21
-22.1486
  0
ENDBLK
  0
BLOCK
  8
LAYER_1
  2
AIGNBL0102001C
 70
64
 10
0
 20
0
 30
0
  3
AIGNBL0102001C
  0
ARC
  8
LAYER_1
 10
457.0003
 20
-22.1683
 40
1.3729
 50
22.00654621
 51
51.6500167
  0
ARC
  8
LAYER_1
 10
456.9677
 20
-22.1556
 40
1.3986
 50
3.959491083
 51
21.02324604
  0
LINE
  8
LAYER_1
 10
458.3629
 20
-22.059
 11
458.0075
 21
-22.059
  0
ARC
  8
LAYER_1
 10
456.7195
 20
-22.2686
 40
1.305
 50
9.243777606
 51
39.90748912
  0
ARC
  8
LAYER_1
 10
456.9844
 20
-22.0961
 40
0.9918
 50
42.08295968
 51
51.07953506
  0
ARC
  8
LAYER_1
 10
456.9994
 20
-22.0766
 40
0.9672
 50
51.04301918
 51
90.79785854
  0
ARC
  8
LAYER_1
 10
456.9858
 20
-22.1166
 40
1.0071
 50
89.99375193
 51
129.7595084
  0
ARC
  8
LAYER_1
 10
457.0642
 20
-22.224
 40
1.1398
 50
129.3391113
 51
161.8447062
  0
ARC
  8
LAYER_1
 10
457.8971
 20
-22.5179
 40
2.0229
 50
161.2836233
 51
181.716646
  0
ARC
  8
LAYER_1
 10
457.9756
 20
-22.6331
 40
2.1012
 50
178.511837
 51
202.8960359
  0
ARC
  8
LAYER_1
 10
456.9203
 20
-23.0255
 40
0.9776
 50
205.7715322
 51
230.4037019
  0
ARC
  8
LAYER_1
 10
456.9063
 20
-23.0106
 40
0.9804
 50
231.5905288
 51
266.9249016
  0
ARC
  8
LAYER_1
 10
456.958
 20
-22.7148
 40
1.279
 50
265.3198288
 51
270.2400428
  0
ARC
  8
LAYER_1
 10
456.9844
 20
-22.9042
 40
1.0898
 50
268.8971713
 51
302.5081969
  0
ARC
  8
LAYER_1
 10
457.053
 20
-23.0631
 40
0.9193
 50
304.2242989
 51
308.8774009
  0
ARC
  8
LAYER_1
 10
457.0115
 20
-23.039
 40
0.9643
 50
309.8958196
 51
345.795109
  0
ARC
  8
LAYER_1
 10
456.1842
 20
-22.7622
 40
1.8354
 50
343.7549687
 51
353.4159697
  0
LINE
  8
LAYER_1
 10
458.0075
 20
-22.9726
 11
458.3629
 21
-22.9726
  0
ARC
  8
LAYER_1
 10
456.5968
 20
-22.8433
 40
1.7708
 50
329.5146199
 51
355.8127563
  0
ARC
  8
LAYER_1
 10
457.2161
 20
-23.1548
 40
1.0801
 50
309.0350709
 51
327.0907664
  0
ARC
  8
LAYER_1
 10
457.0263
 20
-22.906
 40
1.3929
 50
268.3359211
 51
308.6509953
  0
ARC
  8
LAYER_1
 10
456.9695
 20
-22.7405
 40
1.5579
 50
242.6642661
 51
270.6016744
  0
ARC
  8
LAYER_1
 10
456.9391
 20
-22.8528
 40
1.4443
 50
231.0389559
 51
241.6904948
  0
ARC
  8
LAYER_1
 10
456.7975
 20
-23.0446
 40
1.2063
 50
198.8274796
 51
230.5427575
  0
ARC
  8
LAYER_1
 10
457.5443
 20
-22.7452
 40
2.0102
 50
188.8832669
 51
200.0347189
  0
ARC
  8
LAYER_1
 10
458.6925
 20
-22.5647
 40
3.1725
 50
179.6026947
 51
188.9012247
  0
ARC
  8
LAYER_1
 10
457.6495
 20
-22.5116
 40
2.1297
 50
156.9967553
 51
180.8361337
  0
ARC
  8
LAYER_1
 10
457.0687
 20
-22.3113
 40
1.5173
 50
128.7135698
 51
155.3870176
  0
ARC
  8
LAYER_1
 10
457.0349
 20
-22.2353
 40
1.437
 50
100.5846047
 51
129.5598905
  0
ARC
  8
LAYER_1
 10
456.9852
 20
-22.1099
 40
1.3049
 50
89.97105945
 51
99.45145628
  0
ARC
  8
LAYER_1
 10
457.0045
 20
-22.2301
 40
1.4252
 50
61.29471929
 51
90.74582283
  0
ARC
  8
LAYER_1
 10
457.0535
 20
-22.0842
 40
1.274
 50
51.18118257
 51
60.07792724
  0
ENDBLK
  0
BLOCK
  8
LAYER_1
  2
AIGNBL0102001D
 70
64
 10
0
 20
0
 30
0
  3
AIGNBL0102001D
  0
ARC
  8
LAYER_1
 10
460.1877
 20
-23.0298
 40
1.1858
 50
50.66048807
 51
90.17320777
  0
ARC
  8
LAYER_1
 10
460.3321
 20
-22.8546
 40
0.9588
 50
14.7589366
 51
50.69787554
  0
ARC
  8
LAYER_1
 10
459.7197
 20
-23.0364
 40
1.5974
 50
359.0746232
 51
15.46762674
  0
ARC
  8
LAYER_1
 10
459.8283
 20
-23.1003
 40
1.4891
 50
332.9296754
 51
1.46551095
  0
ARC
  8
LAYER_1
 10
460.3711
 20
-23.3268
 40
0.9038
 50
308.9611357
 51
330.0560601
  0
ARC
  8
LAYER_1
 10
460.1851
 20
-23.1053
 40
1.193
 50
269.9511589
 51
309.2151452
  0
ARC
  8
LAYER_1
 10
460.1803
 20
-23.114
 40
1.1844
 50
230.6348894
 51
270.1844284
  0
ARC
  8
LAYER_1
 10
460.0296
 20
-23.2952
 40
0.9487
 50
194.5571008
 51
230.7288295
  0
ARC
  8
LAYER_1
 10
460.7119
 20
-23.0912
 40
1.6605
 50
179.000404
 51
195.4530529
  0
ARC
  8
LAYER_1
 10
460.4859
 20
-23.0262
 40
1.4347
 50
152.4410049
 51
181.436924
  0
ARC
  8
LAYER_1
 10
460.0024
 20
-22.8242
 40
0.9137
 50
128.860566
 51
149.6458489
  0
ARC
  8
LAYER_1
 10
460.1831
 20
-23.0363
 40
1.1923
 50
89.95302455
 51
129.2276577
  0
ARC
  8
LAYER_1
 10
460.1541
 20
-22.8659
 40
0.7488
 50
129.9530716
 51
170.501807
  0
ARC
  8
LAYER_1
 10
460.9058
 20
-23.0488
 40
1.5214
 50
168.3798418
 51
180.5055652
  0
ARC
  8
LAYER_1
 10
460.596
 20
-23.1071
 40
1.2124
 50
177.8771714
 51
209.7670297
  0
ARC
  8
LAYER_1
 10
460.0787
 20
-23.3484
 40
0.6453
 50
213.9768855
 51
231.0731946
  0
ARC
  8
LAYER_1
 10
460.177
 20
-23.2323
 40
0.7974
 50
230.8249409
 51
270.5110491
  0
ARC
  8
LAYER_1
 10
460.1897
 20
-23.2279
 40
0.8017
 50
269.6008139
 51
309.0631962
  0
ARC
  8
LAYER_1
 10
460.2157
 20
-23.2802
 40
0.7448
 50
310.0414717
 51
350.815074
  0
ARC
  8
LAYER_1
 10
459.3921
 20
-23.0782
 40
1.5916
 50
348.3697402
 51
0.5762293062
  0
ARC
  8
LAYER_1
 10
459.8222
 20
-23.0204
 40
1.1621
 50
357.9389673
 51
30.40330024
  0
ARC
  8
LAYER_1
 10
460.2795
 20
-22.8056
 40
0.6606
 50
34.40761089
 51
51.03835046
  0
ARC
  8
LAYER_1
 10
460.1898
 20
-22.914
 40
0.8013
 50
50.92748548
 51
90.40850442
  0
ARC
  8
LAYER_1
 10
460.1789
 20
-22.9156
 40
0.8029
 50
89.63079039
 51
129.0332197
  0
ENDBLK
  0
BLOCK
  8
LAYER_1
  2
AIGNBL0102001E
 70
64
 10
0
 20
0
 30
0
  3
AIGNBL0102001E
  0
ARC
  8
LAYER_1
 10
463.396
 20
-23.1953
 40
1.0473
 50
91.95645751
 51
126.0369085
  0
ARC
  8
LAYER_1
 10
463.342
 20
-23.0842
 40
0.926
 50
127.3779545
 51
128.8913016
  0
ARC
  8
LAYER_1
 10
463.582
 20
-23.3659
 40
1.2959
 50
129.332204
 51
159.9069539
  0
ARC
  8
LAYER_1
 10
463.9168
 20
-23.5307
 40
1.6675
 50
158.5388601
 51
163.6807402
  0
LINE
  8
LAYER_1
 10
462.3165
 20
-23.0622
 11
462.3165
 21
-24.2983
  0
LINE
  8
LAYER_1
 10
462.3165
 20
-24.2983
 11
462.0056
 21
-24.2983
  0
LINE
  8
LAYER_1
 10
462.0056
 20
-24.2983
 11
462.0056
 21
-21.844
  0
LINE
  8
LAYER_1
 10
462.0056
 20
-21.844
 11
462.3165
 21
-21.844
  0
LINE
  8
LAYER_1
 10
462.3165
 20
-21.844
 11
462.3165
 21
-22.4889
  0
ARC
  8
LAYER_1
 10
463.2388
 20
-22.9344
 40
1.0242
 50
126.6565608
 51
154.2193804
  0
ARC
  8
LAYER_1
 10
463.3896
 20
-23.0804
 40
1.2319
 50
96.74353549
 51
128.2269731
  0
ARC
  8
LAYER_1
 10
463.4891
 20
-23.4967
 40
1.6577
 50
94.46061072
 51
98.47202668
  0
LINE
  8
LAYER_1
 10
463.3602
 20
-21.844
 11
463.3602
 21
-22.1486
  0
ENDBLK
  0
BLOCK
  8
LAYER_1
  2
AIGNBL0102001F
 70
64
 10
0
 20
0
 30
0
  3
AIGNBL0102001F
  0
LINE
  8
LAYER_1
 10
464.3597
 20
-24.9611
 11
464.0489
 21
-24.9611
  0
LINE
  8
LAYER_1
 10
464.0489
 20
-24.9611
 11
464.0489
 21
-21.844
  0
LINE
  8
LAYER_1
 10
464.0489
 20
-21.844
 11
464.3597
 21
-21.844
  0
LINE
  8
LAYER_1
 10
464.3597
 20
-21.844
 11
464.3597
 21
-22.3098
  0
ARC
  8
LAYER_1
 10
465.2803
 20
-22.9011
 40
1.0941
 50
128.1836958
 51
147.2859099
  0
ARC
  8
LAYER_1
 10
465.1569
 20
-22.7182
 40
0.8743
 50
89.84136555
 51
129.2360821
  0
ARC
  8
LAYER_1
 10
465.1763
 20
-22.8084
 40
0.9645
 50
55.40618938
 51
91.01287696
  0
ARC
  8
LAYER_1
 10
465.2177
 20
-22.7126
 40
0.8625
 50
51.13485596
 51
54.05794089
  0
ARC
  8
LAYER_1
 10
465.1207
 20
-22.8271
 40
1.0124
 50
16.22871897
 51
50.92420687
  0
ARC
  8
LAYER_1
 10
464.5733
 20
-22.9977
 40
1.5858
 50
358.9632462
 51
16.62125051
  0
ARC
  8
LAYER_1
 10
464.4685
 20
-23.0705
 40
1.6908
 50
334.5014018
 51
1.495732148
  0
ARC
  8
LAYER_1
 10
465.1625
 20
-23.3496
 40
0.9455
 50
309.1096884
 51
331.663662
  0
ARC
  8
LAYER_1
 10
465.1509
 20
-23.3315
 40
0.9669
 50
269.1895987
 51
308.9638294
  0
ARC
  8
LAYER_1
 10
465.1379
 20
-23.415
 40
0.8833
 50
230.9835671
 51
269.9573107
  0
ARC
  8
LAYER_1
 10
465.0409
 20
-23.4958
 40
0.7598
 50
206.3007402
 51
232.8307134
  0
LINE
  8
LAYER_1
 10
464.3597
 20
-23.8325
 11
464.3597
 21
-24.9611
  0
ARC
  8
LAYER_1
 10
465.1312
 20
-23.3954
 40
0.6368
 50
309.5636748
 51
332.3251624
  0
ARC
  8
LAYER_1
 10
464.8071
 20
-23.2308
 40
1.0003
 50
332.5963649
 51
348.2856215
  0
ARC
  8
LAYER_1
 10
463.938
 20
-23.0516
 40
1.8877
 50
348.3166878
 51
0.7645015274
  0
ARC
  8
LAYER_1
 10
464.3314
 20
-22.9937
 40
1.4945
 50
358.7443527
 51
14.79207003
  0
ARC
  8
LAYER_1
 10
465.0892
 20
-22.7874
 40
0.7091
 50
14.31003923
 51
48.52072897
  0
ARC
  8
LAYER_1
 10
465.1504
 20
-22.7657
 40
0.6531
 50
51.2824441
 51
91.15613078
  0
ARC
  8
LAYER_1
 10
465.1297
 20
-22.8465
 40
0.7338
 50
89.41375603
 51
128.7259852
  0
ARC
  8
LAYER_1
 10
465.1802
 20
-22.893
 40
0.8018
 50
129.4660983
 51
169.0320752
  0
ARC
  8
LAYER_1
 10
465.7996
 20
-23.049
 40
1.4399
 50
167.6239949
 51
180.5238667
  0
ARC
  8
LAYER_1
 10
465.5678
 20
-23.1005
 40
1.2087
 50
178.1865097
 51
209.9182552
  0
ARC
  8
LAYER_1
 10
465.1273
 20
-23.3012
 40
0.7282
 50
213.5157524
 51
231.1607814
  0
ARC
  8
LAYER_1
 10
465.1186
 20
-23.3265
 40
0.7031
 50
230.4192347
 51
269.6808632
  0
ARC
  8
LAYER_1
 10
465.1248
 20
-23.366
 40
0.6637
 50
269.1303325
 51
308.3736494
  0
ENDBLK
  0
BLOCK
  8
LAYER_1
  2
AIGNBL01020020
 70
64
 10
0
 20
0
 30
0
  3
AIGNBL01020020
  0
LINE
  8
LAYER_1
 10
467.2913
 20
-23.9221
 11
467.2913
 21
-24.2983
  0
LINE
  8
LAYER_1
 10
467.2913
 20
-24.2983
 11
466.8472
 21
-24.2983
  0
LINE
  8
LAYER_1
 10
466.8472
 20
-24.2983
 11
466.8472
 21
-23.9221
  0
LINE
  8
LAYER_1
 10
466.8472
 20
-23.9221
 11
467.2913
 21
-23.9221
  0
ENDBLK
  0
BLOCK
  8
LAYER_1
  2
AIGNBL01010002
 70
64
 10
0
 20
0
 30
0
  3
AIGNBL01010002
  0
LINE
  8
LAYER_1
 10
339.2192
 20
-16.6014
 11
469.2192
 21
-16.6014
  0
LINE
  8
LAYER_1
 10
339.2192
 20
-26.6014
 11
469.2192
 21
-26.6014
  0
LINE
  8
LAYER_1
 10
339.2192
 20
-66.6014
 11
339.2192
 21
-16.6014
  0
LINE
  8
LAYER_1
 10
359.2192
 20
-66.6014
 11
359.2192
 21
-26.6014
  0
LINE
  8
LAYER_1
 10
424.2192
 20
-66.6014
 11
424.2192
 21
-26.6014
  0
LINE
  8
LAYER_1
 10
404.2192
 20
-66.6014
 11
404.2192
 21
-26.6014
  0
LINE
  8
LAYER_1
 10
339.2192
 20
-36.6014
 11
469.2192
 21
-36.6014
  0
LINE
  8
LAYER_1
 10
339.2192
 20
-46.6014
 11
469.2192
 21
-46.6014
  0
LINE
  8
LAYER_1
 10
339.2192
 20
-56.6014
 11
469.2192
 21
-56.6014
  0
LINE
  8
LAYER_1
 10
469.2192
 20
-66.6014
 11
192.2192
 21
-66.6014
  0
LINE
  8
LAYER_1
 10
192.2192
 20
-66.6014
 11
192.2192
 21
123.3986
  0
LINE
  8
LAYER_1
 10
192.2192
 20
123.3986
 11
469.2192
 21
123.3986
  0
LINE
  8
LAYER_1
 10
469.2192
 20
123.3986
 11
469.2192
 21
-66.6014
  0
ENDBLK
  0
BLOCK
  8
LAYER_1
  2
AIGNBL01010003
 70
64
 10
0
 20
0
 30
0
  3
AIGNBL01010003
  0
INSERT
  8
LAYER_1
  2
AIGNBL01020004
 10
0
 20
0
 30
0
  0
INSERT
  8
LAYER_1
  2
AIGNBL01020005
 10
0
 20
0
 30
0
  0
LINE
  8
LAYER_1
 10
364.2048
 20
-18.5813
 11
364.2048
 21
-19.3139
  0
LINE
  8
LAYER_1
 10
364.2048
 20
-19.3139
 11
366.1562
 21
-19.3139
  0
LINE
  8
LAYER_1
 10
366.1562
 20
-19.3139
 11
366.1562
 21
-19.5982
  0
LINE
  8
LAYER_1
 10
366.1562
 20
-19.5982
 11
363.723
 21
-19.5982
  0
LINE
  8
LAYER_1
 10
363.723
 20
-19.5982
 11
363.723
 21
-21.1415
  0
LINE
  8
LAYER_1
 10
363.723
 20
-21.1415
 11
364.5501
 21
-21.1415
  0
LINE
  8
LAYER_1
 10
364.5501
 20
-21.1415
 11
364.5501
 21
-20.3176
  0
LINE
  8
LAYER_1
 10
364.5501
 20
-20.3176
 11
366.1523
 21
-20.3176
  0
LINE
  8
LAYER_1
 10
366.1523
 20
-20.3176
 11
366.1523
 21
-21.9393
  0
LINE
  8
LAYER_1
 10
366.1523
 20
-21.9393
 11
367.0698
 21
-21.9393
  0
LINE
  8
LAYER_1
 10
367.0698
 20
-21.9393
 11
367.0698
 21
-20.3176
  0
LINE
  8
LAYER_1
 10
367.0698
 20
-20.3176
 11
368.6851
 21
-20.3176
  0
LINE
  8
LAYER_1
 10
368.6851
 20
-20.3176
 11
368.6851
 21
-21.1415
  0
LINE
  8
LAYER_1
 10
368.6851
 20
-21.1415
 11
369.5506
 21
-21.1415
  0
LINE
  8
LAYER_1
 10
369.5506
 20
-21.1415
 11
369.5506
 21
-19.5982
  0
LINE
  8
LAYER_1
 10
369.5506
 20
-19.5982
 11
367.0735
 21
-19.5982
  0
LINE
  8
LAYER_1
 10
367.0735
 20
-19.5982
 11
367.0735
 21
-19.3139
  0
LINE
  8
LAYER_1
 10
367.0735
 20
-19.3139
 11
369.0311
 21
-19.3139
  0
LINE
  8
LAYER_1
 10
369.0311
 20
-19.3139
 11
369.0311
 21
-18.5813
  0
LINE
  8
LAYER_1
 10
369.0311
 20
-18.5813
 11
364.2048
 21
-18.5813
  0
LINE
  8
LAYER_1
 10
364.7018
 20
-21.0377
 11
365.8815
 21
-21.0377
  0
LINE
  8
LAYER_1
 10
365.8815
 20
-21.0377
 11
365.8815
 21
-20.5723
  0
LINE
  8
LAYER_1
 10
365.8815
 20
-20.5723
 11
364.7018
 21
-20.5723
  0
LINE
  8
LAYER_1
 10
364.7018
 20
-20.5723
 11
364.7018
 21
-21.0377
  0
LINE
  8
LAYER_1
 10
364.5596
 20
-21.7428
 11
365.8814
 21
-21.7428
  0
LINE
  8
LAYER_1
 10
365.8814
 20
-21.7428
 11
365.8814
 21
-21.2775
  0
LINE
  8
LAYER_1
 10
365.8814
 20
-21.2775
 11
364.5596
 21
-21.2775
  0
LINE
  8
LAYER_1
 10
364.5596
 20
-21.2775
 11
364.5596
 21
-21.7428
  0
LINE
  8
LAYER_1
 10
367.3404
 20
-21.0377
 11
368.5202
 21
-21.0377
  0
LINE
  8
LAYER_1
 10
368.5202
 20
-21.0377
 11
368.5202
 21
-20.5723
  0
LINE
  8
LAYER_1
 10
368.5202
 20
-20.5723
 11
367.3404
 21
-20.5723
  0
LINE
  8
LAYER_1
 10
367.3404
 20
-20.5723
 11
367.3404
 21
-21.0377
  0
LINE
  8
LAYER_1
 10
367.3404
 20
-21.7428
 11
368.6687
 21
-21.7428
  0
LINE
  8
LAYER_1
 10
368.6687
 20
-21.7428
 11
368.6687
 21
-21.2775
  0
LINE
  8
LAYER_1
 10
368.6687
 20
-21.2775
 11
367.3404
 21
-21.2775
  0
LINE
  8
LAYER_1
 10
367.3404
 20
-21.2775
 11
367.3404
 21
-21.7428
  0
INSERT
  8
LAYER_1
  2
AIGNBL01020006
 10
0
 20
0
 30
0
  0
INSERT
  8
LAYER_1
  2
AIGNBL01020007
 10
0
 20
0
 30
0
  0
INSERT
  8
LAYER_1
  2
AIGNBL01020008
 10
0
 20
0
 30
0
  0
LINE
  8
LAYER_1
 10
341.8674
 20
-18.5497
 11
343.4079
 21
-18.5497
  0
LINE
  8
LAYER_1
 10
343.4079
 20
-18.5497
 11
345.5153
 21
-23.0672
  0
LINE
  8
LAYER_1
 10
345.5153
 20
-23.0672
 11
345.5153
 21
-22.298
  0
LINE
  8
LAYER_1
 10
345.5153
 20
-22.298
 11
347.0579
 21
-22.298
  0
LINE
  8
LAYER_1
 10
347.0579
 20
-22.298
 11
347.0579
 21
-24.6076
  0
LINE
  8
LAYER_1
 10
347.0579
 20
-24.6076
 11
344.7501
 21
-24.6076
  0
LINE
  8
LAYER_1
 10
344.7501
 20
-24.6076
 11
343.4039
 21
-21.7852
  0
LINE
  8
LAYER_1
 10
343.4039
 20
-21.7852
 11
343.4039
 21
-24.6076
  0
LINE
  8
LAYER_1
 10
343.4039
 20
-24.6076
 11
341.8674
 21
-24.6076
  0
LINE
  8
LAYER_1
 10
341.8674
 20
-24.6076
 11
341.8674
 21
-18.5497
  0
INSERT
  8
LAYER_1
  2
AIGNBL01020009
 10
0
 20
0
 30
0
  0
ARC
  8
LAYER_1
 10
395.596
 20
-22.2305
 40
1.991
 50
311.8582543
 51
336.6691081
  0
ARC
  8
LAYER_1
 10
395.1872
 20
-22.027
 40
2.4471
 50
336.0851003
 51
355.051428
  0
LINE
  8
LAYER_1
 10
397.6252
 20
-22.2381
 11
397.6252
 21
-19.0376
  0
LINE
  8
LAYER_1
 10
397.6252
 20
-19.0376
 11
396.439
 21
-19.0376
  0
LINE
  8
LAYER_1
 10
396.439
 20
-19.0376
 11
396.439
 21
-21.9035
  0
ARC
  8
LAYER_1
 10
394.9224
 20
-21.8627
 40
1.5172
 50
331.8855724
 51
358.4603658
  0
ARC
  8
LAYER_1
 10
395.7102
 20
-22.2079
 40
0.6631
 50
317.1647517
 51
326.1018195
  0
ARC
  8
LAYER_1
 10
394.7639
 20
-21.2533
 40
2.0068
 50
296.3435913
 51
315.5475613
  0
LINE
  8
LAYER_1
 10
395.6544
 20
-23.0517
 11
395.6544
 21
-24.2465
  0
ARC
  8
LAYER_1
 10
395.7026
 20
-23.0786
 40
1.1689
 50
267.6356835
 51
281.1038486
  0
ARC
  8
LAYER_1
 10
395.5768
 20
-22.3638
 40
1.8946
 50
280.6747965
 51
303.9554361
  0
ARC
  8
LAYER_1
 10
395.2907
 20
-21.8813
 40
2.4549
 50
303.2046092
 51
311.7270832
  0
ARC
  8
LAYER_1
 10
383.8314
 20
-21.2252
 40
1.9121
 50
200.4586691
 51
212.6743406
  0
ARC
  8
LAYER_1
 10
360.8031
 20
-29.6204
 40
22.5988
 50
19.99339328
 51
22.95988574
  0
ARC
  8
LAYER_1
 10
378.6067
 20
-22.1833
 40
3.306
 50
24.64219126
 51
41.47959493
  0
ARC
  8
LAYER_1
 10
379.6806
 20
-21.3028
 40
1.9189
 50
43.02136381
 51
66.4525374
  0
ARC
  8
LAYER_1
 10
379.7184
 20
-21.2605
 40
1.8651
 50
66.99773131
 51
74.27463074
  0
ARC
  8
LAYER_1
 10
379.368
 20
-22.5551
 40
3.2062
 50
74.51769902
 51
94.05431675
  0
ARC
  8
LAYER_1
 10
379.4093
 20
-23.447
 40
4.0989
 50
93.74814268
 51
109.4943972
  0
ARC
  8
LAYER_1
 10
379.2887
 20
-23.2382
 40
3.8621
 50
108.8424771
 51
117.7754332
  0
ARC
  8
LAYER_1
 10
368.4598
 20
-19.7018
 40
9.0299
 50
353.3553696
 51
359.2433099
  0
ARC
  8
LAYER_1
 10
374.571
 20
-20.4664
 40
2.8719
 50
340.8487615
 51
354.3996639
  0
ARC
  8
LAYER_1
 10
375.9584
 20
-20.8526
 40
1.4373
 50
308.1864107
 51
337.2448854
  0
ARC
  8
LAYER_1
 10
376.1592
 20
-21.149
 40
1.0806
 50
298.9349453
 51
309.5336083
  0
LINE
  8
LAYER_1
 10
376.682
 20
-22.0947
 11
376.682
 21
-23.3672
  0
ARC
  8
LAYER_1
 10
376.106
 20
-20.7972
 40
2.6338
 50
282.6333893
 51
311.7909383
  0
ARC
  8
LAYER_1
 10
376.7215
 20
-21.5796
 40
1.6414
 50
313.9717018
 51
325.1049997
  0
ARC
  8
LAYER_1
 10
376.0497
 20
-21.1555
 40
2.4353
 50
325.9629591
 51
337.240755
  0
ARC
  8
LAYER_1
 10
374.4206
 20
-20.4649
 40
4.2047
 50
337.1507466
 51
344.9155216
  0
ARC
  8
LAYER_1
 10
372.5251
 20
-19.9354
 40
6.1727
 50
344.7493495
 51
353.2524826
  0
ARC
  8
LAYER_1
 10
379.4493
 20
-22.4387
 40
1.9473
 50
90.61876246
 51
114.0685798
  0
ARC
  8
LAYER_1
 10
379.4234
 20
-21.5819
 40
1.0904
 50
61.47137985
 51
89.74597004
  0
ARC
  8
LAYER_1
 10
379.5706
 20
-21.2465
 40
0.7261
 50
38.26904966
 51
59.03310735
  0
ARC
  8
LAYER_1
 10
378.9205
 20
-21.7504
 40
1.5486
 50
25.30110041
 51
38.00948986
  0
ARC
  8
LAYER_1
 10
373.9749
 20
-24.0791
 40
7.0151
 50
19.69687393
 51
25.23305814
  0
ARC
  8
LAYER_1
 10
386.9193
 20
-19.5279
 40
6.7064
 50
199.0311157
 51
214.1623346
  0
ARC
  8
LAYER_1
 10
385.1618
 20
-20.5836
 40
4.6607
 50
215.5556811
 51
216.3864882
  0
ARC
  8
LAYER_1
 10
383.6584
 20
-21.6584
 40
2.813
 50
216.9292895
 51
237.9542217
  0
ARC
  8
LAYER_1
 10
383.2331
 20
-22.3029
 40
2.0411
 50
238.4757313
 51
260.7201572
  0
ARC
  8
LAYER_1
 10
383.0318
 20
-23.1827
 40
1.1418
 50
263.5694348
 51
265.8958457
  0
LINE
  8
LAYER_1
 10
382.9501
 20
-24.3215
 11
382.9501
 21
-22.9626
  0
ARC
  8
LAYER_1
 10
383.3167
 20
-22.1353
 40
0.9049
 50
229.96988
 51
246.0987164
  0
ARC
  8
LAYER_1
 10
384.3907
 20
-20.8244
 40
2.5995
 50
213.456037
 51
230.4288522
  0
LINE
  8
LAYER_1
 10
382.0633
 20
-19.8679
 11
381.4477
 21
-19.8679
  0
LINE
  8
LAYER_1
 10
381.4477
 20
-19.8679
 11
381.2887
 21
-18.8697
  0
LINE
  8
LAYER_1
 10
381.2887
 20
-18.8697
 11
381.9051
 21
-18.8697
  0
LINE
  8
LAYER_1
 10
381.9051
 20
-18.8697
 11
382.0633
 21
-19.8679
  0
LINE
  8
LAYER_1
 10
382.9921
 20
-19.8679
 11
382.3761
 21
-19.8679
  0
LINE
  8
LAYER_1
 10
382.3761
 20
-19.8679
 11
382.2174
 21
-18.8697
  0
LINE
  8
LAYER_1
 10
382.2174
 20
-18.8697
 11
382.8338
 21
-18.8697
  0
LINE
  8
LAYER_1
 10
382.8338
 20
-18.8697
 11
382.9921
 21
-19.8679
  0
ARC
  8
LAYER_1
 10
383.3183
 20
-19.5509
 40
1.2599
 50
294.8524511
 51
325.7601155
  0
ARC
  8
LAYER_1
 10
383.5601
 20
-20.0703
 40
0.687
 50
280.6890826
 51
294.7646552
  0
LINE
  8
LAYER_1
 10
383.6875
 20
-20.7454
 11
383.6875
 21
-21.9955
  0
ARC
  8
LAYER_1
 10
383.3612
 20
-19.5589
 40
2.4583
 50
277.6270469
 51
307.9992312
  0
ARC
  8
LAYER_1
 10
383.759
 20
-20.1928
 40
1.7156
 50
310.5659115
 51
312.159519
  0
ARC
  8
LAYER_1
 10
383.2856
 20
-19.7388
 40
2.3704
 50
313.2747973
 51
336.1316144
  0
ARC
  8
LAYER_1
 10
382.5215
 20
-19.2844
 40
3.2547
 50
334.2596537
 51
342.7183427
  0
LINE
  8
LAYER_1
 10
385.6293
 20
-20.2513
 11
388.0564
 21
-20.2513
  0
ARC
  8
LAYER_1
 10
383.9915
 20
-20.4643
 40
4.0705
 50
346.9025011
 51
2.999941785
  0
ARC
  8
LAYER_1
 10
385.2963
 20
-20.7731
 40
2.7296
 50
327.7013818
 51
347.0097259
  0
ARC
  8
LAYER_1
 10
386.0912
 20
-21.2284
 40
1.8149
 50
312.9843281
 51
326.4412197
  0
ARC
  8
LAYER_1
 10
386.1351
 20
-21.2356
 40
1.7799
 50
298.6810039
 51
312.1080356
  0
ARC
  8
LAYER_1
 10
385.6921
 20
-20.4223
 40
2.7061
 50
288.722301
 51
298.6442188
  0
ARC
  8
LAYER_1
 10
385.0397
 20
-18.4461
 40
4.7871
 50
273.6032038
 51
288.52565
  0
ARC
  8
LAYER_1
 10
384.7344
 20
-16.1893
 40
7.0605
 50
268.3272302
 51
274.9251996
  0
LINE
  8
LAYER_1
 10
384.5283
 20
-23.2468
 11
384.5283
 21
-24.3762
  0
ARC
  8
LAYER_1
 10
384.9397
 20
-16.1249
 40
8.2616
 50
267.1455437
 51
278.4125604
  0
ARC
  8
LAYER_1
 10
385.3612
 20
-18.8424
 40
5.5117
 50
278.2115029
 51
291.6013334
  0
ARC
  8
LAYER_1
 10
386.2851
 20
-21.2815
 40
2.904
 50
292.3692145
 51
310.8515205
  0
ARC
  8
LAYER_1
 10
386.8714
 20
-22.0266
 40
1.9574
 50
312.1360864
 51
321.436068
  0
ARC
  8
LAYER_1
 10
386.3223
 20
-21.2624
 40
2.8745
 50
316.3423507
 51
335.9455414
  0
ARC
  8
LAYER_1
 10
384.9462
 20
-20.6098
 40
4.3972
 50
335.4890821
 51
350.5543308
  0
ARC
  8
LAYER_1
 10
382.2886
 20
-20.0879
 40
7.1048
 50
349.9197281
 51
2.135212313
  0
ARC
  8
LAYER_1
 10
382.287
 20
-19.9966
 40
7.1036
 50
1.398722959
 51
7.163049353
  0
LINE
  8
LAYER_1
 10
389.3352
 20
-19.1108
 11
384.6489
 21
-19.1108
  0
ARC
  8
LAYER_1
 10
379.5344
 20
-18.5618
 40
5.1439
 50
346.1210031
 51
353.873627
  0
ARC
  8
LAYER_1
 10
382.5149
 20
-19.3286
 40
2.0667
 50
333.2191461
 51
346.9369516
  0
ARC
  8
LAYER_1
 10
377.3581
 20
-106.0549
 40
86.6934
 50
78.78619818
 51
80.56721488
  0
LINE
  8
LAYER_1
 10
391.5663
 20
-20.5337
 11
391.5663
 21
-18.898
  0
LINE
  8
LAYER_1
 10
391.5663
 20
-18.898
 11
390.269
 21
-18.898
  0
LINE
  8
LAYER_1
 10
390.269
 20
-18.898
 11
390.269
 21
-24.3761
  0
LINE
  8
LAYER_1
 10
390.269
 20
-24.3761
 11
391.5663
 21
-24.3761
  0
LINE
  8
LAYER_1
 10
391.5663
 20
-24.3761
 11
391.5663
 21
-21.7819
  0
ARC
  8
LAYER_1
 10
391.7852
 20
-24.3524
 40
2.5798
 50
85.26775014
 51
94.86744205
  0
ARC
  8
LAYER_1
 10
391.52
 20
-28.0008
 40
6.2378
 50
76.32782001
 51
85.60477529
  0
ARC
  8
LAYER_1
 10
382.626
 20
-65.2082
 40
44.4934
 50
73.58727212
 51
76.52432327
  0
LINE
  8
LAYER_1
 10
395.1978
 20
-22.5279
 11
395.1978
 21
-21.2767
  0
ARC
  8
LAYER_1
 10
391.9879
 20
-31.3982
 40
10.6184
 50
72.40409508
 51
77.87934456
  0
ARC
  8
LAYER_1
 10
398.8619
 20
-20.905
 40
3.2372
 50
288.2676156
 51
307.571469
  0
ARC
  8
LAYER_1
 10
398.3782
 20
-19.5848
 40
4.6427
 50
274.0170413
 51
288.8286188
  0
ARC
  8
LAYER_1
 10
398.3782
 20
-20.38
 40
3.8498
 50
268.3636006
 51
274.8463176
  0
LINE
  8
LAYER_1
 10
398.2683
 20
-24.2283
 11
398.2683
 21
-18.8317
  0
LINE
  8
LAYER_1
 10
398.2683
 20
-18.8317
 11
399.5571
 21
-18.8317
  0
LINE
  8
LAYER_1
 10
399.5571
 20
-18.8317
 11
399.5571
 21
-22.8266
  0
ARC
  8
LAYER_1
 10
399.4689
 20
-22.1219
 40
0.7102
 50
277.1312516
 51
295.9598069
  0
ARC
  8
LAYER_1
 10
399.252
 20
-21.6746
 40
1.2073
 50
295.9211317
 51
325.4874792
  0
ARC
  8
LAYER_1
 10
398.8869
 20
-21.3464
 40
1.6953
 50
323.3409614
 51
327.8529278
  0
ARC
  8
LAYER_1
 10
399.1244
 20
-21.5213
 40
1.4014
 50
328.7418196
 51
343.5600414
  0
ARC
  8
LAYER_1
 10
397.9122
 20
-21.1581
 40
2.6668
 50
343.4460064
 51
352.9523201
  0
ARC
  8
LAYER_1
 10
395.8445
 20
-20.896
 40
4.751
 50
352.8751095
 51
4.074034293
  0
LINE
  8
LAYER_1
 10
400.5835
 20
-20.5585
 11
401.769
 21
-20.5585
  0
ARC
  8
LAYER_1
 10
396.0236
 20
-20.7917
 40
5.7501
 50
348.7693155
 51
2.324417275
  0
ARC
  8
LAYER_1
 10
398.1197
 20
-21.2139
 40
3.6119
 50
332.2810934
 51
348.8631434
  0
ARC
  8
LAYER_1
 10
399.5975
 20
-21.9483
 40
1.9625
 50
309.1216995
 51
331.1911364
  0
ENDBLK
  0
BLOCK
  8
LAYER_1
  2
AIGNBL0101000A
 70
64
 10
0
 20
0
 30
0
  3
AIGNBL0101000A
  0
INSERT
  8
LAYER_1
  2
AIGNBL0102000B
 10
0
 20
0
 30
0
  0
INSERT
  8
LAYER_1
  2
AIGNBL0102000C
 10
0
 20
0
 30
0
  0
INSERT
  8
LAYER_1
  2
AIGNBL0102000D
 10
0
 20
0
 30
0
  0
INSERT
  8
LAYER_1
  2
AIGNBL0102000E
 10
0
 20
0
 30
0
  0
INSERT
  8
LAYER_1
  2
AIGNBL0102000F
 10
0
 20
0
 30
0
  0
INSERT
  8
LAYER_1
  2
AIGNBL01020010
 10
0
 20
0
 30
0
  0
INSERT
  8
LAYER_1
  2
AIGNBL01020011
 10
0
 20
0
 30
0
  0
INSERT
  8
LAYER_1
  2
AIGNBL01020012
 10
0
 20
0
 30
0
  0
INSERT
  8
LAYER_1
  2
AIGNBL01020013
 10
0
 20
0
 30
0
  0
INSERT
  8
LAYER_1
  2
AIGNBL01020014
 10
0
 20
0
 30
0
  0
INSERT
  8
LAYER_1
  2
AIGNBL01020015
 10
0
 20
0
 30
0
  0
INSERT
  8
LAYER_1
  2
AIGNBL01020016
 10
0
 20
0
 30
0
  0
INSERT
  8
LAYER_1
  2
AIGNBL01020017
 10
0
 20
0
 30
0
  0
INSERT
  8
LAYER_1
  2
AIGNBL01020018
 10
0
 20
0
 30
0
  0
INSERT
  8
LAYER_1
  2
AIGNBL01020019
 10
0
 20
0
 30
0
  0
INSERT
  8
LAYER_1
  2
AIGNBL0102001A
 10
0
 20
0
 30
0
  0
INSERT
  8
LAYER_1
  2
AIGNBL0102001B
 10
0
 20
0
 30
0
  0
INSERT
  8
LAYER_1
  2
AIGNBL0102001C
 10
0
 20
0
 30
0
  0
INSERT
  8
LAYER_1
  2
AIGNBL0102001D
 10
0
 20
0
 30
0
  0
INSERT
  8
LAYER_1
  2
AIGNBL0102001E
 10
0
 20
0
 30
0
  0
INSERT
  8
LAYER_1
  2
AIGNBL0102001F
 10
0
 20
0
 30
0
  0
INSERT
  8
LAYER_1
  2
AIGNBL01020020
 10
0
 20
0
 30
0
  0
ENDBLK
  0
BLOCK
  8
LAYER_2
  2
AIGNBL02010002
 70
64
 10
0
 20
0
 30
0
  3
AIGNBL02010002
  0
ENDBLK
  0
BLOCK
  8
LAYER_2
  2
AIGNBL02010003
 70
64
 10
0
 20
0
 30
0
  3
AIGNBL02010003
  0
ENDBLK
  0
BLOCK
  8
LAYER_2
  2
AIGNBL02010004
 70
64
 10
0
 20
0
 30
0
  3
AIGNBL02010004
  0
ENDBLK
  0
BLOCK
  8
LAYER_2
  2
AIGNBL02010005
 70
64
 10
0
 20
0
 30
0
  3
AIGNBL02010005
  0
ENDBLK
  0
BLOCK
  8
LAYER_2
  2
AIGNBL02010006
 70
64
 10
0
 20
0
 30
0
  3
AIGNBL02010006
  0
ENDBLK
  0
BLOCK
  8
LAYER_2
  2
AIGNBL02010007
 70
64
 10
0
 20
0
 30
0
  3
AIGNBL02010007
  0
ENDBLK
  0
BLOCK
  8
LAYER_2
  2
AIGNBL02010008
 70
64
 10
0
 20
0
 30
0
  3
AIGNBL02010008
  0
LINE
  8
LAYER_2
 10
400.1767
 20
29.1615
 11
397.1767
 21
29.1615
  0
LINE
  8
LAYER_2
 10
397.1767
 20
29.1615
 11
397.1767
 21
22.1615
  0
LINE
  8
LAYER_2
 10
397.1767
 20
22.1615
 11
400.1767
 21
22.1615
  0
LINE
  8
LAYER_2
 10
400.1767
 20
22.1615
 11
400.1767
 21
29.1615
  0
ENDBLK
  0
BLOCK
  8
LAYER_2
  2
AIGNBL02010009
 70
64
 10
0
 20
0
 30
0
  3
AIGNBL02010009
  0
LINE
  8
LAYER_2
 10
293.5811
 20
26.6615
 11
305.5811
 21
26.6615
  0
LINE
  8
LAYER_2
 10
305.5811
 20
26.6615
 11
305.5811
 21
22.1615
  0
LINE
  8
LAYER_2
 10
305.5811
 20
22.1615
 11
293.5811
 21
22.1615
  0
LINE
  8
LAYER_2
 10
293.5811
 20
22.1615
 11
293.5811
 21
26.6615
  0
ENDBLK
  0
BLOCK
  8
LAYER_2
  2
AIGNBL0201000A
 70
64
 10
0
 20
0
 30
0
  3
AIGNBL0201000A
  0
ENDBLK
  0
BLOCK
  8
LAYER_2
  2
AIGNBL0201000B
 70
64
 10
0
 20
0
 30
0
  3
AIGNBL0201000B
  0
ENDBLK
  0
BLOCK
  8
LAYER_2
  2
AIGNBL0201000C
 70
64
 10
0
 20
0
 30
0
  3
AIGNBL0201000C
  0
ENDBLK
  0
BLOCK
  8
LAYER_2
  2
AIGNBL0201000D
 70
64
 10
0
 20
0
 30
0
  3
AIGNBL0201000D
  0
LINE
  8
LAYER_2
 10
274.5811
 20
-10.3708
 11
324.5811
 21
-10.3708
  0
LINE
  8
LAYER_2
 10
324.5811
 20
-10.3708
 11
324.5811
 21
-40.3708
  0
LINE
  8
LAYER_2
 10
324.5811
 20
-40.3708
 11
274.5811
 21
-40.3708
  0
LINE
  8
LAYER_2
 10
274.5811
 20
-40.3708
 11
274.5811
 21
-10.3708
  0
ENDBLK
  0
BLOCK
  8
LAYER_2
  2
AIGNBL0201000E
 70
64
 10
0
 20
0
 30
0
  3
AIGNBL0201000E
  0
LINE
  8
LAYER_2
 10
283.5811
 20
-40.3708
 11
315.5811
 21
-40.3708
  0
LINE
  8
LAYER_2
 10
315.5811
 20
-40.3708
 11
315.5811
 21
-49.3708
  0
LINE
  8
LAYER_2
 10
315.5811
 20
-49.3708
 11
283.5811
 21
-49.3708
  0
LINE
  8
LAYER_2
 10
283.5811
 20
-49.3708
 11
283.5811
 21
-40.3708
  0
ENDBLK
  0
BLOCK
  8
LAYER_2
  2
AIGNBL0201000F
 70
64
 10
0
 20
0
 30
0
  3
AIGNBL0201000F
  0
LINE
  8
LAYER_2
 10
293.5811
 20
-49.3708
 11
305.5811
 21
-49.3708
  0
LINE
  8
LAYER_2
 10
305.5811
 20
-49.3708
 11
305.5811
 21
-46.3708
  0
LINE
  8
LAYER_2
 10
305.5811
 20
-46.3708
 11
293.5811
 21
-46.3708
  0
LINE
  8
LAYER_2
 10
293.5811
 20
-46.3708
 11
293.5811
 21
-49.3708
  0
ENDBLK
  0
BLOCK
  8
LAYER_2
  2
AIGNBL02010010
 70
64
 10
0
 20
0
 30
0
  3
AIGNBL02010010
  0
LINE
  8
LAYER_2
 10
278.5811
 20
-10.3708
 11
320.5811
 21
-10.3708
  0
LINE
  8
LAYER_2
 10
320.5811
 20
-10.3708
 11
320.5811
 21
-27.3708
  0
LINE
  8
LAYER_2
 10
320.5811
 20
-27.3708
 11
278.5811
 21
-27.3708
  0
LINE
  8
LAYER_2
 10
278.5811
 20
-27.3708
 11
278.5811
 21
-10.3708
  0
ENDBLK
  0
BLOCK
  8
LAYER_2
  2
AIGNBL02010011
 70
64
 10
0
 20
0
 30
0
  3
AIGNBL02010011
  0
LINE
  8
LAYER_2
 10
278.5811
 20
-10.3708
 11
320.5811
 21
-10.3708
  0
LINE
  8
LAYER_2
 10
320.5811
 20
-10.3708
 11
320.5811
 21
-10.7708
  0
LINE
  8
LAYER_2
 10
320.5811
 20
-10.7708
 11
278.5811
 21
-10.7708
  0
LINE
  8
LAYER_2
 10
278.5811
 20
-10.7708
 11
278.5811
 21
-10.3708
  0
ENDBLK
  0
BLOCK
  8
LAYER_2
  2
AIGNBL02010012
 70
64
 10
0
 20
0
 30
0
  3
AIGNBL02010012
  0
LINE
  8
LAYER_2
 10
280.5811
 20
-11.2708
 11
280.5811
 21
-10.7708
  0
LINE
  8
LAYER_2
 10
280.5811
 20
-10.7708
 11
278.5811
 21
-10.7708
  0
LINE
  8
LAYER_2
 10
278.5811
 20
-10.7708
 11
278.5811
 21
-11.2708
  0
ENDBLK
  0
BLOCK
  8
LAYER_2
  2
AIGNBL02010013
 70
64
 10
0
 20
0
 30
0
  3
AIGNBL02010013
  0
LINE
  8
LAYER_2
 10
278.5811
 20
-12.2708
 11
278.5811
 21
-27.3708
  0
ENDBLK
  0
BLOCK
  8
LAYER_2
  2
AIGNBL02010014
 70
64
 10
0
 20
0
 30
0
  3
AIGNBL02010014
  0
LINE
  8
LAYER_2
 10
280.5811
 20
-25.3708
 11
280.5811
 21
-12.2708
  0
ENDBLK
  0
BLOCK
  8
LAYER_2
  2
AIGNBL02010015
 70
64
 10
0
 20
0
 30
0
  3
AIGNBL02010015
  0
ARC
  8
LAYER_2
 10
278.5687
 20
-12.1475
 40
0.1239
 50
275.7587691
 51
324.8490524
  0
ARC
  8
LAYER_2
 10
278.2988
 20
-11.948
 40
0.4596
 50
323.8855414
 51
346.4884017
  0
ARC
  8
LAYER_2
 10
277.6972
 20
-11.78
 40
1.084
 50
345.2868084
 51
0.488388166
  0
ARC
  8
LAYER_2
 10
277.7853
 20
-11.7522
 40
0.996
 50
358.9326052
 51
18.32546933
  0
ARC
  8
LAYER_2
 10
278.5033
 20
-11.4907
 40
0.2333
 50
12.7815794
 51
70.51168872
  0
ENDBLK
  0
BLOCK
  8
LAYER_2
  2
AIGNBL02010016
 70
64
 10
0
 20
0
 30
0
  3
AIGNBL02010016
  0
ARC
  8
LAYER_2
 10
280.5936
 20
-12.1475
 40
0.1239
 50
215.1427819
 51
264.2247767
  0
ARC
  8
LAYER_2
 10
280.8637
 20
-11.9478
 40
0.4598
 50
193.521894
 51
216.1138042
  0
ARC
  8
LAYER_2
 10
281.4644
 20
-11.78
 40
1.0834
 50
179.5128082
 51
194.7227548
  0
ARC
  8
LAYER_2
 10
281.3766
 20
-11.7523
 40
0.9956
 50
161.6651742
 51
181.0651489
  0
ARC
  8
LAYER_2
 10
280.659
 20
-11.4908
 40
0.2334
 50
109.5102277
 51
167.2095694
  0
ENDBLK
  0
BLOCK
  8
LAYER_2
  2
AIGNBL02010017
 70
64
 10
0
 20
0
 30
0
  3
AIGNBL02010017
  0
LINE
  8
LAYER_2
 10
290.5811
 20
-11.2708
 11
290.5811
 21
-10.7708
  0
LINE
  8
LAYER_2
 10
290.5811
 20
-10.7708
 11
288.5811
 21
-10.7708
  0
LINE
  8
LAYER_2
 10
288.5811
 20
-10.7708
 11
288.5811
 21
-11.2708
  0
ENDBLK
  0
BLOCK
  8
LAYER_2
  2
AIGNBL02010018
 70
64
 10
0
 20
0
 30
0
  3
AIGNBL02010018
  0
LINE
  8
LAYER_2
 10
288.5811
 20
-12.2708
 11
288.5811
 21
-25.3708
  0
ENDBLK
  0
BLOCK
  8
LAYER_2
  2
AIGNBL02010019
 70
64
 10
0
 20
0
 30
0
  3
AIGNBL02010019
  0
ENDBLK
  0
BLOCK
  8
LAYER_2
  2
AIGNBL0201001A
 70
64
 10
0
 20
0
 30
0
  3
AIGNBL0201001A
  0
LINE
  8
LAYER_2
 10
290.5811
 20
-25.3708
 11
290.5811
 21
-12.2708
  0
ENDBLK
  0
BLOCK
  8
LAYER_2
  2
AIGNBL0201001B
 70
64
 10
0
 20
0
 30
0
  3
AIGNBL0201001B
  0
ARC
  8
LAYER_2
 10
288.5687
 20
-12.1475
 40
0.1239
 50
275.7587691
 51
324.8490524
  0
ARC
  8
LAYER_2
 10
288.2988
 20
-11.948
 40
0.4596
 50
323.8855414
 51
346.4884017
  0
ARC
  8
LAYER_2
 10
287.6972
 20
-11.78
 40
1.084
 50
345.2868084
 51
0.488388166
  0
ARC
  8
LAYER_2
 10
287.7853
 20
-11.7522
 40
0.996
 50
358.9326052
 51
18.32546933
  0
ARC
  8
LAYER_2
 10
288.5033
 20
-11.4907
 40
0.2333
 50
12.7815794
 51
70.51168872
  0
ENDBLK
  0
BLOCK
  8
LAYER_2
  2
AIGNBL0201001C
 70
64
 10
0
 20
0
 30
0
  3
AIGNBL0201001C
  0
ARC
  8
LAYER_2
 10
290.5936
 20
-12.1475
 40
0.1239
 50
215.1427819
 51
264.2247767
  0
ARC
  8
LAYER_2
 10
290.8637
 20
-11.9478
 40
0.4598
 50
193.521894
 51
216.1138042
  0
ARC
  8
LAYER_2
 10
291.4644
 20
-11.78
 40
1.0834
 50
179.5128082
 51
194.7227548
  0
ARC
  8
LAYER_2
 10
291.3766
 20
-11.7523
 40
0.9956
 50
161.6651742
 51
181.0651489
  0
ARC
  8
LAYER_2
 10
290.659
 20
-11.4908
 40
0.2334
 50
109.5102277
 51
167.2095694
  0
ENDBLK
  0
BLOCK
  8
LAYER_2
  2
AIGNBL0201001D
 70
64
 10
0
 20
0
 30
0
  3
AIGNBL0201001D
  0
LINE
  8
LAYER_2
 10
300.5811
 20
-11.2708
 11
300.5811
 21
-10.7708
  0
LINE
  8
LAYER_2
 10
300.5811
 20
-10.7708
 11
298.5811
 21
-10.7708
  0
LINE
  8
LAYER_2
 10
298.5811
 20
-10.7708
 11
298.5811
 21
-11.2708
  0
ENDBLK
  0
BLOCK
  8
LAYER_2
  2
AIGNBL0201001E
 70
64
 10
0
 20
0
 30
0
  3
AIGNBL0201001E
  0
LINE
  8
LAYER_2
 10
298.5811
 20
-12.2708
 11
298.5811
 21
-25.3708
  0
ENDBLK
  0
BLOCK
  8
LAYER_2
  2
AIGNBL0201001F
 70
64
 10
0
 20
0
 30
0
  3
AIGNBL0201001F
  0
LINE
  8
LAYER_2
 10
300.5811
 20
-25.3708
 11
300.5811
 21
-12.2708
  0
ENDBLK
  0
BLOCK
  8
LAYER_2
  2
AIGNBL02010020
 70
64
 10
0
 20
0
 30
0
  3
AIGNBL02010020
  0
ARC
  8
LAYER_2
 10
298.5687
 20
-12.1475
 40
0.1239
 50
275.7587691
 51
324.8490524
  0
ARC
  8
LAYER_2
 10
298.2988
 20
-11.948
 40
0.4596
 50
323.8855414
 51
346.4884017
  0
ARC
  8
LAYER_2
 10
297.6972
 20
-11.78
 40
1.084
 50
345.2868084
 51
0.488388166
  0
ARC
  8
LAYER_2
 10
297.7853
 20
-11.7522
 40
0.996
 50
358.9326052
 51
18.32546933
  0
ARC
  8
LAYER_2
 10
298.5033
 20
-11.4907
 40
0.2333
 50
12.7815794
 51
70.51168872
  0
ENDBLK
  0
BLOCK
  8
LAYER_2
  2
AIGNBL02010021
 70
64
 10
0
 20
0
 30
0
  3
AIGNBL02010021
  0
ARC
  8
LAYER_2
 10
300.5936
 20
-12.1475
 40
0.1239
 50
215.1427819
 51
264.2247767
  0
ARC
  8
LAYER_2
 10
300.8637
 20
-11.9478
 40
0.4598
 50
193.521894
 51
216.1138042
  0
ARC
  8
LAYER_2
 10
301.4644
 20
-11.78
 40
1.0834
 50
179.5128082
 51
194.7227548
  0
ARC
  8
LAYER_2
 10
301.3766
 20
-11.7523
 40
0.9956
 50
161.6651742
 51
181.0651489
  0
ARC
  8
LAYER_2
 10
300.659
 20
-11.4908
 40
0.2334
 50
109.5102277
 51
167.2095694
  0
ENDBLK
  0
BLOCK
  8
LAYER_2
  2
AIGNBL02010022
 70
64
 10
0
 20
0
 30
0
  3
AIGNBL02010022
  0
LINE
  8
LAYER_2
 10
310.5811
 20
-11.2708
 11
310.5811
 21
-10.7708
  0
LINE
  8
LAYER_2
 10
310.5811
 20
-10.7708
 11
308.5811
 21
-10.7708
  0
LINE
  8
LAYER_2
 10
308.5811
 20
-10.7708
 11
308.5811
 21
-11.2708
  0
ENDBLK
  0
BLOCK
  8
LAYER_2
  2
AIGNBL02010023
 70
64
 10
0
 20
0
 30
0
  3
AIGNBL02010023
  0
LINE
  8
LAYER_2
 10
308.5811
 20
-12.2708
 11
308.5811
 21
-25.3708
  0
ENDBLK
  0
BLOCK
  8
LAYER_2
  2
AIGNBL02010024
 70
64
 10
0
 20
0
 30
0
  3
AIGNBL02010024
  0
LINE
  8
LAYER_2
 10
310.5811
 20
-25.3708
 11
310.5811
 21
-12.2708
  0
ENDBLK
  0
BLOCK
  8
LAYER_2
  2
AIGNBL02010025
 70
64
 10
0
 20
0
 30
0
  3
AIGNBL02010025
  0
ARC
  8
LAYER_2
 10
308.5687
 20
-12.1475
 40
0.1239
 50
275.7587691
 51
324.8490524
  0
ARC
  8
LAYER_2
 10
308.2988
 20
-11.948
 40
0.4596
 50
323.8855414
 51
346.4884017
  0
ARC
  8
LAYER_2
 10
307.6972
 20
-11.78
 40
1.084
 50
345.2868084
 51
0.488388166
  0
ARC
  8
LAYER_2
 10
307.7853
 20
-11.7522
 40
0.996
 50
358.9326052
 51
18.32546933
  0
ARC
  8
LAYER_2
 10
308.5033
 20
-11.4907
 40
0.2333
 50
12.7815794
 51
70.51168872
  0
ENDBLK
  0
BLOCK
  8
LAYER_2
  2
AIGNBL02010026
 70
64
 10
0
 20
0
 30
0
  3
AIGNBL02010026
  0
ARC
  8
LAYER_2
 10
310.5936
 20
-12.1475
 40
0.1239
 50
215.1427819
 51
264.2247767
  0
ARC
  8
LAYER_2
 10
310.8637
 20
-11.9478
 40
0.4598
 50
193.521894
 51
216.1138042
  0
ARC
  8
LAYER_2
 10
311.4644
 20
-11.78
 40
1.0834
 50
179.5128082
 51
194.7227548
  0
ARC
  8
LAYER_2
 10
311.3766
 20
-11.7523
 40
0.9956
 50
161.6651742
 51
181.0651489
  0
ARC
  8
LAYER_2
 10
310.659
 20
-11.4908
 40
0.2334
 50
109.5102277
 51
167.2095694
  0
ENDBLK
  0
BLOCK
  8
LAYER_2
  2
AIGNBL02010027
 70
64
 10
0
 20
0
 30
0
  3
AIGNBL02010027
  0
LINE
  8
LAYER_2
 10
320.5811
 20
-11.2708
 11
320.5811
 21
-10.7708
  0
LINE
  8
LAYER_2
 10
320.5811
 20
-10.7708
 11
318.5811
 21
-10.7708
  0
LINE
  8
LAYER_2
 10
318.5811
 20
-10.7708
 11
318.5811
 21
-11.2708
  0
ENDBLK
  0
BLOCK
  8
LAYER_2
  2
AIGNBL02010028
 70
64
 10
0
 20
0
 30
0
  3
AIGNBL02010028
  0
LINE
  8
LAYER_2
 10
318.5811
 20
-12.2708
 11
318.5811
 21
-25.3708
  0
ENDBLK
  0
BLOCK
  8
LAYER_2
  2
AIGNBL02010029
 70
64
 10
0
 20
0
 30
0
  3
AIGNBL02010029
  0
LINE
  8
LAYER_2
 10
320.5811
 20
-27.3708
 11
320.5811
 21
-12.2708
  0
ENDBLK
  0
BLOCK
  8
LAYER_2
  2
AIGNBL0201002A
 70
64
 10
0
 20
0
 30
0
  3
AIGNBL0201002A
  0
ARC
  8
LAYER_2
 10
318.5687
 20
-12.1475
 40
0.1239
 50
275.7587691
 51
324.8490524
  0
ARC
  8
LAYER_2
 10
318.2988
 20
-11.948
 40
0.4596
 50
323.8855414
 51
346.4884017
  0
ARC
  8
LAYER_2
 10
317.6972
 20
-11.78
 40
1.084
 50
345.2868084
 51
0.488388166
  0
ARC
  8
LAYER_2
 10
317.7853
 20
-11.7522
 40
0.996
 50
358.9326052
 51
18.32546933
  0
ARC
  8
LAYER_2
 10
318.5033
 20
-11.4907
 40
0.2333
 50
12.7815794
 51
70.51168872
  0
ENDBLK
  0
BLOCK
  8
LAYER_2
  2
AIGNBL0201002B
 70
64
 10
0
 20
0
 30
0
  3
AIGNBL0201002B
  0
ARC
  8
LAYER_2
 10
320.5936
 20
-12.1475
 40
0.1239
 50
215.1427819
 51
264.2247767
  0
ARC
  8
LAYER_2
 10
320.8637
 20
-11.9478
 40
0.4598
 50
193.521894
 51
216.1138042
  0
ARC
  8
LAYER_2
 10
321.4644
 20
-11.78
 40
1.0834
 50
179.5128082
 51
194.7227548
  0
ARC
  8
LAYER_2
 10
321.3766
 20
-11.7523
 40
0.9956
 50
161.6651742
 51
181.0651489
  0
ARC
  8
LAYER_2
 10
320.659
 20
-11.4908
 40
0.2334
 50
109.5102277
 51
167.2095694
  0
ENDBLK
  0
BLOCK
  8
LAYER_2
  2
AIGNBL0201002C
 70
64
 10
0
 20
0
 30
0
  3
AIGNBL0201002C
  0
LINE
  8
LAYER_2
 10
318.5811
 20
-25.3708
 11
310.5811
 21
-25.3708
  0
ENDBLK
  0
BLOCK
  8
LAYER_2
  2
AIGNBL0201002D
 70
64
 10
0
 20
0
 30
0
  3
AIGNBL0201002D
  0
LINE
  8
LAYER_2
 10
308.5811
 20
-25.3708
 11
300.5811
 21
-25.3708
  0
ENDBLK
  0
BLOCK
  8
LAYER_2
  2
AIGNBL0201002E
 70
64
 10
0
 20
0
 30
0
  3
AIGNBL0201002E
  0
LINE
  8
LAYER_2
 10
298.5811
 20
-25.3708
 11
290.5811
 21
-25.3708
  0
ENDBLK
  0
BLOCK
  8
LAYER_2
  2
AIGNBL0201002F
 70
64
 10
0
 20
0
 30
0
  3
AIGNBL0201002F
  0
LINE
  8
LAYER_2
 10
288.5811
 20
-25.3708
 11
280.5811
 21
-25.3708
  0
ENDBLK
  0
BLOCK
  8
LAYER_2
  2
AIGNBL02010030
 70
64
 10
0
 20
0
 30
0
  3
AIGNBL02010030
  0
LINE
  8
LAYER_2
 10
280.5811
 20
-19.9708
 11
288.5811
 21
-19.9708
  0
ENDBLK
  0
BLOCK
  8
LAYER_2
  2
AIGNBL02010031
 70
64
 10
0
 20
0
 30
0
  3
AIGNBL02010031
  0
LINE
  8
LAYER_2
 10
290.5811
 20
-19.9708
 11
298.5811
 21
-19.9708
  0
ENDBLK
  0
BLOCK
  8
LAYER_2
  2
AIGNBL02010032
 70
64
 10
0
 20
0
 30
0
  3
AIGNBL02010032
  0
LINE
  8
LAYER_2
 10
300.5811
 20
-19.9708
 11
308.5811
 21
-19.9708
  0
ENDBLK
  0
BLOCK
  8
LAYER_2
  2
AIGNBL02010033
 70
64
 10
0
 20
0
 30
0
  3
AIGNBL02010033
  0
LINE
  8
LAYER_2
 10
310.5811
 20
-19.9708
 11
318.5811
 21
-19.9708
  0
ENDBLK
  0
BLOCK
  8
LAYER_2
  2
AIGNBL02010034
 70
64
 10
0
 20
0
 30
0
  3
AIGNBL02010034
  0
LINE
  8
LAYER_2
 10
280.5811
 20
-21.9708
 11
288.5811
 21
-21.9708
  0
ENDBLK
  0
BLOCK
  8
LAYER_2
  2
AIGNBL02010035
 70
64
 10
0
 20
0
 30
0
  3
AIGNBL02010035
  0
LINE
  8
LAYER_2
 10
290.5811
 20
-21.9708
 11
298.5811
 21
-21.9708
  0
ENDBLK
  0
BLOCK
  8
LAYER_2
  2
AIGNBL02010036
 70
64
 10
0
 20
0
 30
0
  3
AIGNBL02010036
  0
LINE
  8
LAYER_2
 10
300.5811
 20
-21.9708
 11
308.5811
 21
-21.9708
  0
ENDBLK
  0
BLOCK
  8
LAYER_2
  2
AIGNBL02010037
 70
64
 10
0
 20
0
 30
0
  3
AIGNBL02010037
  0
LINE
  8
LAYER_2
 10
310.5811
 20
-21.9708
 11
318.5811
 21
-21.9708
  0
ENDBLK
  0
BLOCK
  8
LAYER_2
  2
AIGNBL02010038
 70
64
 10
0
 20
0
 30
0
  3
AIGNBL02010038
  0
LINE
  8
LAYER_2
 10
280.5811
 20
-19.9708
 11
288.5811
 21
-19.9708
  0
LINE
  8
LAYER_2
 10
288.5811
 20
-19.9708
 11
288.5811
 21
-19.4708
  0
LINE
  8
LAYER_2
 10
288.5811
 20
-19.4708
 11
280.5811
 21
-19.4708
  0
LINE
  8
LAYER_2
 10
280.5811
 20
-19.4708
 11
280.5811
 21
-19.9708
  0
ENDBLK
  0
BLOCK
  8
LAYER_2
  2
AIGNBL02010039
 70
64
 10
0
 20
0
 30
0
  3
AIGNBL02010039
  0
LINE
  8
LAYER_2
 10
281.5811
 20
-17.9708
 11
287.5811
 21
-17.9708
  0
LINE
  8
LAYER_2
 10
287.5811
 20
-17.9708
 11
287.5811
 21
-17.4708
  0
LINE
  8
LAYER_2
 10
287.5811
 20
-17.4708
 11
281.5811
 21
-17.4708
  0
LINE
  8
LAYER_2
 10
281.5811
 20
-17.4708
 11
281.5811
 21
-17.9708
  0
ENDBLK
  0
BLOCK
  8
LAYER_2
  2
AIGNBL0201003A
 70
64
 10
0
 20
0
 30
0
  3
AIGNBL0201003A
  0
LINE
  8
LAYER_2
 10
282.0811
 20
-17.4708
 11
287.0811
 21
-17.4708
  0
ARC
  8
LAYER_2
 10
287.0811
 20
-16.9708
 40
0.5
 50
269.9972554
 51
0.002744613001
  0
LINE
  8
LAYER_2
 10
287.5811
 20
-16.9708
 11
287.5811
 21
-16.4708
  0
ARC
  8
LAYER_2
 10
286.0811
 20
-16.4708
 40
1.5
 50
0.0003584984295
 51
89.99964149
  0
LINE
  8
LAYER_2
 10
286.0811
 20
-14.9708
 11
283.0811
 21
-14.9708
  0
ARC
  8
LAYER_2
 10
283.0811
 20
-16.4708
 40
1.5
 50
90.0009148
 51
179.9990852
  0
LINE
  8
LAYER_2
 10
281.5811
 20
-16.4708
 11
281.5811
 21
-16.9708
  0
ARC
  8
LAYER_2
 10
282.0811
 20
-16.9708
 40
0.5
 50
179.9989246
 51
270.0010754
  0
ENDBLK
  0
BLOCK
  8
LAYER_2
  2
AIGNBL0201003B
 70
64
 10
0
 20
0
 30
0
  3
AIGNBL0201003B
  0
LINE
  8
LAYER_2
 10
283.2811
 20
-18.9708
 11
283.2811
 21
-19.4708
  0
LINE
  8
LAYER_2
 10
283.2811
 20
-19.4708
 11
285.8811
 21
-19.4708
  0
LINE
  8
LAYER_2
 10
285.8811
 20
-19.4708
 11
285.8811
 21
-18.9708
  0
ENDBLK
  0
BLOCK
  8
LAYER_2
  2
AIGNBL0201003C
 70
64
 10
0
 20
0
 30
0
  3
AIGNBL0201003C
  0
LINE
  8
LAYER_2
 10
283.2811
 20
-18.9708
 11
282.2811
 21
-18.9708
  0
ENDBLK
  0
BLOCK
  8
LAYER_2
  2
AIGNBL0201003D
 70
64
 10
0
 20
0
 30
0
  3
AIGNBL0201003D
  0
LINE
  8
LAYER_2
 10
282.2811
 20
-18.9708
 11
280.5811
 21
-19.4708
  0
ENDBLK
  0
BLOCK
  8
LAYER_2
  2
AIGNBL0201003E
 70
64
 10
0
 20
0
 30
0
  3
AIGNBL0201003E
  0
LINE
  8
LAYER_2
 10
280.5811
 20
-19.4708
 11
280.5811
 21
-18.4708
  0
ENDBLK
  0
BLOCK
  8
LAYER_2
  2
AIGNBL0201003F
 70
64
 10
0
 20
0
 30
0
  3
AIGNBL0201003F
  0
LINE
  8
LAYER_2
 10
280.5811
 20
-18.4708
 11
282.2811
 21
-17.9708
  0
ENDBLK
  0
BLOCK
  8
LAYER_2
  2
AIGNBL02010040
 70
64
 10
0
 20
0
 30
0
  3
AIGNBL02010040
  0
LINE
  8
LAYER_2
 10
282.2811
 20
-17.9708
 11
283.2811
 21
-17.9708
  0
ENDBLK
  0
BLOCK
  8
LAYER_2
  2
AIGNBL02010041
 70
64
 10
0
 20
0
 30
0
  3
AIGNBL02010041
  0
LINE
  8
LAYER_2
 10
283.2811
 20
-17.9708
 11
283.6344
 21
-18.3246
  0
ENDBLK
  0
BLOCK
  8
LAYER_2
  2
AIGNBL02010042
 70
64
 10
0
 20
0
 30
0
  3
AIGNBL02010042
  0
LINE
  8
LAYER_2
 10
285.8811
 20
-18.9708
 11
286.8811
 21
-18.9708
  0
ENDBLK
  0
BLOCK
  8
LAYER_2
  2
AIGNBL02010043
 70
64
 10
0
 20
0
 30
0
  3
AIGNBL02010043
  0
LINE
  8
LAYER_2
 10
286.8811
 20
-18.9708
 11
288.5811
 21
-19.4708
  0
ENDBLK
  0
BLOCK
  8
LAYER_2
  2
AIGNBL02010044
 70
64
 10
0
 20
0
 30
0
  3
AIGNBL02010044
  0
LINE
  8
LAYER_2
 10
288.5811
 20
-19.4708
 11
288.5811
 21
-18.4708
  0
ENDBLK
  0
BLOCK
  8
LAYER_2
  2
AIGNBL02010045
 70
64
 10
0
 20
0
 30
0
  3
AIGNBL02010045
  0
LINE
  8
LAYER_2
 10
288.5811
 20
-18.4708
 11
286.8811
 21
-17.9708
  0
ENDBLK
  0
BLOCK
  8
LAYER_2
  2
AIGNBL02010046
 70
64
 10
0
 20
0
 30
0
  3
AIGNBL02010046
  0
LINE
  8
LAYER_2
 10
286.8811
 20
-17.9708
 11
285.8811
 21
-17.9708
  0
ENDBLK
  0
BLOCK
  8
LAYER_2
  2
AIGNBL02010047
 70
64
 10
0
 20
0
 30
0
  3
AIGNBL02010047
  0
LINE
  8
LAYER_2
 10
285.8811
 20
-17.9708
 11
285.5253
 21
-18.3222
  0
ENDBLK
  0
BLOCK
  8
LAYER_2
  2
AIGNBL02010048
 70
64
 10
0
 20
0
 30
0
  3
AIGNBL02010048
  0
LINE
  8
LAYER_2
 10
285.5253
 20
-18.3222
 11
283.6344
 21
-18.3222
  0
ENDBLK
  0
BLOCK
  8
LAYER_2
  2
AIGNBL02010049
 70
64
 10
0
 20
0
 30
0
  3
AIGNBL02010049
  0
LINE
  8
LAYER_2
 10
291.5811
 20
-17.9708
 11
297.5811
 21
-17.9708
  0
LINE
  8
LAYER_2
 10
297.5811
 20
-17.9708
 11
297.5811
 21
-17.4708
  0
LINE
  8
LAYER_2
 10
297.5811
 20
-17.4708
 11
291.5811
 21
-17.4708
  0
LINE
  8
LAYER_2
 10
291.5811
 20
-17.4708
 11
291.5811
 21
-17.9708
  0
ENDBLK
  0
BLOCK
  8
LAYER_2
  2
AIGNBL0201004A
 70
64
 10
0
 20
0
 30
0
  3
AIGNBL0201004A
  0
LINE
  8
LAYER_2
 10
292.0811
 20
-17.4708
 11
297.0811
 21
-17.4708
  0
ARC
  8
LAYER_2
 10
297.0811
 20
-16.9708
 40
0.5
 50
269.9972553
 51
0.002744756208
  0
LINE
  8
LAYER_2
 10
297.5811
 20
-16.9708
 11
297.5811
 21
-16.4708
  0
ARC
  8
LAYER_2
 10
296.0811
 20
-16.4708
 40
1.5
 50
0.0003584507246
 51
89.99964154
  0
LINE
  8
LAYER_2
 10
296.0811
 20
-14.9708
 11
293.0811
 21
-14.9708
  0
ARC
  8
LAYER_2
 10
293.0811
 20
-16.4708
 40
1.5
 50
90.00091485
 51
179.9990851
  0
LINE
  8
LAYER_2
 10
291.5811
 20
-16.4708
 11
291.5811
 21
-16.9708
  0
ARC
  8
LAYER_2
 10
292.0811
 20
-16.9708
 40
0.5
 50
179.9989247
 51
270.0010753
  0
ENDBLK
  0
BLOCK
  8
LAYER_2
  2
AIGNBL0201004B
 70
64
 10
0
 20
0
 30
0
  3
AIGNBL0201004B
  0
LINE
  8
LAYER_2
 10
293.2811
 20
-18.9708
 11
293.2811
 21
-19.4708
  0
LINE
  8
LAYER_2
 10
293.2811
 20
-19.4708
 11
295.8811
 21
-19.4708
  0
LINE
  8
LAYER_2
 10
295.8811
 20
-19.4708
 11
295.8811
 21
-18.9708
  0
ENDBLK
  0
BLOCK
  8
LAYER_2
  2
AIGNBL0201004C
 70
64
 10
0
 20
0
 30
0
  3
AIGNBL0201004C
  0
LINE
  8
LAYER_2
 10
293.2811
 20
-18.9708
 11
292.2811
 21
-18.9708
  0
ENDBLK
  0
BLOCK
  8
LAYER_2
  2
AIGNBL0201004D
 70
64
 10
0
 20
0
 30
0
  3
AIGNBL0201004D
  0
LINE
  8
LAYER_2
 10
292.2811
 20
-18.9708
 11
290.5811
 21
-19.4708
  0
ENDBLK
  0
BLOCK
  8
LAYER_2
  2
AIGNBL0201004E
 70
64
 10
0
 20
0
 30
0
  3
AIGNBL0201004E
  0
LINE
  8
LAYER_2
 10
290.5811
 20
-19.4708
 11
290.5811
 21
-18.4708
  0
ENDBLK
  0
BLOCK
  8
LAYER_2
  2
AIGNBL0201004F
 70
64
 10
0
 20
0
 30
0
  3
AIGNBL0201004F
  0
LINE
  8
LAYER_2
 10
290.5811
 20
-18.4708
 11
292.2811
 21
-17.9708
  0
ENDBLK
  0
BLOCK
  8
LAYER_2
  2
AIGNBL02010050
 70
64
 10
0
 20
0
 30
0
  3
AIGNBL02010050
  0
LINE
  8
LAYER_2
 10
292.2811
 20
-17.9708
 11
293.2811
 21
-17.9708
  0
ENDBLK
  0
BLOCK
  8
LAYER_2
  2
AIGNBL02010051
 70
64
 10
0
 20
0
 30
0
  3
AIGNBL02010051
  0
LINE
  8
LAYER_2
 10
293.2811
 20
-17.9708
 11
293.6344
 21
-18.3246
  0
ENDBLK
  0
BLOCK
  8
LAYER_2
  2
AIGNBL02010052
 70
64
 10
0
 20
0
 30
0
  3
AIGNBL02010052
  0
LINE
  8
LAYER_2
 10
295.8811
 20
-18.9708
 11
296.8811
 21
-18.9708
  0
ENDBLK
  0
BLOCK
  8
LAYER_2
  2
AIGNBL02010053
 70
64
 10
0
 20
0
 30
0
  3
AIGNBL02010053
  0
LINE
  8
LAYER_2
 10
296.8811
 20
-18.9708
 11
298.5811
 21
-19.4708
  0
ENDBLK
  0
BLOCK
  8
LAYER_2
  2
AIGNBL02010054
 70
64
 10
0
 20
0
 30
0
  3
AIGNBL02010054
  0
LINE
  8
LAYER_2
 10
298.5811
 20
-19.4708
 11
298.5811
 21
-18.4708
  0
ENDBLK
  0
BLOCK
  8
LAYER_2
  2
AIGNBL02010055
 70
64
 10
0
 20
0
 30
0
  3
AIGNBL02010055
  0
LINE
  8
LAYER_2
 10
298.5811
 20
-18.4708
 11
296.8811
 21
-17.9708
  0
ENDBLK
  0
BLOCK
  8
LAYER_2
  2
AIGNBL02010056
 70
64
 10
0
 20
0
 30
0
  3
AIGNBL02010056
  0
LINE
  8
LAYER_2
 10
296.8811
 20
-17.9708
 11
295.8811
 21
-17.9708
  0
ENDBLK
  0
BLOCK
  8
LAYER_2
  2
AIGNBL02010057
 70
64
 10
0
 20
0
 30
0
  3
AIGNBL02010057
  0
LINE
  8
LAYER_2
 10
295.8811
 20
-17.9708
 11
295.5253
 21
-18.3222
  0
ENDBLK
  0
BLOCK
  8
LAYER_2
  2
AIGNBL02010058
 70
64
 10
0
 20
0
 30
0
  3
AIGNBL02010058
  0
LINE
  8
LAYER_2
 10
295.5253
 20
-18.3222
 11
293.6344
 21
-18.3222
  0
ENDBLK
  0
BLOCK
  8
LAYER_2
  2
AIGNBL02010059
 70
64
 10
0
 20
0
 30
0
  3
AIGNBL02010059
  0
LINE
  8
LAYER_2
 10
311.5811
 20
-17.9708
 11
317.5811
 21
-17.9708
  0
LINE
  8
LAYER_2
 10
317.5811
 20
-17.9708
 11
317.5811
 21
-17.4708
  0
LINE
  8
LAYER_2
 10
317.5811
 20
-17.4708
 11
311.5811
 21
-17.4708
  0
LINE
  8
LAYER_2
 10
311.5811
 20
-17.4708
 11
311.5811
 21
-17.9708
  0
ENDBLK
  0
BLOCK
  8
LAYER_2
  2
AIGNBL0201005A
 70
64
 10
0
 20
0
 30
0
  3
AIGNBL0201005A
  0
LINE
  8
LAYER_2
 10
312.0811
 20
-17.4708
 11
317.0811
 21
-17.4708
  0
ARC
  8
LAYER_2
 10
317.0811
 20
-16.9708
 40
0.5
 50
269.997255
 51
0.002745042831
  0
LINE
  8
LAYER_2
 10
317.5811
 20
-16.9708
 11
317.5811
 21
-16.4708
  0
ARC
  8
LAYER_2
 10
316.0811
 20
-16.4708
 40
1.5
 50
0.0003583552229
 51
89.99964163
  0
LINE
  8
LAYER_2
 10
316.0811
 20
-14.9708
 11
313.0811
 21
-14.9708
  0
ARC
  8
LAYER_2
 10
313.0811
 20
-16.4708
 40
1.5
 50
90.00091495
 51
179.999085
  0
LINE
  8
LAYER_2
 10
311.5811
 20
-16.4708
 11
311.5811
 21
-16.9708
  0
ARC
  8
LAYER_2
 10
312.0811
 20
-16.9708
 40
0.5
 50
179.998925
 51
270.001075
  0
ENDBLK
  0
BLOCK
  8
LAYER_2
  2
AIGNBL0201005B
 70
64
 10
0
 20
0
 30
0
  3
AIGNBL0201005B
  0
LINE
  8
LAYER_2
 10
313.2811
 20
-18.9708
 11
313.2811
 21
-19.4708
  0
LINE
  8
LAYER_2
 10
313.2811
 20
-19.4708
 11
315.8811
 21
-19.4708
  0
LINE
  8
LAYER_2
 10
315.8811
 20
-19.4708
 11
315.8811
 21
-18.9708
  0
ENDBLK
  0
BLOCK
  8
LAYER_2
  2
AIGNBL0201005C
 70
64
 10
0
 20
0
 30
0
  3
AIGNBL0201005C
  0
LINE
  8
LAYER_2
 10
313.2811
 20
-18.9708
 11
312.2811
 21
-18.9708
  0
ENDBLK
  0
BLOCK
  8
LAYER_2
  2
AIGNBL0201005D
 70
64
 10
0
 20
0
 30
0
  3
AIGNBL0201005D
  0
LINE
  8
LAYER_2
 10
312.2811
 20
-18.9708
 11
310.5811
 21
-19.4708
  0
ENDBLK
  0
BLOCK
  8
LAYER_2
  2
AIGNBL0201005E
 70
64
 10
0
 20
0
 30
0
  3
AIGNBL0201005E
  0
LINE
  8
LAYER_2
 10
310.5811
 20
-19.4708
 11
310.5811
 21
-18.4708
  0
ENDBLK
  0
BLOCK
  8
LAYER_2
  2
AIGNBL0201005F
 70
64
 10
0
 20
0
 30
0
  3
AIGNBL0201005F
  0
LINE
  8
LAYER_2
 10
310.5811
 20
-18.4708
 11
312.2811
 21
-17.9708
  0
ENDBLK
  0
BLOCK
  8
LAYER_2
  2
AIGNBL02010060
 70
64
 10
0
 20
0
 30
0
  3
AIGNBL02010060
  0
LINE
  8
LAYER_2
 10
312.2811
 20
-17.9708
 11
313.2811
 21
-17.9708
  0
ENDBLK
  0
BLOCK
  8
LAYER_2
  2
AIGNBL02010061
 70
64
 10
0
 20
0
 30
0
  3
AIGNBL02010061
  0
LINE
  8
LAYER_2
 10
313.2811
 20
-17.9708
 11
313.6344
 21
-18.3246
  0
ENDBLK
  0
BLOCK
  8
LAYER_2
  2
AIGNBL02010062
 70
64
 10
0
 20
0
 30
0
  3
AIGNBL02010062
  0
LINE
  8
LAYER_2
 10
315.8811
 20
-18.9708
 11
316.8811
 21
-18.9708
  0
ENDBLK
  0
BLOCK
  8
LAYER_2
  2
AIGNBL02010063
 70
64
 10
0
 20
0
 30
0
  3
AIGNBL02010063
  0
LINE
  8
LAYER_2
 10
316.8811
 20
-18.9708
 11
318.5811
 21
-19.4708
  0
ENDBLK
  0
BLOCK
  8
LAYER_2
  2
AIGNBL02010064
 70
64
 10
0
 20
0
 30
0
  3
AIGNBL02010064
  0
LINE
  8
LAYER_2
 10
318.5811
 20
-19.4708
 11
318.5811
 21
-18.4708
  0
ENDBLK
  0
BLOCK
  8
LAYER_2
  2
AIGNBL02010065
 70
64
 10
0
 20
0
 30
0
  3
AIGNBL02010065
  0
LINE
  8
LAYER_2
 10
318.5811
 20
-18.4708
 11
316.8811
 21
-17.9708
  0
ENDBLK
  0
BLOCK
  8
LAYER_2
  2
AIGNBL02010066
 70
64
 10
0
 20
0
 30
0
  3
AIGNBL02010066
  0
LINE
  8
LAYER_2
 10
316.8811
 20
-17.9708
 11
315.8811
 21
-17.9708
  0
ENDBLK
  0
BLOCK
  8
LAYER_2
  2
AIGNBL02010067
 70
64
 10
0
 20
0
 30
0
  3
AIGNBL02010067
  0
LINE
  8
LAYER_2
 10
315.8811
 20
-17.9708
 11
315.5253
 21
-18.3222
  0
ENDBLK
  0
BLOCK
  8
LAYER_2
  2
AIGNBL02010068
 70
64
 10
0
 20
0
 30
0
  3
AIGNBL02010068
  0
LINE
  8
LAYER_2
 10
315.5253
 20
-18.3222
 11
313.6344
 21
-18.3222
  0
ENDBLK
  0
BLOCK
  8
LAYER_2
  2
AIGNBL02010069
 70
64
 10
0
 20
0
 30
0
  3
AIGNBL02010069
  0
LINE
  8
LAYER_2
 10
290.5811
 20
-19.9708
 11
298.5811
 21
-19.9708
  0
LINE
  8
LAYER_2
 10
298.5811
 20
-19.9708
 11
298.5811
 21
-19.4708
  0
LINE
  8
LAYER_2
 10
298.5811
 20
-19.4708
 11
290.5811
 21
-19.4708
  0
LINE
  8
LAYER_2
 10
290.5811
 20
-19.4708
 11
290.5811
 21
-19.9708
  0
ENDBLK
  0
BLOCK
  8
LAYER_2
  2
AIGNBL0201006A
 70
64
 10
0
 20
0
 30
0
  3
AIGNBL0201006A
  0
LINE
  8
LAYER_2
 10
300.5811
 20
-19.9708
 11
308.5811
 21
-19.9708
  0
LINE
  8
LAYER_2
 10
308.5811
 20
-19.9708
 11
308.5811
 21
-19.4708
  0
LINE
  8
LAYER_2
 10
308.5811
 20
-19.4708
 11
300.5811
 21
-19.4708
  0
LINE
  8
LAYER_2
 10
300.5811
 20
-19.4708
 11
300.5811
 21
-19.9708
  0
ENDBLK
  0
BLOCK
  8
LAYER_2
  2
AIGNBL0201006B
 70
64
 10
0
 20
0
 30
0
  3
AIGNBL0201006B
  0
LINE
  8
LAYER_2
 10
310.5811
 20
-19.9708
 11
318.5811
 21
-19.9708
  0
LINE
  8
LAYER_2
 10
318.5811
 20
-19.9708
 11
318.5811
 21
-19.4708
  0
LINE
  8
LAYER_2
 10
318.5811
 20
-19.4708
 11
310.5811
 21
-19.4708
  0
LINE
  8
LAYER_2
 10
310.5811
 20
-19.4708
 11
310.5811
 21
-19.9708
  0
ENDBLK
  0
BLOCK
  8
LAYER_2
  2
AIGNBL0201006C
 70
64
 10
0
 20
0
 30
0
  3
AIGNBL0201006C
  0
ARC
  8
LAYER_2
 10
307.1975
 20
-19.4773
 40
0.3837
 50
0.9716005831
 51
30.68960122
  0
ARC
  8
LAYER_2
 10
306.9537
 20
-19.6265
 40
0.6695
 50
31.01638862
 51
49.74840365
  0
ARC
  8
LAYER_2
 10
306.495
 20
-20.1636
 40
1.3758
 50
49.6253861
 51
62.61654806
  0
ARC
  8
LAYER_2
 10
305.8678
 20
-21.3551
 40
2.7222
 50
62.42843148
 51
71.58562166
  0
ARC
  8
LAYER_2
 10
305.0092
 20
-23.9673
 40
5.4719
 50
71.69586174
 51
85.5066386
  0
ARC
  8
LAYER_2
 10
304.5901
 20
-27.1768
 40
8.706
 50
84.41150987
 51
90.05918815
  0
ARC
  8
LAYER_2
 10
304.5466
 20
-26.4329
 40
7.9622
 50
89.75142393
 51
102.1259908
  0
ARC
  8
LAYER_2
 10
303.6075
 20
-22.0379
 40
3.468
 50
102.2102676
 51
119.0020715
  0
ARC
  8
LAYER_2
 10
302.4463
 20
-19.8654
 40
1.0056
 50
121.1513302
 51
138.3444398
  0
ARC
  8
LAYER_2
 10
302.0261
 20
-19.4953
 40
0.4457
 50
137.9984512
 51
176.8542372
  0
ENDBLK
  0
BLOCK
  8
LAYER_2
  2
AIGNBL0201006D
 70
64
 10
0
 20
0
 30
0
  3
AIGNBL0201006D
  0
ENDBLK
  0
BLOCK
  8
LAYER_2
  2
AIGNBL0201006E
 70
64
 10
0
 20
0
 30
0
  3
AIGNBL0201006E
  0
ENDBLK
  0
BLOCK
  8
LAYER_2
  2
AIGNBL0201006F
 70
64
 10
0
 20
0
 30
0
  3
AIGNBL0201006F
  0
ENDBLK
  0
BLOCK
  8
LAYER_2
  2
AIGNBL02010070
 70
64
 10
0
 20
0
 30
0
  3
AIGNBL02010070
  0
LINE
  8
LAYER_2
 10
397.3767
 20
46.7615
 11
399.3767
 21
46.7615
  0
ENDBLK
  0
BLOCK
  8
LAYER_2
  2
AIGNBL02010071
 70
64
 10
0
 20
0
 30
0
  3
AIGNBL02010071
  0
LINE
  8
LAYER_2
 10
399.3767
 20
46.7615
 11
399.3767
 21
48.7615
  0
ENDBLK
  0
BLOCK
  8
LAYER_2
  2
AIGNBL02010072
 70
64
 10
0
 20
0
 30
0
  3
AIGNBL02010072
  0
LINE
  8
LAYER_2
 10
399.3767
 20
48.7615
 11
400.1767
 21
46.7615
  0
ENDBLK
  0
BLOCK
  8
LAYER_2
  2
AIGNBL02010073
 70
64
 10
0
 20
0
 30
0
  3
AIGNBL02010073
  0
LINE
  8
LAYER_2
 10
400.1767
 20
46.7615
 11
400.1767
 21
43.6615
  0
ENDBLK
  0
BLOCK
  8
LAYER_2
  2
AIGNBL02010074
 70
64
 10
0
 20
0
 30
0
  3
AIGNBL02010074
  0
LINE
  8
LAYER_2
 10
399.7767
 20
81.7615
 11
399.3942
 21
78.9878
  0
ENDBLK
  0
BLOCK
  8
LAYER_2
  2
AIGNBL02010075
 70
64
 10
0
 20
0
 30
0
  3
AIGNBL02010075
  0
LINE
  8
LAYER_2
 10
398.3767
 20
81.7615
 11
399.3942
 21
78.9878
  0
ENDBLK
  0
BLOCK
  8
LAYER_2
  2
AIGNBL02010076
 70
64
 10
0
 20
0
 30
0
  3
AIGNBL02010076
  0
ARC
  8
LAYER_2
 10
292.5811
 20
84.6615
 40
1.5
 50
90.00030339
 51
179.9996966
  0
ARC
  8
LAYER_2
 10
292.5811
 20
84.6615
 40
1.5
 50
359.999747
 51
90.00025301
  0
ARC
  8
LAYER_2
 10
292.5811
 20
84.6615
 40
1.5
 50
269.9996966
 51
0.0003033747712
  0
ARC
  8
LAYER_2
 10
292.5811
 20
84.6615
 40
1.5
 50
180.000253
 51
269.999747
  0
ENDBLK
  0
BLOCK
  8
LAYER_3
  2
AIGNBL03010002
 70
64
 10
0
 20
0
 30
0
  3
AIGNBL03010002
  0
LINE
  8
LAYER_3
 62
3
 10
273.9561
 20
101.6615
 11
256.2616
 21
101.6615
  0
ENDBLK
  0
BLOCK
  8
LAYER_3
  2
AIGNBL03010003
 70
64
 10
0
 20
0
 30
0
  3
AIGNBL03010003
  0
LINE
  8
LAYER_3
 62
3
 10
273.9561
 20
26.6615
 11
256.2616
 21
26.6615
  0
ENDBLK
  0
BLOCK
  8
LAYER_3
  2
AIGNBL03010004
 70
64
 10
0
 20
0
 30
0
  3
AIGNBL03010004
  0
LINE
  8
LAYER_3
 62
3
 10
257.5116
 20
99.1615
 11
257.5116
 21
29.1615
  0
ENDBLK
  0
BLOCK
  8
LAYER_3
  2
AIGNBL03010005
 70
64
 10
0
 20
0
 30
0
  3
AIGNBL03010005
  0
LINE
  8
LAYER_3
 62
3
 10
257.0949
 20
99.1615
 11
257.5116
 21
101.6615
  0
LINE
  8
LAYER_3
 62
3
 10
257.5116
 20
101.6615
 11
257.9283
 21
99.1615
  0
LINE
  8
LAYER_3
 62
3
 10
257.9283
 20
99.1615
 11
257.0949
 21
99.1615
  0
ENDBLK
  0
BLOCK
  8
LAYER_3
  2
AIGNBL03010006
 70
64
 10
0
 20
0
 30
0
  3
AIGNBL03010006
  0
LINE
  8
LAYER_3
 62
3
 10
257.0949
 20
29.1615
 11
257.5116
 21
26.6615
  0
LINE
  8
LAYER_3
 62
3
 10
257.5116
 20
26.6615
 11
257.9283
 21
29.1615
  0
LINE
  8
LAYER_3
 62
3
 10
257.9283
 20
29.1615
 11
257.0949
 21
29.1615
  0
ENDBLK
  0
BLOCK
  8
LAYER_3
  2
AIGNBL03010007
 70
64
 10
0
 20
0
 30
0
  3
AIGNBL03010007
  0
TEXT
  8
LAYER_3
 10
256.844
 20
62.2088
 11
256.844
 21
62.2088
 40
3.7421
 41
0.5
 50
89.99999999
 62
3
  1
75
  0
ENDBLK
  0
BLOCK
  8
LAYER_3
  2
AIGNBL03010008
 70
64
 10
0
 20
0
 30
0
  3
AIGNBL03010008
  0
LINE
  8
LAYER_3
 62
3
 10
274.5811
 20
26.0365
 11
274.5811
 21
8.0629
  0
ENDBLK
  0
BLOCK
  8
LAYER_3
  2
AIGNBL03010009
 70
64
 10
0
 20
0
 30
0
  3
AIGNBL03010009
  0
LINE
  8
LAYER_3
 62
3
 10
324.5811
 20
26.0365
 11
324.5811
 21
8.0629
  0
ENDBLK
  0
BLOCK
  8
LAYER_3
  2
AIGNBL0301000A
 70
64
 10
0
 20
0
 30
0
  3
AIGNBL0301000A
  0
LINE
  8
LAYER_3
 62
3
 10
277.0811
 20
9.3129
 11
322.0811
 21
9.3129
  0
ENDBLK
  0
BLOCK
  8
LAYER_3
  2
AIGNBL0301000B
 70
64
 10
0
 20
0
 30
0
  3
AIGNBL0301000B
  0
LINE
  8
LAYER_3
 62
3
 10
277.0811
 20
9.7296
 11
274.5811
 21
9.3129
  0
LINE
  8
LAYER_3
 62
3
 10
274.5811
 20
9.3129
 11
277.0811
 21
8.8962
  0
LINE
  8
LAYER_3
 62
3
 10
277.0811
 20
8.8962
 11
277.0811
 21
9.7296
  0
ENDBLK
  0
BLOCK
  8
LAYER_3
  2
AIGNBL0301000C
 70
64
 10
0
 20
0
 30
0
  3
AIGNBL0301000C
  0
LINE
  8
LAYER_3
 62
3
 10
322.0811
 20
9.7296
 11
324.5811
 21
9.3129
  0
LINE
  8
LAYER_3
 62
3
 10
324.5811
 20
9.3129
 11
322.0811
 21
8.8962
  0
LINE
  8
LAYER_3
 62
3
 10
322.0811
 20
8.8962
 11
322.0811
 21
9.7296
  0
ENDBLK
  0
BLOCK
  8
LAYER_3
  2
AIGNBL0301000D
 70
64
 10
0
 20
0
 30
0
  3
AIGNBL0301000D
  0
TEXT
  8
LAYER_3
 10
297.6524
 20
9.9806
 11
297.6524
 21
9.9806
 40
3.7421
 41
0.5
 62
3
  1
50
  0
ENDBLK
  0
BLOCK
  8
LAYER_3
  2
AIGNBL0301000E
 70
64
 10
0
 20
0
 30
0
  3
AIGNBL0301000E
  0
LINE
  8
LAYER_3
 62
3
 10
400.1767
 20
21.5365
 11
400.1767
 21
8.0629
  0
ENDBLK
  0
BLOCK
  8
LAYER_3
  2
AIGNBL0301000F
 70
64
 10
0
 20
0
 30
0
  3
AIGNBL0301000F
  0
LINE
  8
LAYER_3
 62
3
 10
361.1767
 20
21.5365
 11
361.1767
 21
8.0629
  0
ENDBLK
  0
BLOCK
  8
LAYER_3
  2
AIGNBL03010010
 70
64
 10
0
 20
0
 30
0
  3
AIGNBL03010010
  0
LINE
  8
LAYER_3
 62
3
 10
397.4633
 20
9.3129
 11
363.6767
 21
9.3129
  0
ENDBLK
  0
BLOCK
  8
LAYER_3
  2
AIGNBL03010011
 70
64
 10
0
 20
0
 30
0
  3
AIGNBL03010011
  0
LINE
  8
LAYER_3
 62
3
 10
397.4633
 20
9.7395
 11
400.0228
 21
9.3129
  0
LINE
  8
LAYER_3
 62
3
 10
400.0228
 20
9.3129
 11
397.4633
 21
8.8863
  0
LINE
  8
LAYER_3
 62
3
 10
397.4633
 20
8.8863
 11
397.4633
 21
9.7395
  0
ENDBLK
  0
BLOCK
  8
LAYER_3
  2
AIGNBL03010012
 70
64
 10
0
 20
0
 30
0
  3
AIGNBL03010012
  0
LINE
  8
LAYER_3
 62
3
 10
363.6767
 20
9.7296
 11
361.1767
 21
9.3129
  0
LINE
  8
LAYER_3
 62
3
 10
361.1767
 20
9.3129
 11
363.6767
 21
8.8962
  0
LINE
  8
LAYER_3
 62
3
 10
363.6767
 20
8.8962
 11
363.6767
 21
9.7296
  0
ENDBLK
  0
BLOCK
  8
LAYER_3
  2
AIGNBL03010013
 70
64
 10
0
 20
0
 30
0
  3
AIGNBL03010013
  0
TEXT
  8
LAYER_3
 10
378.2392
 20
9.9814
 11
378.2392
 21
9.9814
 40
3.7421
 41
0.5
 62
3
  1
39
  0
ENDBLK
  0
BLOCK
  8
LAYER_3
  2
AIGNBL03010014
 70
64
 10
0
 20
0
 30
0
  3
AIGNBL03010014
  0
LINE
  8
LAYER_3
 62
3
 10
273.9561
 20
-10.3708
 11
256.2616
 21
-10.3708
  0
ENDBLK
  0
BLOCK
  8
LAYER_3
  2
AIGNBL03010015
 70
64
 10
0
 20
0
 30
0
  3
AIGNBL03010015
  0
LINE
  8
LAYER_3
 62
3
 10
273.9561
 20
-49.3708
 11
256.2616
 21
-49.3708
  0
ENDBLK
  0
BLOCK
  8
LAYER_3
  2
AIGNBL03010016
 70
64
 10
0
 20
0
 30
0
  3
AIGNBL03010016
  0
LINE
  8
LAYER_3
 62
3
 10
257.5116
 20
-12.8708
 11
257.5116
 21
-46.8708
  0
ENDBLK
  0
BLOCK
  8
LAYER_3
  2
AIGNBL03010017
 70
64
 10
0
 20
0
 30
0
  3
AIGNBL03010017
  0
LINE
  8
LAYER_3
 62
3
 10
257.0949
 20
-12.8708
 11
257.5116
 21
-10.3708
  0
LINE
  8
LAYER_3
 62
3
 10
257.5116
 20
-10.3708
 11
257.9283
 21
-12.8708
  0
LINE
  8
LAYER_3
 62
3
 10
257.9283
 20
-12.8708
 11
257.0949
 21
-12.8708
  0
ENDBLK
  0
BLOCK
  8
LAYER_3
  2
AIGNBL03010018
 70
64
 10
0
 20
0
 30
0
  3
AIGNBL03010018
  0
LINE
  8
LAYER_3
 62
3
 10
257.0949
 20
-46.8708
 11
257.5116
 21
-49.3708
  0
LINE
  8
LAYER_3
 62
3
 10
257.5116
 20
-49.3708
 11
257.9283
 21
-46.8708
  0
LINE
  8
LAYER_3
 62
3
 10
257.9283
 20
-46.8708
 11
257.0949
 21
-46.8708
  0
ENDBLK
  0
BLOCK
  8
LAYER_3
  2
AIGNBL03010019
 70
64
 10
0
 20
0
 30
0
  3
AIGNBL03010019
  0
TEXT
  8
LAYER_3
 10
256.8431
 20
-31.8086
 11
256.8431
 21
-31.8086
 40
3.7421
 41
0.5
 50
89.99999999
 62
3
  1
39
  0
ENDBLK
  0
BLOCK
  8
LAYER_4
  2
AIGNBL04010002
 70
64
 10
0
 20
0
 30
0
  3
AIGNBL04010002
  0
LINE
  8
LAYER_4
 10
274.5811
 20
101.6615
 11
324.5811
 21
101.6615
  0
LINE
  8
LAYER_4
 10
324.5811
 20
101.6615
 11
324.5811
 21
26.6615
  0
LINE
  8
LAYER_4
 10
324.5811
 20
26.6615
 11
274.5811
 21
26.6615
  0
LINE
  8
LAYER_4
 10
274.5811
 20
26.6615
 11
274.5811
 21
101.6615
  0
ENDBLK
  0
BLOCK
  8
LAYER_4
  2
AIGNBL04010003
 70
64
 10
0
 20
0
 30
0
  3
AIGNBL04010003
  0
LINE
  8
LAYER_4
 10
278.5811
 20
26.6615
 11
278.5811
 21
41.6615
  0
ENDBLK
  0
BLOCK
  8
LAYER_4
  2
AIGNBL04010004
 70
64
 10
0
 20
0
 30
0
  3
AIGNBL04010004
  0
ARC
  8
LAYER_4
 10
279.5811
 20
41.6615
 40
1
 50
90.00045529
 51
179.9995447
  0
ENDBLK
  0
BLOCK
  8
LAYER_4
  2
AIGNBL04010005
 70
64
 10
0
 20
0
 30
0
  3
AIGNBL04010005
  0
LINE
  8
LAYER_4
 10
279.5811
 20
42.6615
 11
319.5811
 21
42.6615
  0
ENDBLK
  0
BLOCK
  8
LAYER_4
  2
AIGNBL04010006
 70
64
 10
0
 20
0
 30
0
  3
AIGNBL04010006
  0
LINE
  8
LAYER_4
 10
320.5811
 20
41.6615
 11
320.5811
 21
26.6615
  0
ENDBLK
  0
BLOCK
  8
LAYER_4
  2
AIGNBL04010007
 70
64
 10
0
 20
0
 30
0
  3
AIGNBL04010007
  0
ARC
  8
LAYER_4
 10
319.5811
 20
41.6615
 40
1
 50
359.9996206
 51
90.00037941
  0
ENDBLK
  0
BLOCK
  8
LAYER_4
  2
AIGNBL04010008
 70
64
 10
0
 20
0
 30
0
  3
AIGNBL04010008
  0
LINE
  8
LAYER_4
 10
278.5811
 20
41.1615
 11
320.5811
 21
41.1615
  0
ENDBLK
  0
BLOCK
  8
LAYER_4
  2
AIGNBL04010009
 70
64
 10
0
 20
0
 30
0
  3
AIGNBL04010009
  0
LINE
  8
LAYER_4
 10
278.5811
 20
41.1615
 11
320.5811
 21
41.1615
  0
LINE
  8
LAYER_4
 10
320.5811
 20
41.1615
 11
320.5811
 21
38.1615
  0
LINE
  8
LAYER_4
 10
320.5811
 20
38.1615
 11
278.5811
 21
38.1615
  0
LINE
  8
LAYER_4
 10
278.5811
 20
38.1615
 11
278.5811
 21
41.1615
  0
ENDBLK
  0
BLOCK
  8
LAYER_4
  2
AIGNBL0401000A
 70
64
 10
0
 20
0
 30
0
  3
AIGNBL0401000A
  0
LINE
  8
LAYER_4
 10
278.5811
 20
38.1615
 11
280.5811
 21
38.1615
  0
LINE
  8
LAYER_4
 10
280.5811
 20
38.1615
 11
280.5811
 21
26.6615
  0
LINE
  8
LAYER_4
 10
280.5811
 20
26.6615
 11
278.5811
 21
26.6615
  0
LINE
  8
LAYER_4
 10
278.5811
 20
26.6615
 11
278.5811
 21
38.1615
  0
ENDBLK
  0
BLOCK
  8
LAYER_4
  2
AIGNBL0401000B
 70
64
 10
0
 20
0
 30
0
  3
AIGNBL0401000B
  0
LINE
  8
LAYER_4
 10
280.5811
 20
38.1615
 11
288.5811
 21
38.1615
  0
LINE
  8
LAYER_4
 10
288.5811
 20
38.1615
 11
288.5811
 21
26.6615
  0
LINE
  8
LAYER_4
 10
288.5811
 20
26.6615
 11
280.5811
 21
26.6615
  0
LINE
  8
LAYER_4
 10
280.5811
 20
26.6615
 11
280.5811
 21
38.1615
  0
ENDBLK
  0
BLOCK
  8
LAYER_4
  2
AIGNBL0401000C
 70
64
 10
0
 20
0
 30
0
  3
AIGNBL0401000C
  0
LINE
  8
LAYER_4
 10
288.5811
 20
38.1615
 11
290.5811
 21
38.1615
  0
LINE
  8
LAYER_4
 10
290.5811
 20
38.1615
 11
290.5811
 21
26.6615
  0
LINE
  8
LAYER_4
 10
290.5811
 20
26.6615
 11
288.5811
 21
26.6615
  0
LINE
  8
LAYER_4
 10
288.5811
 20
26.6615
 11
288.5811
 21
38.1615
  0
ENDBLK
  0
BLOCK
  8
LAYER_4
  2
AIGNBL0401000D
 70
64
 10
0
 20
0
 30
0
  3
AIGNBL0401000D
  0
LINE
  8
LAYER_4
 10
290.5811
 20
38.1615
 11
298.5811
 21
38.1615
  0
LINE
  8
LAYER_4
 10
298.5811
 20
38.1615
 11
298.5811
 21
26.6615
  0
LINE
  8
LAYER_4
 10
298.5811
 20
26.6615
 11
290.5811
 21
26.6615
  0
LINE
  8
LAYER_4
 10
290.5811
 20
26.6615
 11
290.5811
 21
38.1615
  0
ENDBLK
  0
BLOCK
  8
LAYER_4
  2
AIGNBL0401000E
 70
64
 10
0
 20
0
 30
0
  3
AIGNBL0401000E
  0
LINE
  8
LAYER_4
 10
298.5811
 20
38.1615
 11
300.5811
 21
38.1615
  0
LINE
  8
LAYER_4
 10
300.5811
 20
38.1615
 11
300.5811
 21
26.6615
  0
LINE
  8
LAYER_4
 10
300.5811
 20
26.6615
 11
298.5811
 21
26.6615
  0
LINE
  8
LAYER_4
 10
298.5811
 20
26.6615
 11
298.5811
 21
38.1615
  0
ENDBLK
  0
BLOCK
  8
LAYER_4
  2
AIGNBL0401000F
 70
64
 10
0
 20
0
 30
0
  3
AIGNBL0401000F
  0
LINE
  8
LAYER_4
 10
300.5811
 20
38.1615
 11
308.5811
 21
38.1615
  0
LINE
  8
LAYER_4
 10
308.5811
 20
38.1615
 11
308.5811
 21
26.6615
  0
LINE
  8
LAYER_4
 10
308.5811
 20
26.6615
 11
300.5811
 21
26.6615
  0
LINE
  8
LAYER_4
 10
300.5811
 20
26.6615
 11
300.5811
 21
38.1615
  0
ENDBLK
  0
BLOCK
  8
LAYER_4
  2
AIGNBL04010010
 70
64
 10
0
 20
0
 30
0
  3
AIGNBL04010010
  0
LINE
  8
LAYER_4
 10
308.5811
 20
38.1615
 11
310.5811
 21
38.1615
  0
LINE
  8
LAYER_4
 10
310.5811
 20
38.1615
 11
310.5811
 21
26.6615
  0
LINE
  8
LAYER_4
 10
310.5811
 20
26.6615
 11
308.5811
 21
26.6615
  0
LINE
  8
LAYER_4
 10
308.5811
 20
26.6615
 11
308.5811
 21
38.1615
  0
ENDBLK
  0
BLOCK
  8
LAYER_4
  2
AIGNBL04010011
 70
64
 10
0
 20
0
 30
0
  3
AIGNBL04010011
  0
LINE
  8
LAYER_4
 10
310.5811
 20
38.1615
 11
318.5811
 21
38.1615
  0
LINE
  8
LAYER_4
 10
318.5811
 20
38.1615
 11
318.5811
 21
26.6615
  0
LINE
  8
LAYER_4
 10
318.5811
 20
26.6615
 11
310.5811
 21
26.6615
  0
LINE
  8
LAYER_4
 10
310.5811
 20
26.6615
 11
310.5811
 21
38.1615
  0
ENDBLK
  0
BLOCK
  8
LAYER_4
  2
AIGNBL04010012
 70
64
 10
0
 20
0
 30
0
  3
AIGNBL04010012
  0
LINE
  8
LAYER_4
 10
318.5811
 20
38.1615
 11
320.5811
 21
38.1615
  0
LINE
  8
LAYER_4
 10
320.5811
 20
38.1615
 11
320.5811
 21
26.6615
  0
LINE
  8
LAYER_4
 10
320.5811
 20
26.6615
 11
318.5811
 21
26.6615
  0
LINE
  8
LAYER_4
 10
318.5811
 20
26.6615
 11
318.5811
 21
38.1615
  0
ENDBLK
  0
BLOCK
  8
LAYER_4
  2
AIGNBL04010013
 70
64
 10
0
 20
0
 30
0
  3
AIGNBL04010013
  0
LINE
  8
LAYER_4
 10
283.0811
 20
38.1615
 11
286.0811
 21
38.1615
  0
LINE
  8
LAYER_4
 10
286.0811
 20
38.1615
 11
286.0811
 21
39.3615
  0
LINE
  8
LAYER_4
 10
286.0811
 20
39.3615
 11
283.0811
 21
39.3615
  0
LINE
  8
LAYER_4
 10
283.0811
 20
39.3615
 11
283.0811
 21
38.1615
  0
ENDBLK
  0
BLOCK
  8
LAYER_4
  2
AIGNBL04010014
 70
64
 10
0
 20
0
 30
0
  3
AIGNBL04010014
  0
LINE
  8
LAYER_4
 10
293.0811
 20
38.1615
 11
296.0811
 21
38.1615
  0
LINE
  8
LAYER_4
 10
296.0811
 20
38.1615
 11
296.0811
 21
39.3615
  0
LINE
  8
LAYER_4
 10
296.0811
 20
39.3615
 11
293.0811
 21
39.3615
  0
LINE
  8
LAYER_4
 10
293.0811
 20
39.3615
 11
293.0811
 21
38.1615
  0
ENDBLK
  0
BLOCK
  8
LAYER_4
  2
AIGNBL04010015
 70
64
 10
0
 20
0
 30
0
  3
AIGNBL04010015
  0
LINE
  8
LAYER_4
 10
303.0811
 20
38.1615
 11
306.0811
 21
38.1615
  0
LINE
  8
LAYER_4
 10
306.0811
 20
38.1615
 11
306.0811
 21
39.3615
  0
LINE
  8
LAYER_4
 10
306.0811
 20
39.3615
 11
303.0811
 21
39.3615
  0
LINE
  8
LAYER_4
 10
303.0811
 20
39.3615
 11
303.0811
 21
38.1615
  0
ENDBLK
  0
BLOCK
  8
LAYER_4
  2
AIGNBL04010016
 70
64
 10
0
 20
0
 30
0
  3
AIGNBL04010016
  0
LINE
  8
LAYER_4
 10
313.0811
 20
38.1615
 11
316.0811
 21
38.1615
  0
LINE
  8
LAYER_4
 10
316.0811
 20
38.1615
 11
316.0811
 21
39.3615
  0
LINE
  8
LAYER_4
 10
316.0811
 20
39.3615
 11
313.0811
 21
39.3615
  0
LINE
  8
LAYER_4
 10
313.0811
 20
39.3615
 11
313.0811
 21
38.1615
  0
ENDBLK
  0
BLOCK
  8
LAYER_4
  2
AIGNBL04010017
 70
64
 10
0
 20
0
 30
0
  3
AIGNBL04010017
  0
LINE
  8
LAYER_4
 10
278.5811
 20
26.6615
 11
280.5811
 21
26.6615
  0
LINE
  8
LAYER_4
 10
280.5811
 20
26.6615
 11
280.5811
 21
28.6615
  0
LINE
  8
LAYER_4
 10
280.5811
 20
28.6615
 11
278.5811
 21
28.6615
  0
LINE
  8
LAYER_4
 10
278.5811
 20
28.6615
 11
278.5811
 21
26.6615
  0
ENDBLK
  0
BLOCK
  8
LAYER_4
  2
AIGNBL04010018
 70
64
 10
0
 20
0
 30
0
  3
AIGNBL04010018
  0
LINE
  8
LAYER_4
 10
288.5811
 20
26.6615
 11
290.5811
 21
26.6615
  0
LINE
  8
LAYER_4
 10
290.5811
 20
26.6615
 11
290.5811
 21
28.6615
  0
LINE
  8
LAYER_4
 10
290.5811
 20
28.6615
 11
288.5811
 21
28.6615
  0
LINE
  8
LAYER_4
 10
288.5811
 20
28.6615
 11
288.5811
 21
26.6615
  0
ENDBLK
  0
BLOCK
  8
LAYER_4
  2
AIGNBL04010019
 70
64
 10
0
 20
0
 30
0
  3
AIGNBL04010019
  0
LINE
  8
LAYER_4
 10
298.5811
 20
26.6615
 11
300.5811
 21
26.6615
  0
LINE
  8
LAYER_4
 10
300.5811
 20
26.6615
 11
300.5811
 21
28.6615
  0
LINE
  8
LAYER_4
 10
300.5811
 20
28.6615
 11
298.5811
 21
28.6615
  0
LINE
  8
LAYER_4
 10
298.5811
 20
28.6615
 11
298.5811
 21
26.6615
  0
ENDBLK
  0
BLOCK
  8
LAYER_4
  2
AIGNBL0401001A
 70
64
 10
0
 20
0
 30
0
  3
AIGNBL0401001A
  0
LINE
  8
LAYER_4
 10
308.5811
 20
26.6615
 11
310.5811
 21
26.6615
  0
LINE
  8
LAYER_4
 10
310.5811
 20
26.6615
 11
310.5811
 21
28.6615
  0
LINE
  8
LAYER_4
 10
310.5811
 20
28.6615
 11
308.5811
 21
28.6615
  0
LINE
  8
LAYER_4
 10
308.5811
 20
28.6615
 11
308.5811
 21
26.6615
  0
ENDBLK
  0
BLOCK
  8
LAYER_4
  2
AIGNBL0401001B
 70
64
 10
0
 20
0
 30
0
  3
AIGNBL0401001B
  0
LINE
  8
LAYER_4
 10
318.5811
 20
26.6615
 11
320.5811
 21
26.6615
  0
LINE
  8
LAYER_4
 10
320.5811
 20
26.6615
 11
320.5811
 21
28.6615
  0
LINE
  8
LAYER_4
 10
320.5811
 20
28.6615
 11
318.5811
 21
28.6615
  0
LINE
  8
LAYER_4
 10
318.5811
 20
28.6615
 11
318.5811
 21
26.6615
  0
ENDBLK
  0
BLOCK
  8
LAYER_4
  2
AIGNBL0401001C
 70
64
 10
0
 20
0
 30
0
  3
AIGNBL0401001C
  0
ARC
  8
LAYER_4
 10
284.5811
 20
33.1615
 40
3
 50
90.0001518
 51
179.9998482
  0
ARC
  8
LAYER_4
 10
284.5811
 20
33.1615
 40
3
 50
359.9998736
 51
90.00012635
  0
ARC
  8
LAYER_4
 10
284.5811
 20
33.1615
 40
3
 50
269.9998482
 51
0.0001517852484
  0
ARC
  8
LAYER_4
 10
284.5811
 20
33.1615
 40
3
 50
180.0001264
 51
269.9998736
  0
ENDBLK
  0
BLOCK
  8
LAYER_4
  2
AIGNBL0401001D
 70
64
 10
0
 20
0
 30
0
  3
AIGNBL0401001D
  0
ENDBLK
  0
BLOCK
  8
LAYER_4
  2
AIGNBL0401001E
 70
64
 10
0
 20
0
 30
0
  3
AIGNBL0401001E
  0
LINE
  8
LAYER_4
 10
288.5811
 20
37.1615
 11
280.5811
 21
37.1615
  0
LINE
  8
LAYER_4
 10
280.5811
 20
37.1615
 11
280.5811
 21
29.1615
  0
LINE
  8
LAYER_4
 10
280.5811
 20
29.1615
 11
288.5811
 21
29.1615
  0
LINE
  8
LAYER_4
 10
288.5811
 20
29.1615
 11
288.5811
 21
37.1615
  0
ENDBLK
  0
BLOCK
  8
LAYER_4
  2
AIGNBL0401001F
 70
64
 10
0
 20
0
 30
0
  3
AIGNBL0401001F
  0
LINE
  8
LAYER_4
 10
285.0811
 20
33.6615
 11
285.0811
 21
34.6615
  0
LINE
  8
LAYER_4
 10
285.0811
 20
34.6615
 11
284.0811
 21
34.6615
  0
LINE
  8
LAYER_4
 10
284.0811
 20
34.6615
 11
284.0811
 21
33.6615
  0
ENDBLK
  0
BLOCK
  8
LAYER_4
  2
AIGNBL04010020
 70
64
 10
0
 20
0
 30
0
  3
AIGNBL04010020
  0
LINE
  8
LAYER_4
 10
284.0811
 20
32.6615
 11
284.0811
 21
31.6615
  0
LINE
  8
LAYER_4
 10
284.0811
 20
31.6615
 11
285.0811
 21
31.6615
  0
LINE
  8
LAYER_4
 10
285.0811
 20
31.6615
 11
285.0811
 21
32.6615
  0
ENDBLK
  0
BLOCK
  8
LAYER_4
  2
AIGNBL04010021
 70
64
 10
0
 20
0
 30
0
  3
AIGNBL04010021
  0
LINE
  8
LAYER_4
 10
285.0811
 20
33.6615
 11
286.0811
 21
33.6615
  0
LINE
  8
LAYER_4
 10
286.0811
 20
33.6615
 11
286.0811
 21
32.6615
  0
LINE
  8
LAYER_4
 10
286.0811
 20
32.6615
 11
285.0811
 21
32.6615
  0
ENDBLK
  0
BLOCK
  8
LAYER_4
  2
AIGNBL04010022
 70
64
 10
0
 20
0
 30
0
  3
AIGNBL04010022
  0
LINE
  8
LAYER_4
 10
284.0811
 20
32.6615
 11
283.0811
 21
32.6615
  0
LINE
  8
LAYER_4
 10
283.0811
 20
32.6615
 11
283.0811
 21
33.6615
  0
LINE
  8
LAYER_4
 10
283.0811
 20
33.6615
 11
284.0811
 21
33.6615
  0
ENDBLK
  0
BLOCK
  8
LAYER_4
  2
AIGNBL04010023
 70
64
 10
0
 20
0
 30
0
  3
AIGNBL04010023
  0
ARC
  8
LAYER_4
 10
294.5811
 20
33.1615
 40
3
 50
90.00015182
 51
179.9998481
  0
ARC
  8
LAYER_4
 10
294.5811
 20
33.1615
 40
3
 50
359.9998736
 51
90.00012637
  0
ARC
  8
LAYER_4
 10
294.5811
 20
33.1615
 40
3
 50
269.9998482
 51
0.0001518091192
  0
ARC
  8
LAYER_4
 10
294.5811
 20
33.1615
 40
3
 50
180.0001264
 51
269.9998736
  0
ENDBLK
  0
BLOCK
  8
LAYER_4
  2
AIGNBL04010024
 70
64
 10
0
 20
0
 30
0
  3
AIGNBL04010024
  0
LINE
  8
LAYER_4
 10
298.5811
 20
37.1615
 11
290.5811
 21
37.1615
  0
LINE
  8
LAYER_4
 10
290.5811
 20
37.1615
 11
290.5811
 21
29.1615
  0
LINE
  8
LAYER_4
 10
290.5811
 20
29.1615
 11
298.5811
 21
29.1615
  0
LINE
  8
LAYER_4
 10
298.5811
 20
29.1615
 11
298.5811
 21
37.1615
  0
ENDBLK
  0
BLOCK
  8
LAYER_4
  2
AIGNBL04010025
 70
64
 10
0
 20
0
 30
0
  3
AIGNBL04010025
  0
LINE
  8
LAYER_4
 10
295.0811
 20
33.6615
 11
295.0811
 21
34.6615
  0
LINE
  8
LAYER_4
 10
295.0811
 20
34.6615
 11
294.0811
 21
34.6615
  0
LINE
  8
LAYER_4
 10
294.0811
 20
34.6615
 11
294.0811
 21
33.6615
  0
ENDBLK
  0
BLOCK
  8
LAYER_4
  2
AIGNBL04010026
 70
64
 10
0
 20
0
 30
0
  3
AIGNBL04010026
  0
LINE
  8
LAYER_4
 10
294.0811
 20
32.6615
 11
294.0811
 21
31.6615
  0
LINE
  8
LAYER_4
 10
294.0811
 20
31.6615
 11
295.0811
 21
31.6615
  0
LINE
  8
LAYER_4
 10
295.0811
 20
31.6615
 11
295.0811
 21
32.6615
  0
ENDBLK
  0
BLOCK
  8
LAYER_4
  2
AIGNBL04010027
 70
64
 10
0
 20
0
 30
0
  3
AIGNBL04010027
  0
LINE
  8
LAYER_4
 10
295.0811
 20
33.6615
 11
296.0811
 21
33.6615
  0
LINE
  8
LAYER_4
 10
296.0811
 20
33.6615
 11
296.0811
 21
32.6615
  0
LINE
  8
LAYER_4
 10
296.0811
 20
32.6615
 11
295.0811
 21
32.6615
  0
ENDBLK
  0
BLOCK
  8
LAYER_4
  2
AIGNBL04010028
 70
64
 10
0
 20
0
 30
0
  3
AIGNBL04010028
  0
LINE
  8
LAYER_4
 10
294.0811
 20
32.6615
 11
293.0811
 21
32.6615
  0
LINE
  8
LAYER_4
 10
293.0811
 20
32.6615
 11
293.0811
 21
33.6615
  0
LINE
  8
LAYER_4
 10
293.0811
 20
33.6615
 11
294.0811
 21
33.6615
  0
ENDBLK
  0
BLOCK
  8
LAYER_4
  2
AIGNBL04010029
 70
64
 10
0
 20
0
 30
0
  3
AIGNBL04010029
  0
ARC
  8
LAYER_4
 10
304.5811
 20
33.1615
 40
3
 50
90.00015184
 51
179.9998481
  0
ARC
  8
LAYER_4
 10
304.5811
 20
33.1615
 40
3
 50
359.9998736
 51
90.0001264
  0
ARC
  8
LAYER_4
 10
304.5811
 20
33.1615
 40
3
 50
269.9998482
 51
0.0001518329957
  0
ARC
  8
LAYER_4
 10
304.5811
 20
33.1615
 40
3
 50
180.0001264
 51
269.9998736
  0
ENDBLK
  0
BLOCK
  8
LAYER_4
  2
AIGNBL0401002A
 70
64
 10
0
 20
0
 30
0
  3
AIGNBL0401002A
  0
LINE
  8
LAYER_4
 10
308.5811
 20
37.1615
 11
300.5811
 21
37.1615
  0
LINE
  8
LAYER_4
 10
300.5811
 20
37.1615
 11
300.5811
 21
29.1615
  0
LINE
  8
LAYER_4
 10
300.5811
 20
29.1615
 11
308.5811
 21
29.1615
  0
LINE
  8
LAYER_4
 10
308.5811
 20
29.1615
 11
308.5811
 21
37.1615
  0
ENDBLK
  0
BLOCK
  8
LAYER_4
  2
AIGNBL0401002B
 70
64
 10
0
 20
0
 30
0
  3
AIGNBL0401002B
  0
ARC
  8
LAYER_4
 10
314.5811
 20
33.1615
 40
3
 50
90.00015187
 51
179.9998481
  0
ARC
  8
LAYER_4
 10
314.5811
 20
33.1615
 40
3
 50
359.9998736
 51
90.00012642
  0
ARC
  8
LAYER_4
 10
314.5811
 20
33.1615
 40
3
 50
269.9998482
 51
0.0001518568599
  0
ARC
  8
LAYER_4
 10
314.5811
 20
33.1615
 40
3
 50
180.0001265
 51
269.9998736
  0
ENDBLK
  0
BLOCK
  8
LAYER_4
  2
AIGNBL0401002C
 70
64
 10
0
 20
0
 30
0
  3
AIGNBL0401002C
  0
LINE
  8
LAYER_4
 10
318.5811
 20
37.1615
 11
310.5811
 21
37.1615
  0
LINE
  8
LAYER_4
 10
310.5811
 20
37.1615
 11
310.5811
 21
29.1615
  0
LINE
  8
LAYER_4
 10
310.5811
 20
29.1615
 11
318.5811
 21
29.1615
  0
LINE
  8
LAYER_4
 10
318.5811
 20
29.1615
 11
318.5811
 21
37.1615
  0
ENDBLK
  0
BLOCK
  8
LAYER_4
  2
AIGNBL0401002D
 70
64
 10
0
 20
0
 30
0
  3
AIGNBL0401002D
  0
LINE
  8
LAYER_4
 10
315.0811
 20
33.6615
 11
315.0811
 21
34.6615
  0
LINE
  8
LAYER_4
 10
315.0811
 20
34.6615
 11
314.0811
 21
34.6615
  0
LINE
  8
LAYER_4
 10
314.0811
 20
34.6615
 11
314.0811
 21
33.6615
  0
ENDBLK
  0
BLOCK
  8
LAYER_4
  2
AIGNBL0401002E
 70
64
 10
0
 20
0
 30
0
  3
AIGNBL0401002E
  0
LINE
  8
LAYER_4
 10
314.0811
 20
32.6615
 11
314.0811
 21
31.6615
  0
LINE
  8
LAYER_4
 10
314.0811
 20
31.6615
 11
315.0811
 21
31.6615
  0
LINE
  8
LAYER_4
 10
315.0811
 20
31.6615
 11
315.0811
 21
32.6615
  0
ENDBLK
  0
BLOCK
  8
LAYER_4
  2
AIGNBL0401002F
 70
64
 10
0
 20
0
 30
0
  3
AIGNBL0401002F
  0
LINE
  8
LAYER_4
 10
315.0811
 20
33.6615
 11
316.0811
 21
33.6615
  0
LINE
  8
LAYER_4
 10
316.0811
 20
33.6615
 11
316.0811
 21
32.6615
  0
LINE
  8
LAYER_4
 10
316.0811
 20
32.6615
 11
315.0811
 21
32.6615
  0
ENDBLK
  0
BLOCK
  8
LAYER_4
  2
AIGNBL04010030
 70
64
 10
0
 20
0
 30
0
  3
AIGNBL04010030
  0
LINE
  8
LAYER_4
 10
314.0811
 20
32.6615
 11
313.0811
 21
32.6615
  0
LINE
  8
LAYER_4
 10
313.0811
 20
32.6615
 11
313.0811
 21
33.6615
  0
LINE
  8
LAYER_4
 10
313.0811
 20
33.6615
 11
314.0811
 21
33.6615
  0
ENDBLK
  0
BLOCK
  8
LAYER_4
  2
AIGNBL04010031
 70
64
 10
0
 20
0
 30
0
  3
AIGNBL04010031
  0
LINE
  8
LAYER_4
 10
361.1767
 20
101.6615
 11
391.1767
 21
101.6615
  0
LINE
  8
LAYER_4
 10
391.1767
 20
101.6615
 11
391.1767
 21
26.6615
  0
LINE
  8
LAYER_4
 10
391.1767
 20
26.6615
 11
361.1767
 21
26.6615
  0
LINE
  8
LAYER_4
 10
361.1767
 20
26.6615
 11
361.1767
 21
101.6615
  0
ENDBLK
  0
BLOCK
  8
LAYER_4
  2
AIGNBL04010032
 70
64
 10
0
 20
0
 30
0
  3
AIGNBL04010032
  0
LINE
  8
LAYER_4
 10
400.1767
 20
99.1615
 11
400.1767
 21
84.6615
  0
ENDBLK
  0
BLOCK
  8
LAYER_4
  2
AIGNBL04010033
 70
64
 10
0
 20
0
 30
0
  3
AIGNBL04010033
  0
LINE
  8
LAYER_4
 10
400.1767
 20
29.1615
 11
400.1767
 21
43.6615
  0
ENDBLK
  0
BLOCK
  8
LAYER_4
  2
AIGNBL04010034
 70
64
 10
0
 20
0
 30
0
  3
AIGNBL04010034
  0
LINE
  8
LAYER_4
 10
397.3767
 20
81.7615
 11
399.7767
 21
81.7615
  0
ENDBLK
  0
BLOCK
  8
LAYER_4
  2
AIGNBL04010035
 70
64
 10
0
 20
0
 30
0
  3
AIGNBL04010035
  0
LINE
  8
LAYER_4
 10
399.7767
 20
81.7615
 11
400.1767
 21
84.6615
  0
ENDBLK
  0
BLOCK
  8
LAYER_4
  2
AIGNBL04010036
 70
64
 10
0
 20
0
 30
0
  3
AIGNBL04010036
  0
LINE
  8
LAYER_4
 10
400.1767
 20
29.1615
 11
400.1767
 21
43.6615
  0
ENDBLK
  0
BLOCK
  8
LAYER_4
  2
AIGNBL04010037
 70
64
 10
0
 20
0
 30
0
  3
AIGNBL04010037
  0
LINE
  8
LAYER_4
 10
397.3767
 20
81.7615
 11
397.3767
 21
46.7615
  0
ENDBLK
  0
BLOCK
  8
LAYER_4
  2
AIGNBL04010038
 70
64
 10
0
 20
0
 30
0
  3
AIGNBL04010038
  0
LINE
  8
LAYER_4
 10
397.3767
 20
46.7615
 11
400.1767
 21
43.6615
  0
ENDBLK
  0
BLOCK
  8
LAYER_4
  2
AIGNBL04010039
 70
64
 10
0
 20
0
 30
0
  3
AIGNBL04010039
  0
LINE
  8
LAYER_4
 10
400.1767
 20
99.1615
 11
391.1767
 21
99.1615
  0
ENDBLK
  0
BLOCK
  8
LAYER_4
  2
AIGNBL0401003A
 70
64
 10
0
 20
0
 30
0
  3
AIGNBL0401003A
  0
LINE
  8
LAYER_4
 10
400.1767
 20
29.1615
 11
391.1972
 21
29.1615
  0
ENDBLK
  0
ENDSEC
  0
SECTION
  2
ENTITIES
  0
INSERT
  8
LAYER_1
  2
AIGNBL01010002
 10
0
 20
0
 30
0
  0
TEXT
  8
LAYER_1
 10
348.9088
 20
-30.5741
 11
348.9088
 21
-30.5741
 40
3.1044
 41
0.5
 72
1
  1
品名
  0
TEXT
  8
LAYER_1
 10
348.9088
 20
-35.2308
 11
348.9088
 21
-35.2308
 40
3.1044
 41
0.5
 72
1
  1
PRODUCT
  0
TEXT
  8
LAYER_1
 10
414.219
 20
-30.5741
 11
414.219
 21
-30.5741
 40
3.1044
 41
0.5
 72
1
  1
型式
  0
TEXT
  8
LAYER_1
 10
414.219
 20
-35.2308
 11
414.219
 21
-35.2308
 40
3.1044
 41
0.5
 72
1
  1
TYPE
  0
TEXT
  8
LAYER_1
 10
414.219
 20
-40.4516
 11
414.219
 21
-40.4516
 40
3.1044
 41
0.5
 72
1
  1
単位
  0
TEXT
  8
LAYER_1
 10
414.219
 20
-45.1084
 11
414.219
 21
-45.1084
 40
3.1044
 41
0.5
 72
1
  1
UNIT
  0
TEXT
  8
LAYER_1
 10
414.219
 20
-60.5799
 11
414.219
 21
-60.5799
 40
3.4815
 41
0.5
 72
1
  1
設計
  0
TEXT
  8
LAYER_1
 10
414.2191
 20
-65.802
 11
414.2191
 21
-65.802
 40
3.4815
 41
0.5
 72
1
  1
DESIGNED
  0
TEXT
  8
LAYER_1
 10
349.219
 20
-40.4517
 11
349.219
 21
-40.4517
 40
3.1044
 41
0.5
 72
1
  1
寸法
  0
TEXT
  8
LAYER_1
 10
349.219
 20
-45.1085
 11
349.219
 21
-45.1085
 40
3.1044
 41
0.5
 72
1
  1
SIZE
  0
TEXT
  8
LAYER_1
 10
349.219
 20
-60.5801
 11
349.219
 21
-60.5801
 40
3.1044
 41
0.5
 72
1
  1
材質
  0
TEXT
  8
LAYER_1
 10
349.219
 20
-65.2368
 11
349.219
 21
-65.2368
 40
3.1044
 41
0.5
 72
1
  1
MATERIAL
  0
TEXT
  8
LAYER_1
 10
349.7268
 20
-50.452
 11
349.7268
 21
-50.452
 40
3.1044
 41
0.5
 72
1
  1
ネジ
  0
TEXT
  8
LAYER_1
 10
349.219
 20
-55.1087
 11
349.219
 21
-55.1087
 40
3.1044
 41
0.5
 72
1
  1
SCREW
  0
TEXT
  8
LAYER_1
 10
413.9088
 20
-50.4519
 11
413.9088
 21
-50.4519
 40
3.1044
 41
0.5
 72
1
  1
日付
  0
TEXT
  8
LAYER_1
 10
413.9088
 20
-55.1086
 11
413.9088
 21
-55.1086
 40
3.1044
 41
0.5
 72
1
  1
DATE
  0
TEXT
  8
LAYER_1
 10
380.3575
 20
-43.2231
 11
380.3575
 21
-43.2231
 40
3.6689
 41
0.5
 72
1
  1
W50×H75×D39
  0
TEXT
  8
LAYER_1
 10
446.7193
 20
-43.2231
 11
446.7193
 21
-43.2231
 40
3.6689
 41
0.5
 72
1
  1
mm
  0
TEXT
  8
LAYER_1
 10
447.4897
 20
-33.2231
 11
447.4897
 21
-33.2231
 40
3.6689
 41
0.5
 72
1
  1
NR-24M　NR-24TM
  0
TEXT
  8
LAYER_1
 10
446.7193
 20
-53.2231
 11
446.7193
 21
-53.2231
 40
3.6689
 41
0.5
 72
1
  1
2017.07.24
  0
TEXT
  8
LAYER_1
 10
446.719
 20
-63.2231
 11
446.719
 21
-63.2231
 40
3.6689
 41
0.5
 72
1
  1
戸森 幹二
  0
TEXT
  8
LAYER_1
 10
381.7193
 20
-63.2231
 11
381.7193
 21
-63.2231
 40
3.6689
 41
0.5
 72
1
  1
ABS 黒
  0
TEXT
  8
LAYER_1
 10
381.7193
 20
-30.8515
 11
381.7193
 21
-30.8515
 40
3.1044
 41
0.5
 72
1
  1
計装信号用
  0
TEXT
  8
LAYER_1
 10
383.5683
 20
-35.5083
 11
383.5683
 21
-35.5083
 40
3.1044
 41
0.5
 72
1
  1
モリブデン避雷器
  0
TEXT
  8
LAYER_1
 10
383.9476
 20
-50.8515
 11
383.9476
 21
-50.8515
 40
3.1044
 41
0.5
 72
1
  1
黄銅 ニッケルメッキ
  0
TEXT
  8
LAYER_1
 10
381.7193
 20
-55.5083
 11
381.7193
 21
-55.5083
 40
3.1044
 41
0.5
 72
1
  1
M3.5
  0
INSERT
  8
LAYER_1
  2
AIGNBL01010003
 10
0
 20
0
 30
0
  0
INSERT
  8
LAYER_1
  2
AIGNBL0101000A
 10
0
 20
0
 30
0
  0
INSERT
  8
LAYER_2
  2
AIGNBL02010002
 10
0
 20
0
 30
0
  0
INSERT
  8
LAYER_2
  2
AIGNBL02010003
 10
0
 20
0
 30
0
  0
INSERT
  8
LAYER_2
  2
AIGNBL02010004
 10
0
 20
0
 30
0
  0
INSERT
  8
LAYER_2
  2
AIGNBL02010005
 10
0
 20
0
 30
0
  0
INSERT
  8
LAYER_2
  2
AIGNBL02010006
 10
0
 20
0
 30
0
  0
INSERT
  8
LAYER_2
  2
AIGNBL02010007
 10
0
 20
0
 30
0
  0
INSERT
  8
LAYER_2
  2
AIGNBL02010008
 10
0
 20
0
 30
0
  0
INSERT
  8
LAYER_2
  2
AIGNBL02010009
 10
0
 20
0
 30
0
  0
INSERT
  8
LAYER_2
  2
AIGNBL0201000A
 10
0
 20
0
 30
0
  0
INSERT
  8
LAYER_2
  2
AIGNBL0201000B
 10
0
 20
0
 30
0
  0
INSERT
  8
LAYER_2
  2
AIGNBL0201000C
 10
0
 20
0
 30
0
  0
INSERT
  8
LAYER_2
  2
AIGNBL0201000D
 10
0
 20
0
 30
0
  0
INSERT
  8
LAYER_2
  2
AIGNBL0201000E
 10
0
 20
0
 30
0
  0
INSERT
  8
LAYER_2
  2
AIGNBL0201000F
 10
0
 20
0
 30
0
  0
INSERT
  8
LAYER_2
  2
AIGNBL02010010
 10
0
 20
0
 30
0
  0
INSERT
  8
LAYER_2
  2
AIGNBL02010011
 10
0
 20
0
 30
0
  0
INSERT
  8
LAYER_2
  2
AIGNBL02010012
 10
0
 20
0
 30
0
  0
INSERT
  8
LAYER_2
  2
AIGNBL02010013
 10
0
 20
0
 30
0
  0
INSERT
  8
LAYER_2
  2
AIGNBL02010014
 10
0
 20
0
 30
0
  0
INSERT
  8
LAYER_2
  2
AIGNBL02010015
 10
0
 20
0
 30
0
  0
INSERT
  8
LAYER_2
  2
AIGNBL02010016
 10
0
 20
0
 30
0
  0
INSERT
  8
LAYER_2
  2
AIGNBL02010017
 10
0
 20
0
 30
0
  0
INSERT
  8
LAYER_2
  2
AIGNBL02010018
 10
0
 20
0
 30
0
  0
INSERT
  8
LAYER_2
  2
AIGNBL02010019
 10
0
 20
0
 30
0
  0
INSERT
  8
LAYER_2
  2
AIGNBL0201001A
 10
0
 20
0
 30
0
  0
INSERT
  8
LAYER_2
  2
AIGNBL0201001B
 10
0
 20
0
 30
0
  0
INSERT
  8
LAYER_2
  2
AIGNBL0201001C
 10
0
 20
0
 30
0
  0
INSERT
  8
LAYER_2
  2
AIGNBL0201001D
 10
0
 20
0
 30
0
  0
INSERT
  8
LAYER_2
  2
AIGNBL0201001E
 10
0
 20
0
 30
0
  0
INSERT
  8
LAYER_2
  2
AIGNBL0201001F
 10
0
 20
0
 30
0
  0
INSERT
  8
LAYER_2
  2
AIGNBL02010020
 10
0
 20
0
 30
0
  0
INSERT
  8
LAYER_2
  2
AIGNBL02010021
 10
0
 20
0
 30
0
  0
INSERT
  8
LAYER_2
  2
AIGNBL02010022
 10
0
 20
0
 30
0
  0
INSERT
  8
LAYER_2
  2
AIGNBL02010023
 10
0
 20
0
 30
0
  0
INSERT
  8
LAYER_2
  2
AIGNBL02010024
 10
0
 20
0
 30
0
  0
INSERT
  8
LAYER_2
  2
AIGNBL02010025
 10
0
 20
0
 30
0
  0
INSERT
  8
LAYER_2
  2
AIGNBL02010026
 10
0
 20
0
 30
0
  0
INSERT
  8
LAYER_2
  2
AIGNBL02010027
 10
0
 20
0
 30
0
  0
INSERT
  8
LAYER_2
  2
AIGNBL02010028
 10
0
 20
0
 30
0
  0
INSERT
  8
LAYER_2
  2
AIGNBL02010029
 10
0
 20
0
 30
0
  0
INSERT
  8
LAYER_2
  2
AIGNBL0201002A
 10
0
 20
0
 30
0
  0
INSERT
  8
LAYER_2
  2
AIGNBL0201002B
 10
0
 20
0
 30
0
  0
INSERT
  8
LAYER_2
  2
AIGNBL0201002C
 10
0
 20
0
 30
0
  0
INSERT
  8
LAYER_2
  2
AIGNBL0201002D
 10
0
 20
0
 30
0
  0
INSERT
  8
LAYER_2
  2
AIGNBL0201002E
 10
0
 20
0
 30
0
  0
INSERT
  8
LAYER_2
  2
AIGNBL0201002F
 10
0
 20
0
 30
0
  0
INSERT
  8
LAYER_2
  2
AIGNBL02010030
 10
0
 20
0
 30
0
  0
INSERT
  8
LAYER_2
  2
AIGNBL02010031
 10
0
 20
0
 30
0
  0
INSERT
  8
LAYER_2
  2
AIGNBL02010032
 10
0
 20
0
 30
0
  0
INSERT
  8
LAYER_2
  2
AIGNBL02010033
 10
0
 20
0
 30
0
  0
INSERT
  8
LAYER_2
  2
AIGNBL02010034
 10
0
 20
0
 30
0
  0
INSERT
  8
LAYER_2
  2
AIGNBL02010035
 10
0
 20
0
 30
0
  0
INSERT
  8
LAYER_2
  2
AIGNBL02010036
 10
0
 20
0
 30
0
  0
INSERT
  8
LAYER_2
  2
AIGNBL02010037
 10
0
 20
0
 30
0
  0
INSERT
  8
LAYER_2
  2
AIGNBL02010038
 10
0
 20
0
 30
0
  0
INSERT
  8
LAYER_2
  2
AIGNBL02010039
 10
0
 20
0
 30
0
  0
INSERT
  8
LAYER_2
  2
AIGNBL0201003A
 10
0
 20
0
 30
0
  0
INSERT
  8
LAYER_2
  2
AIGNBL0201003B
 10
0
 20
0
 30
0
  0
INSERT
  8
LAYER_2
  2
AIGNBL0201003C
 10
0
 20
0
 30
0
  0
INSERT
  8
LAYER_2
  2
AIGNBL0201003D
 10
0
 20
0
 30
0
  0
INSERT
  8
LAYER_2
  2
AIGNBL0201003E
 10
0
 20
0
 30
0
  0
INSERT
  8
LAYER_2
  2
AIGNBL0201003F
 10
0
 20
0
 30
0
  0
INSERT
  8
LAYER_2
  2
AIGNBL02010040
 10
0
 20
0
 30
0
  0
INSERT
  8
LAYER_2
  2
AIGNBL02010041
 10
0
 20
0
 30
0
  0
INSERT
  8
LAYER_2
  2
AIGNBL02010042
 10
0
 20
0
 30
0
  0
INSERT
  8
LAYER_2
  2
AIGNBL02010043
 10
0
 20
0
 30
0
  0
INSERT
  8
LAYER_2
  2
AIGNBL02010044
 10
0
 20
0
 30
0
  0
INSERT
  8
LAYER_2
  2
AIGNBL02010045
 10
0
 20
0
 30
0
  0
INSERT
  8
LAYER_2
  2
AIGNBL02010046
 10
0
 20
0
 30
0
  0
INSERT
  8
LAYER_2
  2
AIGNBL02010047
 10
0
 20
0
 30
0
  0
INSERT
  8
LAYER_2
  2
AIGNBL02010048
 10
0
 20
0
 30
0
  0
INSERT
  8
LAYER_2
  2
AIGNBL02010049
 10
0
 20
0
 30
0
  0
INSERT
  8
LAYER_2
  2
AIGNBL0201004A
 10
0
 20
0
 30
0
  0
INSERT
  8
LAYER_2
  2
AIGNBL0201004B
 10
0
 20
0
 30
0
  0
INSERT
  8
LAYER_2
  2
AIGNBL0201004C
 10
0
 20
0
 30
0
  0
INSERT
  8
LAYER_2
  2
AIGNBL0201004D
 10
0
 20
0
 30
0
  0
INSERT
  8
LAYER_2
  2
AIGNBL0201004E
 10
0
 20
0
 30
0
  0
INSERT
  8
LAYER_2
  2
AIGNBL0201004F
 10
0
 20
0
 30
0
  0
INSERT
  8
LAYER_2
  2
AIGNBL02010050
 10
0
 20
0
 30
0
  0
INSERT
  8
LAYER_2
  2
AIGNBL02010051
 10
0
 20
0
 30
0
  0
INSERT
  8
LAYER_2
  2
AIGNBL02010052
 10
0
 20
0
 30
0
  0
INSERT
  8
LAYER_2
  2
AIGNBL02010053
 10
0
 20
0
 30
0
  0
INSERT
  8
LAYER_2
  2
AIGNBL02010054
 10
0
 20
0
 30
0
  0
INSERT
  8
LAYER_2
  2
AIGNBL02010055
 10
0
 20
0
 30
0
  0
INSERT
  8
LAYER_2
  2
AIGNBL02010056
 10
0
 20
0
 30
0
  0
INSERT
  8
LAYER_2
  2
AIGNBL02010057
 10
0
 20
0
 30
0
  0
INSERT
  8
LAYER_2
  2
AIGNBL02010058
 10
0
 20
0
 30
0
  0
INSERT
  8
LAYER_2
  2
AIGNBL02010059
 10
0
 20
0
 30
0
  0
INSERT
  8
LAYER_2
  2
AIGNBL0201005A
 10
0
 20
0
 30
0
  0
INSERT
  8
LAYER_2
  2
AIGNBL0201005B
 10
0
 20
0
 30
0
  0
INSERT
  8
LAYER_2
  2
AIGNBL0201005C
 10
0
 20
0
 30
0
  0
INSERT
  8
LAYER_2
  2
AIGNBL0201005D
 10
0
 20
0
 30
0
  0
INSERT
  8
LAYER_2
  2
AIGNBL0201005E
 10
0
 20
0
 30
0
  0
INSERT
  8
LAYER_2
  2
AIGNBL0201005F
 10
0
 20
0
 30
0
  0
INSERT
  8
LAYER_2
  2
AIGNBL02010060
 10
0
 20
0
 30
0
  0
INSERT
  8
LAYER_2
  2
AIGNBL02010061
 10
0
 20
0
 30
0
  0
INSERT
  8
LAYER_2
  2
AIGNBL02010062
 10
0
 20
0
 30
0
  0
INSERT
  8
LAYER_2
  2
AIGNBL02010063
 10
0
 20
0
 30
0
  0
INSERT
  8
LAYER_2
  2
AIGNBL02010064
 10
0
 20
0
 30
0
  0
INSERT
  8
LAYER_2
  2
AIGNBL02010065
 10
0
 20
0
 30
0
  0
INSERT
  8
LAYER_2
  2
AIGNBL02010066
 10
0
 20
0
 30
0
  0
INSERT
  8
LAYER_2
  2
AIGNBL02010067
 10
0
 20
0
 30
0
  0
INSERT
  8
LAYER_2
  2
AIGNBL02010068
 10
0
 20
0
 30
0
  0
INSERT
  8
LAYER_2
  2
AIGNBL02010069
 10
0
 20
0
 30
0
  0
INSERT
  8
LAYER_2
  2
AIGNBL0201006A
 10
0
 20
0
 30
0
  0
INSERT
  8
LAYER_2
  2
AIGNBL0201006B
 10
0
 20
0
 30
0
  0
INSERT
  8
LAYER_2
  2
AIGNBL0201006C
 10
0
 20
0
 30
0
  0
INSERT
  8
LAYER_2
  2
AIGNBL0201006D
 10
0
 20
0
 30
0
  0
INSERT
  8
LAYER_2
  2
AIGNBL0201006E
 10
0
 20
0
 30
0
  0
INSERT
  8
LAYER_2
  2
AIGNBL0201006F
 10
0
 20
0
 30
0
  0
INSERT
  8
LAYER_2
  2
AIGNBL02010070
 10
0
 20
0
 30
0
  0
INSERT
  8
LAYER_2
  2
AIGNBL02010071
 10
0
 20
0
 30
0
  0
INSERT
  8
LAYER_2
  2
AIGNBL02010072
 10
0
 20
0
 30
0
  0
INSERT
  8
LAYER_2
  2
AIGNBL02010073
 10
0
 20
0
 30
0
  0
INSERT
  8
LAYER_2
  2
AIGNBL02010074
 10
0
 20
0
 30
0
  0
INSERT
  8
LAYER_2
  2
AIGNBL02010075
 10
0
 20
0
 30
0
  0
INSERT
  8
LAYER_2
  2
AIGNBL02010076
 10
0
 20
0
 30
0
  0
INSERT
  8
LAYER_3
  2
AIGNBL03010002
 10
0
 20
0
 30
0
  0
INSERT
  8
LAYER_3
  2
AIGNBL03010003
 10
0
 20
0
 30
0
  0
INSERT
  8
LAYER_3
  2
AIGNBL03010004
 10
0
 20
0
 30
0
  0
INSERT
  8
LAYER_3
  2
AIGNBL03010005
 10
0
 20
0
 30
0
  0
INSERT
  8
LAYER_3
  2
AIGNBL03010006
 10
0
 20
0
 30
0
  0
INSERT
  8
LAYER_3
  2
AIGNBL03010007
 10
0
 20
0
 30
0
  0
INSERT
  8
LAYER_3
  2
AIGNBL03010008
 10
0
 20
0
 30
0
  0
INSERT
  8
LAYER_3
  2
AIGNBL03010009
 10
0
 20
0
 30
0
  0
INSERT
  8
LAYER_3
  2
AIGNBL0301000A
 10
0
 20
0
 30
0
  0
INSERT
  8
LAYER_3
  2
AIGNBL0301000B
 10
0
 20
0
 30
0
  0
INSERT
  8
LAYER_3
  2
AIGNBL0301000C
 10
0
 20
0
 30
0
  0
INSERT
  8
LAYER_3
  2
AIGNBL0301000D
 10
0
 20
0
 30
0
  0
INSERT
  8
LAYER_3
  2
AIGNBL0301000E
 10
0
 20
0
 30
0
  0
INSERT
  8
LAYER_3
  2
AIGNBL0301000F
 10
0
 20
0
 30
0
  0
INSERT
  8
LAYER_3
  2
AIGNBL03010010
 10
0
 20
0
 30
0
  0
INSERT
  8
LAYER_3
  2
AIGNBL03010011
 10
0
 20
0
 30
0
  0
INSERT
  8
LAYER_3
  2
AIGNBL03010012
 10
0
 20
0
 30
0
  0
INSERT
  8
LAYER_3
  2
AIGNBL03010013
 10
0
 20
0
 30
0
  0
INSERT
  8
LAYER_3
  2
AIGNBL03010014
 10
0
 20
0
 30
0
  0
INSERT
  8
LAYER_3
  2
AIGNBL03010015
 10
0
 20
0
 30
0
  0
INSERT
  8
LAYER_3
  2
AIGNBL03010016
 10
0
 20
0
 30
0
  0
INSERT
  8
LAYER_3
  2
AIGNBL03010017
 10
0
 20
0
 30
0
  0
INSERT
  8
LAYER_3
  2
AIGNBL03010018
 10
0
 20
0
 30
0
  0
INSERT
  8
LAYER_3
  2
AIGNBL03010019
 10
0
 20
0
 30
0
  0
INSERT
  8
LAYER_4
  2
AIGNBL04010002
 10
0
 20
0
 30
0
  0
INSERT
  8
LAYER_4
  2
AIGNBL04010003
 10
0
 20
0
 30
0
  0
INSERT
  8
LAYER_4
  2
AIGNBL04010004
 10
0
 20
0
 30
0
  0
INSERT
  8
LAYER_4
  2
AIGNBL04010005
 10
0
 20
0
 30
0
  0
INSERT
  8
LAYER_4
  2
AIGNBL04010006
 10
0
 20
0
 30
0
  0
INSERT
  8
LAYER_4
  2
AIGNBL04010007
 10
0
 20
0
 30
0
  0
INSERT
  8
LAYER_4
  2
AIGNBL04010008
 10
0
 20
0
 30
0
  0
INSERT
  8
LAYER_4
  2
AIGNBL04010009
 10
0
 20
0
 30
0
  0
INSERT
  8
LAYER_4
  2
AIGNBL0401000A
 10
0
 20
0
 30
0
  0
INSERT
  8
LAYER_4
  2
AIGNBL0401000B
 10
0
 20
0
 30
0
  0
INSERT
  8
LAYER_4
  2
AIGNBL0401000C
 10
0
 20
0
 30
0
  0
INSERT
  8
LAYER_4
  2
AIGNBL0401000D
 10
0
 20
0
 30
0
  0
INSERT
  8
LAYER_4
  2
AIGNBL0401000E
 10
0
 20
0
 30
0
  0
INSERT
  8
LAYER_4
  2
AIGNBL0401000F
 10
0
 20
0
 30
0
  0
INSERT
  8
LAYER_4
  2
AIGNBL04010010
 10
0
 20
0
 30
0
  0
INSERT
  8
LAYER_4
  2
AIGNBL04010011
 10
0
 20
0
 30
0
  0
INSERT
  8
LAYER_4
  2
AIGNBL04010012
 10
0
 20
0
 30
0
  0
INSERT
  8
LAYER_4
  2
AIGNBL04010013
 10
0
 20
0
 30
0
  0
INSERT
  8
LAYER_4
  2
AIGNBL04010014
 10
0
 20
0
 30
0
  0
INSERT
  8
LAYER_4
  2
AIGNBL04010015
 10
0
 20
0
 30
0
  0
INSERT
  8
LAYER_4
  2
AIGNBL04010016
 10
0
 20
0
 30
0
  0
INSERT
  8
LAYER_4
  2
AIGNBL04010017
 10
0
 20
0
 30
0
  0
INSERT
  8
LAYER_4
  2
AIGNBL04010018
 10
0
 20
0
 30
0
  0
INSERT
  8
LAYER_4
  2
AIGNBL04010019
 10
0
 20
0
 30
0
  0
INSERT
  8
LAYER_4
  2
AIGNBL0401001A
 10
0
 20
0
 30
0
  0
INSERT
  8
LAYER_4
  2
AIGNBL0401001B
 10
0
 20
0
 30
0
  0
INSERT
  8
LAYER_4
  2
AIGNBL0401001C
 10
0
 20
0
 30
0
  0
INSERT
  8
LAYER_4
  2
AIGNBL0401001D
 10
0
 20
0
 30
0
  0
INSERT
  8
LAYER_4
  2
AIGNBL0401001E
 10
0
 20
0
 30
0
  0
INSERT
  8
LAYER_4
  2
AIGNBL0401001F
 10
0
 20
0
 30
0
  0
INSERT
  8
LAYER_4
  2
AIGNBL04010020
 10
0
 20
0
 30
0
  0
INSERT
  8
LAYER_4
  2
AIGNBL04010021
 10
0
 20
0
 30
0
  0
INSERT
  8
LAYER_4
  2
AIGNBL04010022
 10
0
 20
0
 30
0
  0
INSERT
  8
LAYER_4
  2
AIGNBL04010023
 10
0
 20
0
 30
0
  0
INSERT
  8
LAYER_4
  2
AIGNBL04010024
 10
0
 20
0
 30
0
  0
INSERT
  8
LAYER_4
  2
AIGNBL04010025
 10
0
 20
0
 30
0
  0
INSERT
  8
LAYER_4
  2
AIGNBL04010026
 10
0
 20
0
 30
0
  0
INSERT
  8
LAYER_4
  2
AIGNBL04010027
 10
0
 20
0
 30
0
  0
INSERT
  8
LAYER_4
  2
AIGNBL04010028
 10
0
 20
0
 30
0
  0
INSERT
  8
LAYER_4
  2
AIGNBL04010029
 10
0
 20
0
 30
0
  0
INSERT
  8
LAYER_4
  2
AIGNBL0401002A
 10
0
 20
0
 30
0
  0
INSERT
  8
LAYER_4
  2
AIGNBL0401002B
 10
0
 20
0
 30
0
  0
INSERT
  8
LAYER_4
  2
AIGNBL0401002C
 10
0
 20
0
 30
0
  0
INSERT
  8
LAYER_4
  2
AIGNBL0401002D
 10
0
 20
0
 30
0
  0
INSERT
  8
LAYER_4
  2
AIGNBL0401002E
 10
0
 20
0
 30
0
  0
INSERT
  8
LAYER_4
  2
AIGNBL0401002F
 10
0
 20
0
 30
0
  0
INSERT
  8
LAYER_4
  2
AIGNBL04010030
 10
0
 20
0
 30
0
  0
INSERT
  8
LAYER_4
  2
AIGNBL04010031
 10
0
 20
0
 30
0
  0
INSERT
  8
LAYER_4
  2
AIGNBL04010032
 10
0
 20
0
 30
0
  0
INSERT
  8
LAYER_4
  2
AIGNBL04010033
 10
0
 20
0
 30
0
  0
INSERT
  8
LAYER_4
  2
AIGNBL04010034
 10
0
 20
0
 30
0
  0
INSERT
  8
LAYER_4
  2
AIGNBL04010035
 10
0
 20
0
 30
0
  0
INSERT
  8
LAYER_4
  2
AIGNBL04010036
 10
0
 20
0
 30
0
  0
INSERT
  8
LAYER_4
  2
AIGNBL04010037
 10
0
 20
0
 30
0
  0
INSERT
  8
LAYER_4
  2
AIGNBL04010038
 10
0
 20
0
 30
0
  0
INSERT
  8
LAYER_4
  2
AIGNBL04010039
 10
0
 20
0
 30
0
  0
INSERT
  8
LAYER_4
  2
AIGNBL0401003A
 10
0
 20
0
 30
0
  0
ENDSEC
  0
EOF
