  0
SECTION
  2
HEADER
  9
$ACADVER
  1
AC1009
  9
$LUNITS
 70
2
  9
$LUPREC
 70
4
  9
$LTSCALE
 40
1.0
  9
$EXTMIN
 10
124.874
 20
-66.6014
 30
0
  9
$EXTMAX
 10
469.2192
 20
169.592
 30
0
  0
ENDSEC
  0
SECTION
  2
TABLES
  0
TABLE
  2
LTYPE
 70
256
  0
ENDTAB
  0
TABLE
  2
LAYER
 70
4
  0
LAYER
  2
LAYER_1
 70
64
 62
7
  6
CONTINUOUS
  0
LAYER
  2
LAYER_2
 70
64
 62
7
  6
CONTINUOUS
  0
LAYER
  2
LAYER_3
 70
64
 62
7
  6
CONTINUOUS
  0
LAYER
  2
LAYER_4
 70
64
 62
7
  6
CONTINUOUS
  0
ENDTAB
  0
TABLE
  2
STYLE
 70
6
  0
STYLE
  2
STANDARD
 70
0
 40
0
 50
0
 71
0
 41
0
 42
0
  3
TXT
  4
BIGFONT
  0
ENDTAB
  0
ENDSEC
  0
SECTION
  2
BLOCKS
  0
BLOCK
  8
LAYER_1
  2
AIGNBL01030005
 70
64
 10
0
 20
0
 30
0
  3
AIGNBL01030005
  0
LINE
  8
LAYER_1
 10
351.6608
 20
-18.6827
 11
351.6608
 21
-24.6402
  0
LINE
  8
LAYER_1
 10
351.6608
 20
-24.6402
 11
352.6854
 21
-24.6402
  0
LINE
  8
LAYER_1
 10
352.6854
 20
-24.6402
 11
352.6854
 21
-24.1943
  0
LINE
  8
LAYER_1
 10
352.6854
 20
-24.1943
 11
355.3631
 21
-24.1943
  0
LINE
  8
LAYER_1
 10
355.3631
 20
-24.1943
 11
355.3631
 21
-24.6402
  0
LINE
  8
LAYER_1
 10
355.3631
 20
-24.6402
 11
356.4356
 21
-24.6402
  0
LINE
  8
LAYER_1
 10
356.4356
 20
-24.6402
 11
356.4356
 21
-18.6827
  0
LINE
  8
LAYER_1
 10
356.4356
 20
-18.6827
 11
351.6608
 21
-18.6827
  0
LINE
  8
LAYER_1
 10
355.3631
 20
-23.2015
 11
352.6854
 21
-23.2015
  0
LINE
  8
LAYER_1
 10
352.6854
 20
-23.2015
 11
352.6854
 21
-21.9114
  0
LINE
  8
LAYER_1
 10
352.6854
 20
-21.9114
 11
355.3631
 21
-21.9114
  0
LINE
  8
LAYER_1
 10
355.3631
 20
-21.9114
 11
355.3631
 21
-23.2015
  0
LINE
  8
LAYER_1
 10
355.3631
 20
-20.9388
 11
352.6854
 21
-20.9388
  0
LINE
  8
LAYER_1
 10
352.6854
 20
-20.9388
 11
352.6854
 21
-19.6756
  0
LINE
  8
LAYER_1
 10
352.6854
 20
-19.6756
 11
355.3631
 21
-19.6756
  0
LINE
  8
LAYER_1
 10
355.3631
 20
-19.6756
 11
355.3631
 21
-20.9388
  0
ENDBLK
  0
BLOCK
  8
LAYER_1
  2
AIGNBL01030006
 70
64
 10
0
 20
0
 30
0
  3
AIGNBL01030006
  0
LINE
  8
LAYER_1
 10
361.1949
 20
-20.6576
 11
363.0347
 21
-20.6576
  0
LINE
  8
LAYER_1
 10
363.0347
 20
-20.6576
 11
363.0347
 21
-19.7345
  0
LINE
  8
LAYER_1
 10
363.0347
 20
-19.7345
 11
360.6544
 21
-19.7345
  0
LINE
  8
LAYER_1
 10
360.6544
 20
-19.7345
 11
360.6544
 21
-18.5234
  0
LINE
  8
LAYER_1
 10
360.6544
 20
-18.5234
 11
359.708
 21
-18.5234
  0
LINE
  8
LAYER_1
 10
359.708
 20
-18.5234
 11
359.708
 21
-19.7345
  0
LINE
  8
LAYER_1
 10
359.708
 20
-19.7345
 11
357.3425
 21
-19.7345
  0
LINE
  8
LAYER_1
 10
357.3425
 20
-19.7345
 11
357.3425
 21
-20.6576
  0
LINE
  8
LAYER_1
 10
357.3425
 20
-20.6576
 11
359.1824
 21
-20.6576
  0
ARC
  8
LAYER_1
 10
352.8546
 20
-17.3096
 40
7.1589
 50
320.090402
 51
332.1165604
  0
ARC
  8
LAYER_1
 10
354.2211
 20
-18.4889
 40
5.3542
 50
306.7900371
 51
320.388939
  0
ARC
  8
LAYER_1
 10
355.363
 20
-19.9296
 40
3.517
 50
299.7830125
 51
305.949067
  0
ARC
  8
LAYER_1
 10
357.3634
 20
-22.9418
 40
0.2566
 50
189.0074096
 51
222.6984605
  0
ARC
  8
LAYER_1
 10
349.1372
 20
-31.2373
 40
11.4263
 50
41.87779049
 51
45.2975775
  0
ARC
  8
LAYER_1
 10
356.4824
 20
-24.3816
 40
1.3954
 50
27.02587099
 51
33.58032053
  0
ARC
  8
LAYER_1
 10
357.2054
 20
-22.7438
 40
1.1304
 50
297.3892127
 51
310.3878745
  0
ARC
  8
LAYER_1
 10
354.0201
 20
-18.4423
 40
6.4808
 50
307.1941606
 51
316.157217
  0
LINE
  8
LAYER_1
 10
358.6943
 20
-22.9314
 11
358.6943
 21
-23.6463
  0
LINE
  8
LAYER_1
 10
358.6943
 20
-23.6463
 11
359.708
 21
-23.6463
  0
LINE
  8
LAYER_1
 10
359.708
 20
-23.6463
 11
359.708
 21
-24.6876
  0
LINE
  8
LAYER_1
 10
359.708
 20
-24.6876
 11
360.6544
 21
-24.6876
  0
LINE
  8
LAYER_1
 10
360.6544
 20
-24.6876
 11
360.6544
 21
-23.6463
  0
LINE
  8
LAYER_1
 10
360.6544
 20
-23.6463
 11
361.6305
 21
-23.6463
  0
LINE
  8
LAYER_1
 10
361.6305
 20
-23.6463
 11
361.6305
 21
-22.8527
  0
ARC
  8
LAYER_1
 10
367.4883
 20
-17.4254
 40
7.9856
 50
222.815146
 51
229.3961219
  0
ARC
  8
LAYER_1
 10
363.3358
 20
-22.334
 40
1.5569
 50
227.8538365
 51
243.321749
  0
ARC
  8
LAYER_1
 10
365.3283
 20
-25.2866
 40
3.1117
 50
130.0133947
 51
149.8793337
  0
ARC
  8
LAYER_1
 10
366.7079
 20
-17.3889
 40
6.4681
 50
224.481624
 51
238.4919087
  0
ARC
  8
LAYER_1
 10
366.2472
 20
-18.041
 40
5.6842
 50
209.4847319
 51
223.0462119
  0
ARC
  8
LAYER_1
 10
368.6885
 20
-16.4658
 40
8.5864
 50
209.2217911
 51
210.6164294
  0
LINE
  8
LAYER_1
 10
359.708
 20
-22.7289
 11
358.8744
 21
-22.7289
  0
ARC
  8
LAYER_1
 10
349.8954
 20
-15.6235
 40
11.4502
 50
321.6442745
 51
327.3776932
  0
ARC
  8
LAYER_1
 10
358.7365
 20
-21.2021
 40
0.9988
 50
323.4874232
 51
346.5604038
  0
LINE
  8
LAYER_1
 10
359.708
 20
-21.4342
 11
359.708
 21
-22.7289
  0
LINE
  8
LAYER_1
 10
360.6544
 20
-22.7289
 11
360.6469
 21
-21.4287
  0
ARC
  8
LAYER_1
 10
362.6699
 20
-20.5916
 40
2.1894
 50
202.4797564
 51
213.37689
  0
ARC
  8
LAYER_1
 10
369.8576
 20
-15.9715
 40
10.7338
 50
212.8634514
 51
219.016696
  0
LINE
  8
LAYER_1
 10
361.5179
 20
-22.7289
 11
360.6544
 21
-22.7289
  0
ENDBLK
  0
BLOCK
  8
LAYER_1
  2
AIGNBL01030007
 70
64
 10
0
 20
0
 30
0
  3
AIGNBL01030007
  0
LINE
  8
LAYER_1
 10
364.3797
 20
-22.0502
 11
364.3797
 21
-24.7051
  0
LINE
  8
LAYER_1
 10
364.3797
 20
-24.7051
 11
365.2777
 21
-24.7051
  0
LINE
  8
LAYER_1
 10
365.2777
 20
-24.7051
 11
365.2777
 21
-24.5221
  0
LINE
  8
LAYER_1
 10
365.2777
 20
-24.5221
 11
368.0042
 21
-24.5221
  0
LINE
  8
LAYER_1
 10
368.0042
 20
-24.5221
 11
368.0042
 21
-24.653
  0
LINE
  8
LAYER_1
 10
368.0042
 20
-24.653
 11
368.9475
 21
-24.653
  0
LINE
  8
LAYER_1
 10
368.9475
 20
-24.653
 11
368.9475
 21
-22.0502
  0
LINE
  8
LAYER_1
 10
368.9475
 20
-22.0502
 11
364.3797
 21
-22.0502
  0
LINE
  8
LAYER_1
 10
365.2777
 20
-22.5871
 11
366.1759
 21
-22.5871
  0
LINE
  8
LAYER_1
 10
366.1759
 20
-22.5871
 11
366.1759
 21
-23.0127
  0
LINE
  8
LAYER_1
 10
366.1759
 20
-23.0127
 11
365.2777
 21
-23.0127
  0
LINE
  8
LAYER_1
 10
365.2777
 20
-23.0127
 11
365.2777
 21
-22.5871
  0
LINE
  8
LAYER_1
 10
366.1822
 20
-23.9775
 11
365.2712
 21
-23.9775
  0
LINE
  8
LAYER_1
 10
365.2712
 20
-23.9775
 11
365.2712
 21
-23.5714
  0
LINE
  8
LAYER_1
 10
365.2712
 20
-23.5714
 11
366.1822
 21
-23.5714
  0
LINE
  8
LAYER_1
 10
366.1822
 20
-23.5714
 11
366.1822
 21
-23.9775
  0
LINE
  8
LAYER_1
 10
368.0042
 20
-23.9775
 11
367.0933
 21
-23.9775
  0
LINE
  8
LAYER_1
 10
367.0933
 20
-23.9775
 11
367.0933
 21
-23.5714
  0
LINE
  8
LAYER_1
 10
367.0933
 20
-23.5714
 11
368.0042
 21
-23.5714
  0
LINE
  8
LAYER_1
 10
368.0042
 20
-23.5714
 11
368.0042
 21
-23.9775
  0
LINE
  8
LAYER_1
 10
368.0042
 20
-22.9955
 11
367.0933
 21
-22.9955
  0
LINE
  8
LAYER_1
 10
367.0933
 20
-22.9955
 11
367.0933
 21
-22.5895
  0
LINE
  8
LAYER_1
 10
367.0933
 20
-22.5895
 11
368.0042
 21
-22.5895
  0
LINE
  8
LAYER_1
 10
368.0042
 20
-22.5895
 11
368.0042
 21
-22.9955
  0
ENDBLK
  0
BLOCK
  8
LAYER_1
  2
AIGNBL01030008
 70
64
 10
0
 20
0
 30
0
  3
AIGNBL01030008
  0
LINE
  8
LAYER_1
 10
372.772
 20
-19.4737
 11
372.772
 21
-18.6171
  0
LINE
  8
LAYER_1
 10
372.772
 20
-18.6171
 11
370.123
 21
-18.6171
  0
LINE
  8
LAYER_1
 10
370.123
 20
-18.6171
 11
370.123
 21
-19.4737
  0
LINE
  8
LAYER_1
 10
370.123
 20
-19.4737
 11
370.8144
 21
-19.4737
  0
ARC
  8
LAYER_1
 10
356.4936
 20
-17.2671
 40
14.4898
 50
345.1345212
 51
351.2405475
  0
ARC
  8
LAYER_1
 10
366.8274
 20
-20.0374
 40
3.7912
 50
328.8660584
 51
345.5344938
  0
ARC
  8
LAYER_1
 10
368.4286
 20
-20.8831
 40
1.9862
 50
321.4032115
 51
325.8630795
  0
ARC
  8
LAYER_1
 10
368.3738
 20
-23.5064
 40
2.1211
 50
13.85472312
 51
40.74075759
  0
LINE
  8
LAYER_1
 10
370.4332
 20
-22.9985
 11
370.5883
 21
-22.7958
  0
LINE
  8
LAYER_1
 10
370.5883
 20
-22.7958
 11
370.5883
 21
-24.2866
  0
LINE
  8
LAYER_1
 10
370.5883
 20
-24.2866
 11
371.3958
 21
-24.2866
  0
LINE
  8
LAYER_1
 10
371.3958
 20
-24.2866
 11
371.3958
 21
-23.8159
  0
LINE
  8
LAYER_1
 10
371.3958
 20
-23.8159
 11
372.6301
 21
-23.8159
  0
LINE
  8
LAYER_1
 10
372.6301
 20
-23.8159
 11
372.6301
 21
-20.6966
  0
LINE
  8
LAYER_1
 10
372.6301
 20
-20.6966
 11
371.4669
 21
-20.6966
  0
ARC
  8
LAYER_1
 10
363.6989
 20
-18.5004
 40
8.0725
 50
344.2131719
 51
353.0750751
  0
LINE
  8
LAYER_1
 10
371.7125
 20
-19.4737
 11
372.772
 21
-19.4737
  0
LINE
  8
LAYER_1
 10
371.803
 20
-22.9919
 11
371.3958
 21
-22.9919
  0
LINE
  8
LAYER_1
 10
371.3958
 20
-22.9919
 11
371.3958
 21
-21.5204
  0
LINE
  8
LAYER_1
 10
371.3958
 20
-21.5204
 11
371.803
 21
-21.5204
  0
LINE
  8
LAYER_1
 10
371.803
 20
-21.5204
 11
371.803
 21
-22.9919
  0
ENDBLK
  0
BLOCK
  8
LAYER_1
  2
AIGNBL01030009
 70
64
 10
0
 20
0
 30
0
  3
AIGNBL01030009
  0
LINE
  8
LAYER_1
 10
375.5843
 20
-21.0627
 11
375.5843
 21
-19.4932
  0
LINE
  8
LAYER_1
 10
375.5843
 20
-19.4932
 11
376.0884
 21
-19.4932
  0
LINE
  8
LAYER_1
 10
376.0884
 20
-19.4932
 11
376.0884
 21
-18.6171
  0
LINE
  8
LAYER_1
 10
376.0884
 20
-18.6171
 11
372.89
 21
-18.6171
  0
LINE
  8
LAYER_1
 10
372.89
 20
-18.6171
 11
372.89
 21
-19.4932
  0
LINE
  8
LAYER_1
 10
372.89
 20
-19.4932
 11
373.323
 21
-19.4932
  0
LINE
  8
LAYER_1
 10
373.323
 20
-19.4932
 11
373.323
 21
-21.0627
  0
LINE
  8
LAYER_1
 10
373.323
 20
-21.0627
 11
372.7285
 21
-21.0627
  0
LINE
  8
LAYER_1
 10
372.7285
 20
-21.0627
 11
372.7285
 21
-21.9587
  0
LINE
  8
LAYER_1
 10
372.7285
 20
-21.9587
 11
373.2971
 21
-21.9587
  0
ARC
  8
LAYER_1
 10
370.5179
 20
-21.9112
 40
2.7796
 50
338.6726626
 51
359.0209934
  0
ARC
  8
LAYER_1
 10
370.2413
 20
-21.8534
 40
3.0587
 50
321.0652746
 51
339.5482703
  0
ARC
  8
LAYER_1
 10
370.471
 20
-22.0198
 40
2.7755
 50
312.3585029
 51
320.7571916
  0
ARC
  8
LAYER_1
 10
369.9128
 20
-28.2294
 40
4.8157
 50
49.01744843
 51
59.72034273
  0
ARC
  8
LAYER_1
 10
371.6288
 20
-22.7923
 40
2.3079
 50
308.6770083
 51
331.7345889
  0
ARC
  8
LAYER_1
 10
370.3348
 20
-22.0397
 40
3.8043
 50
330.9809007
 51
347.5160211
  0
ARC
  8
LAYER_1
 10
369.047
 20
-21.6624
 40
5.144
 50
346.5132457
 51
356.6977471
  0
LINE
  8
LAYER_1
 10
374.1825
 20
-21.9587
 11
374.6928
 21
-21.9587
  0
LINE
  8
LAYER_1
 10
374.6928
 20
-21.9587
 11
374.6928
 21
-24.5744
  0
LINE
  8
LAYER_1
 10
374.6928
 20
-24.5744
 11
375.5843
 21
-24.5744
  0
LINE
  8
LAYER_1
 10
375.5843
 20
-24.5744
 11
375.5843
 21
-21.9587
  0
LINE
  8
LAYER_1
 10
375.5843
 20
-21.9587
 11
376.1659
 21
-21.9587
  0
LINE
  8
LAYER_1
 10
376.1659
 20
-21.9587
 11
376.1659
 21
-21.0627
  0
LINE
  8
LAYER_1
 10
376.1659
 20
-21.0627
 11
375.5843
 21
-21.0627
  0
LINE
  8
LAYER_1
 10
374.6928
 20
-21.0627
 11
374.2017
 21
-21.0627
  0
LINE
  8
LAYER_1
 10
374.2017
 20
-21.0627
 11
374.2017
 21
-19.4932
  0
LINE
  8
LAYER_1
 10
374.2017
 20
-19.4932
 11
374.6928
 21
-19.4932
  0
LINE
  8
LAYER_1
 10
374.6928
 20
-19.4932
 11
374.6928
 21
-21.0627
  0
ENDBLK
  0
BLOCK
  8
LAYER_1
  2
AIGNBL0103000A
 70
64
 10
0
 20
0
 30
0
  3
AIGNBL0103000A
  0
ARC
  8
LAYER_1
 10
348.7749
 20
-19.7029
 40
1.9538
 50
288.5728851
 51
313.5589395
  0
ARC
  8
LAYER_1
 10
349.2926
 20
-20.3423
 40
1.1356
 50
316.8584967
 51
347.2193472
  0
ARC
  8
LAYER_1
 10
348.4589
 20
-20.1395
 40
1.9937
 50
346.8369842
 51
1.013916361
  0
ARC
  8
LAYER_1
 10
349.1937
 20
-20.1074
 40
1.2585
 50
0.1442876533
 51
45.47147913
  0
ARC
  8
LAYER_1
 10
348.6643
 20
-20.6066
 40
1.9859
 50
44.68437791
 51
67.71710381
  0
ARC
  8
LAYER_1
 10
348.4024
 20
-21.0891
 40
2.5323
 50
66.37394432
 51
86.05236678
  0
ARC
  8
LAYER_1
 10
348.5066
 20
-20.2975
 40
1.7361
 50
87.68383207
 51
89.78881595
  0
LINE
  8
LAYER_1
 10
348.513
 20
-18.5614
 11
345.5421
 21
-18.5614
  0
LINE
  8
LAYER_1
 10
345.5421
 20
-18.5614
 11
345.5421
 21
-21.8229
  0
LINE
  8
LAYER_1
 10
345.5421
 20
-21.8229
 11
347.3051
 21
-21.8229
  0
ARC
  8
LAYER_1
 10
347.331
 20
-23.4609
 40
1.6382
 50
64.35518167
 51
90.905835
  0
ARC
  8
LAYER_1
 10
347.5318
 20
-22.9615
 40
1.1016
 50
16.86565433
 51
62.52763861
  0
ARC
  8
LAYER_1
 10
347.7116
 20
-22.8924
 40
0.9097
 50
0.3657920727
 51
15.98793587
  0
LINE
  8
LAYER_1
 10
348.6212
 20
-22.8866
 11
348.6212
 21
-24.6193
  0
LINE
  8
LAYER_1
 10
348.6212
 20
-24.6193
 11
350.1657
 21
-24.6193
  0
LINE
  8
LAYER_1
 10
350.1657
 20
-24.6193
 11
350.1657
 21
-22.7905
  0
ARC
  8
LAYER_1
 10
348.1169
 20
-22.7474
 40
2.0493
 50
358.7953186
 51
12.5237444
  0
ARC
  8
LAYER_1
 10
349.1685
 20
-22.5087
 40
0.971
 50
12.22629885
 51
45.01434
  0
ARC
  8
LAYER_1
 10
348.9903
 20
-22.7785
 40
1.2894
 50
47.89284515
 51
71.60372221
  0
LINE
  8
LAYER_1
 10
348.3227
 20
-20.7712
 11
347.0847
 21
-20.7712
  0
LINE
  8
LAYER_1
 10
347.0847
 20
-20.7712
 11
347.0847
 21
-19.6173
  0
LINE
  8
LAYER_1
 10
347.0847
 20
-19.6173
 11
347.1208
 21
-19.6173
  0
LINE
  8
LAYER_1
 10
347.1208
 20
-19.6173
 11
348.3548
 21
-19.6173
  0
ARC
  8
LAYER_1
 10
348.314
 20
-20.2805
 40
0.6645
 50
46.60498432
 51
86.47787041
  0
ARC
  8
LAYER_1
 10
348.38
 20
-20.1655
 40
0.5365
 50
356.9384635
 51
43.29207093
  0
ARC
  8
LAYER_1
 10
348.3704
 20
-20.1929
 40
0.5453
 50
290.0148134
 51
359.8586292
  0
ARC
  8
LAYER_1
 10
348.194
 20
-19.8655
 40
0.9148
 50
278.085377
 51
293.3808036
  0
ENDBLK
  0
BLOCK
  8
LAYER_1
  2
AIGNBL0103000C
 70
64
 10
0
 20
0
 30
0
  3
AIGNBL0103000C
  0
LINE
  8
LAYER_1
 10
411.5395
 20
-23.684
 11
411.5395
 21
-20.7102
  0
LINE
  8
LAYER_1
 10
411.5395
 20
-20.7102
 11
411.8507
 21
-20.7102
  0
LINE
  8
LAYER_1
 10
411.8507
 20
-20.7102
 11
411.8507
 21
-24.2035
  0
LINE
  8
LAYER_1
 10
411.8507
 20
-24.2035
 11
411.5174
 21
-24.2035
  0
LINE
  8
LAYER_1
 10
411.5174
 20
-24.2035
 11
409.5408
 21
-21.0864
  0
LINE
  8
LAYER_1
 10
409.5408
 20
-21.0864
 11
409.5408
 21
-24.2035
  0
LINE
  8
LAYER_1
 10
409.5408
 20
-24.2035
 11
409.2299
 21
-24.2035
  0
LINE
  8
LAYER_1
 10
409.2299
 20
-24.2035
 11
409.2299
 21
-20.7102
  0
LINE
  8
LAYER_1
 10
409.2299
 20
-20.7102
 11
409.6295
 21
-20.7102
  0
LINE
  8
LAYER_1
 10
409.6295
 20
-20.7102
 11
411.5395
 21
-23.684
  0
ENDBLK
  0
BLOCK
  8
LAYER_1
  2
AIGNBL0103000D
 70
64
 10
0
 20
0
 30
0
  3
AIGNBL0103000D
  0
LINE
  8
LAYER_1
 10
412.8944
 20
-21.0864
 11
412.5394
 21
-21.0864
  0
LINE
  8
LAYER_1
 10
412.5394
 20
-21.0864
 11
412.5394
 21
-20.7102
  0
LINE
  8
LAYER_1
 10
412.5394
 20
-20.7102
 11
412.8944
 21
-20.7102
  0
LINE
  8
LAYER_1
 10
412.8944
 20
-20.7102
 11
412.8944
 21
-21.0864
  0
LINE
  8
LAYER_1
 10
412.8723
 20
-24.2035
 11
412.5615
 21
-24.2035
  0
LINE
  8
LAYER_1
 10
412.5615
 20
-24.2035
 11
412.5615
 21
-21.7492
  0
LINE
  8
LAYER_1
 10
412.5615
 20
-21.7492
 11
412.8723
 21
-21.7492
  0
LINE
  8
LAYER_1
 10
412.8723
 20
-21.7492
 11
412.8723
 21
-24.2035
  0
ENDBLK
  0
BLOCK
  8
LAYER_1
  2
AIGNBL0103000E
 70
64
 10
0
 20
0
 30
0
  3
AIGNBL0103000E
  0
LINE
  8
LAYER_1
 10
413.8939
 20
-24.2035
 11
413.5831
 21
-24.2035
  0
LINE
  8
LAYER_1
 10
413.5831
 20
-24.2035
 11
413.5831
 21
-20.7102
  0
LINE
  8
LAYER_1
 10
413.5831
 20
-20.7102
 11
413.8939
 21
-20.7102
  0
LINE
  8
LAYER_1
 10
413.8939
 20
-20.7102
 11
413.8939
 21
-22.2508
  0
ARC
  8
LAYER_1
 10
414.913
 20
-22.8743
 40
1.1947
 50
129.0328281
 51
148.5393959
  0
ARC
  8
LAYER_1
 10
414.7204
 20
-22.6489
 40
0.8984
 50
91.65079798
 51
128.5451202
  0
ARC
  8
LAYER_1
 10
414.7575
 20
-22.8894
 40
1.1402
 50
89.86186398
 51
93.16396332
  0
ARC
  8
LAYER_1
 10
414.7957
 20
-22.6626
 40
0.9141
 50
55.36538414
 51
92.22365013
  0
ARC
  8
LAYER_1
 10
414.8622
 20
-22.4416
 40
0.6981
 50
7.404119548
 51
49.53910649
  0
ARC
  8
LAYER_1
 10
413.9496
 20
-22.6495
 40
1.6323
 50
359.5287787
 51
10.51193458
  0
LINE
  8
LAYER_1
 10
415.5818
 20
-22.6629
 11
415.5818
 21
-24.2035
  0
LINE
  8
LAYER_1
 10
415.5818
 20
-24.2035
 11
415.271
 21
-24.2035
  0
LINE
  8
LAYER_1
 10
415.271
 20
-24.2035
 11
415.271
 21
-22.6987
  0
ARC
  8
LAYER_1
 10
414.1367
 20
-22.6587
 40
1.1351
 50
357.9814083
 51
16.98089473
  0
ARC
  8
LAYER_1
 10
414.8061
 20
-22.4512
 40
0.4342
 50
16.59273271
 51
48.62609954
  0
ARC
  8
LAYER_1
 10
414.7224
 20
-22.6074
 40
0.6081
 50
52.43458988
 51
92.7202545
  0
ARC
  8
LAYER_1
 10
414.6939
 20
-22.6935
 40
0.6935
 50
90.03695159
 51
129.87747
  0
ARC
  8
LAYER_1
 10
414.8264
 20
-22.8988
 40
0.9364
 50
128.0438965
 51
164.2242718
  0
ARC
  8
LAYER_1
 10
414.882
 20
-22.8911
 40
0.9881
 50
165.531143
 51
180.2736079
  0
LINE
  8
LAYER_1
 10
413.8939
 20
-22.8958
 11
413.8939
 21
-24.2035
  0
ENDBLK
  0
BLOCK
  8
LAYER_1
  2
AIGNBL0103000F
 70
64
 10
0
 20
0
 30
0
  3
AIGNBL0103000F
  0
ARC
  8
LAYER_1
 10
417.4066
 20
-22.935
 40
1.1858
 50
50.66048807
 51
90.17320777
  0
ARC
  8
LAYER_1
 10
417.551
 20
-22.7598
 40
0.9588
 50
14.7589366
 51
50.69787554
  0
ARC
  8
LAYER_1
 10
416.9386
 20
-22.9416
 40
1.5974
 50
359.0746232
 51
15.46762674
  0
ARC
  8
LAYER_1
 10
417.0472
 20
-23.0055
 40
1.4891
 50
332.9296754
 51
1.46551095
  0
ARC
  8
LAYER_1
 10
417.59
 20
-23.232
 40
0.9038
 50
308.9611357
 51
330.0560601
  0
ARC
  8
LAYER_1
 10
417.404
 20
-23.0105
 40
1.193
 50
269.9511589
 51
309.2151452
  0
ARC
  8
LAYER_1
 10
417.3992
 20
-23.0192
 40
1.1844
 50
230.6348894
 51
270.1844284
  0
ARC
  8
LAYER_1
 10
417.2485
 20
-23.2004
 40
0.9487
 50
194.5571008
 51
230.7288295
  0
ARC
  8
LAYER_1
 10
417.9308
 20
-22.9964
 40
1.6605
 50
179.000404
 51
195.4530529
  0
ARC
  8
LAYER_1
 10
417.7048
 20
-22.9314
 40
1.4347
 50
152.4410049
 51
181.436924
  0
ARC
  8
LAYER_1
 10
417.2213
 20
-22.7294
 40
0.9137
 50
128.860566
 51
149.6458489
  0
ARC
  8
LAYER_1
 10
417.402
 20
-22.9415
 40
1.1923
 50
89.95302455
 51
129.2276577
  0
ARC
  8
LAYER_1
 10
417.373
 20
-22.7711
 40
0.7488
 50
129.9530716
 51
170.501807
  0
ARC
  8
LAYER_1
 10
418.1247
 20
-22.954
 40
1.5214
 50
168.3798418
 51
180.5055652
  0
ARC
  8
LAYER_1
 10
417.8152
 20
-23.0123
 40
1.2126
 50
177.8782097
 51
209.7643113
  0
ARC
  8
LAYER_1
 10
417.2982
 20
-23.2534
 40
0.6459
 50
213.9706427
 51
231.0555735
  0
ARC
  8
LAYER_1
 10
417.3959
 20
-23.137
 40
0.7978
 50
230.8483722
 51
270.5075942
  0
ARC
  8
LAYER_1
 10
417.4086
 20
-23.1327
 40
0.8021
 50
269.6030079
 51
309.0410257
  0
ARC
  8
LAYER_1
 10
417.4309
 20
-23.1827
 40
0.7493
 50
310.1265727
 51
351.2098289
  0
ARC
  8
LAYER_1
 10
416.5966
 20
-22.9824
 40
1.606
 50
348.6936027
 51
0.5348985137
  0
ARC
  8
LAYER_1
 10
417.0411
 20
-22.9256
 40
1.1621
 50
357.9389673
 51
30.40330024
  0
ARC
  8
LAYER_1
 10
417.4984
 20
-22.7108
 40
0.6606
 50
34.40761089
 51
51.03835046
  0
ARC
  8
LAYER_1
 10
417.4087
 20
-22.8192
 40
0.8013
 50
50.92748548
 51
90.40850442
  0
ARC
  8
LAYER_1
 10
417.3978
 20
-22.8208
 40
0.8029
 50
89.63079039
 51
129.0332197
  0
ENDBLK
  0
BLOCK
  8
LAYER_1
  2
AIGNBL01030010
 70
64
 10
0
 20
0
 30
0
  3
AIGNBL01030010
  0
ARC
  8
LAYER_1
 10
420.534
 20
-22.4255
 40
0.6524
 50
6.056198854
 51
49.63190274
  0
ARC
  8
LAYER_1
 10
419.76
 20
-22.5855
 40
1.4411
 50
359.7752786
 51
9.138499501
  0
LINE
  8
LAYER_1
 10
421.2011
 20
-22.5912
 11
421.2011
 21
-24.2035
  0
LINE
  8
LAYER_1
 10
421.2011
 20
-24.2035
 11
420.8903
 21
-24.2035
  0
LINE
  8
LAYER_1
 10
420.8903
 20
-24.2035
 11
420.8903
 21
-22.627
  0
ARC
  8
LAYER_1
 10
420.0306
 20
-22.5979
 40
0.8602
 50
358.0627892
 51
19.48702453
  0
ARC
  8
LAYER_1
 10
420.4339
 20
-22.4569
 40
0.4329
 50
19.69341995
 51
49.96487887
  0
ARC
  8
LAYER_1
 10
420.3786
 20
-22.5811
 40
0.5649
 50
53.77483402
 51
94.43462921
  0
ARC
  8
LAYER_1
 10
420.3353
 20
-22.711
 40
0.6931
 50
90.03352854
 51
129.8891711
  0
ARC
  8
LAYER_1
 10
420.5927
 20
-23.0407
 40
1.1112
 50
129.1703986
 51
162.076029
  0
LINE
  8
LAYER_1
 10
419.5354
 20
-22.6987
 11
419.5354
 21
-24.2035
  0
LINE
  8
LAYER_1
 10
419.5354
 20
-24.2035
 11
419.2245
 21
-24.2035
  0
LINE
  8
LAYER_1
 10
419.2245
 20
-24.2035
 11
419.2245
 21
-21.7492
  0
LINE
  8
LAYER_1
 10
419.2245
 20
-21.7492
 11
419.5354
 21
-21.7492
  0
LINE
  8
LAYER_1
 10
419.5354
 20
-21.7492
 11
419.5354
 21
-22.2508
  0
ARC
  8
LAYER_1
 10
420.4531
 20
-22.8395
 40
1.0903
 50
128.1496285
 51
147.3199772
  0
ARC
  8
LAYER_1
 10
420.428
 20
-22.7607
 40
1.0132
 50
94.71600563
 51
129.7843011
  0
ARC
  8
LAYER_1
 10
420.4009
 20
-22.6676
 40
0.9184
 50
89.95857338
 51
93.51287669
  0
ARC
  8
LAYER_1
 10
420.4209
 20
-22.6405
 40
0.8916
 50
53.90672978
 51
91.24072559
  0
ARC
  8
LAYER_1
 10
420.4721
 20
-22.5307
 40
0.773
 50
51.182327
 51
52.17256148
  0
ENDBLK
  0
BLOCK
  8
LAYER_1
  2
AIGNBL01030011
 70
64
 10
0
 20
0
 30
0
  3
AIGNBL01030011
  0
LINE
  8
LAYER_1
 10
424.6877
 20
-24.2035
 11
424.3102
 21
-24.2035
  0
LINE
  8
LAYER_1
 10
424.3102
 20
-24.2035
 11
423.1553
 21
-22.5912
  0
LINE
  8
LAYER_1
 10
423.1553
 20
-22.5912
 11
422.2003
 21
-22.5912
  0
LINE
  8
LAYER_1
 10
422.2003
 20
-22.5912
 11
422.2003
 21
-24.2035
  0
LINE
  8
LAYER_1
 10
422.2003
 20
-24.2035
 11
421.8895
 21
-24.2035
  0
LINE
  8
LAYER_1
 10
421.8895
 20
-24.2035
 11
421.8895
 21
-20.7102
  0
LINE
  8
LAYER_1
 10
421.8895
 20
-20.7102
 11
423.2886
 21
-20.7102
  0
ARC
  8
LAYER_1
 10
423.3372
 20
-22.4217
 40
1.7122
 50
64.78634393
 51
91.62619302
  0
ARC
  8
LAYER_1
 10
423.6411
 20
-21.6537
 40
0.8895
 50
51.15329891
 51
61.42266901
  0
ARC
  8
LAYER_1
 10
423.6728
 20
-21.6131
 40
0.8379
 50
358.0408562
 51
51.09666914
  0
ARC
  8
LAYER_1
 10
423.6279
 20
-21.6586
 40
0.8825
 50
324.0471581
 51
1.094656138
  0
ARC
  8
LAYER_1
 10
423.6588
 20
-21.6486
 40
0.8637
 50
308.7150246
 51
322.3076092
  0
ARC
  8
LAYER_1
 10
423.5814
 20
-21.5317
 40
1.0034
 50
290.1225305
 51
307.9861977
  0
ARC
  8
LAYER_1
 10
423.3108
 20
-20.7763
 40
1.8057
 50
275.6510591
 51
289.9407673
  0
LINE
  8
LAYER_1
 10
423.4886
 20
-22.5733
 11
424.6877
 21
-24.2035
  0
LINE
  8
LAYER_1
 10
422.2003
 20
-20.9789
 11
422.2003
 21
-22.3225
  0
LINE
  8
LAYER_1
 10
422.2003
 20
-22.3225
 11
423.1999
 21
-22.3225
  0
ARC
  8
LAYER_1
 10
423.2353
 20
-20.6147
 40
1.7082
 50
268.8140544
 51
283.8362217
  0
ARC
  8
LAYER_1
 10
423.4489
 20
-21.4626
 40
0.8338
 50
283.5126132
 51
307.3500636
  0
ARC
  8
LAYER_1
 10
423.582
 20
-21.6614
 40
0.5952
 50
308.7770129
 51
1.89675522
  0
ARC
  8
LAYER_1
 10
423.5654
 20
-21.6297
 40
0.6116
 50
358.8786991
 51
50.45651815
  0
ARC
  8
LAYER_1
 10
423.5052
 20
-21.7378
 40
0.7336
 50
52.20437902
 51
73.14441129
  0
ARC
  8
LAYER_1
 10
423.3236
 20
-22.3654
 40
1.387
 50
73.48035818
 51
91.44416141
  0
LINE
  8
LAYER_1
 10
423.2886
 20
-20.9789
 11
422.2003
 21
-20.9789
  0
ENDBLK
  0
BLOCK
  8
LAYER_1
  2
AIGNBL01030012
 70
64
 10
0
 20
0
 30
0
  3
AIGNBL01030012
  0
ARC
  8
LAYER_1
 10
426.5279
 20
-22.4533
 40
0.6477
 50
358.8953531
 51
51.5122055
  0
LINE
  8
LAYER_1
 10
427.1755
 20
-22.4658
 11
427.1755
 21
-23.684
  0
ARC
  8
LAYER_1
 10
428.214
 20
-23.6944
 40
1.0385
 50
179.4270287
 51
209.3553955
  0
LINE
  8
LAYER_1
 10
427.3088
 20
-24.2035
 11
426.9755
 21
-24.2035
  0
ARC
  8
LAYER_1
 10
427.576
 20
-23.8215
 40
0.7117
 50
181.906482
 51
212.4607174
  0
ARC
  8
LAYER_1
 10
426.2076
 20
-23.2802
 40
0.8666
 50
307.189829
 51
319.3119411
  0
ARC
  8
LAYER_1
 10
426.0757
 20
-23.1493
 40
1.0509
 50
274.3504506
 51
308.6050919
  0
ARC
  8
LAYER_1
 10
426.0271
 20
-22.8898
 40
1.3137
 50
269.7153606
 51
275.6028137
  0
ARC
  8
LAYER_1
 10
425.9966
 20
-23.189
 40
1.0148
 50
236.3031971
 51
271.3563635
  0
ARC
  8
LAYER_1
 10
425.917
 20
-23.3642
 40
0.8255
 50
231.0916401
 51
234.1536771
  0
ARC
  8
LAYER_1
 10
425.7316
 20
-23.5905
 40
0.5329
 50
178.4898405
 51
231.310301
  0
ARC
  8
LAYER_1
 10
425.7343
 20
-23.5808
 40
0.5354
 50
125.8132499
 51
179.5421234
  0
ARC
  8
LAYER_1
 10
426.2184
 20
-24.2123
 40
1.3311
 50
111.9806528
 51
126.804954
  0
ARC
  8
LAYER_1
 10
427.1308
 20
-26.3878
 40
3.6901
 50
106.0713169
 51
112.4745789
  0
ARC
  8
LAYER_1
 10
425.0759
 20
-18.9795
 40
3.9984
 50
284.9781471
 51
296.5755079
  0
ARC
  8
LAYER_1
 10
426.3299
 20
-22.5222
 40
0.5358
 50
356.4459578
 51
44.98280082
  0
ARC
  8
LAYER_1
 10
426.2916
 20
-22.6762
 40
0.6768
 50
51.93582601
 51
92.28115553
  0
ARC
  8
LAYER_1
 10
426.2551
 20
-22.6644
 40
0.6645
 50
89.17415551
 51
128.3624373
  0
ARC
  8
LAYER_1
 10
426.211
 20
-22.5833
 40
0.5737
 50
129.9342965
 51
171.8099241
  0
LINE
  8
LAYER_1
 10
425.6431
 20
-22.5016
 11
425.2877
 21
-22.5016
  0
ARC
  8
LAYER_1
 10
426.1199
 20
-22.6231
 40
0.841
 50
126.4197674
 51
171.6952148
  0
ARC
  8
LAYER_1
 10
426.1861
 20
-22.6738
 40
0.9214
 50
91.54029619
 51
127.8599821
  0
ARC
  8
LAYER_1
 10
426.2587
 20
-23.106
 40
1.3568
 50
89.74536284
 51
94.11318416
  0
ARC
  8
LAYER_1
 10
426.2994
 20
-22.8785
 40
1.1298
 50
58.62210292
 51
91.75974267
  0
ARC
  8
LAYER_1
 10
426.4465
 20
-22.5492
 40
0.7735
 50
51.21058398
 51
55.21946665
  0
ARC
  8
LAYER_1
 10
425.7937
 20
-20.7052
 40
2.3902
 50
282.4572156
 51
296.6202321
  0
ARC
  8
LAYER_1
 10
426.6279
 20
-24.7259
 40
1.7167
 50
100.6955324
 51
123.2245733
  0
ARC
  8
LAYER_1
 10
425.9101
 20
-23.5961
 40
0.3787
 50
126.0379939
 51
177.0272144
  0
ARC
  8
LAYER_1
 10
425.8468
 20
-23.5699
 40
0.315
 50
181.1933991
 51
234.7878184
  0
ARC
  8
LAYER_1
 10
425.9986
 20
-23.373
 40
0.5635
 50
233.7241646
 51
274.4852987
  0
ARC
  8
LAYER_1
 10
426.0716
 20
-23.0681
 40
0.8672
 50
268.0876102
 51
305.5552096
  0
ARC
  8
LAYER_1
 10
425.5346
 20
-22.4359
 40
1.6952
 50
307.8971281
 51
321.6847291
  0
LINE
  8
LAYER_1
 10
426.8647
 20
-23.4869
 11
426.8647
 21
-22.842
  0
ENDBLK
  0
BLOCK
  8
LAYER_1
  2
AIGNBL01030013
 70
64
 10
0
 20
0
 30
0
  3
AIGNBL01030013
  0
LINE
  8
LAYER_1
 10
428.3526
 20
-21.0864
 11
427.9975
 21
-21.0864
  0
LINE
  8
LAYER_1
 10
427.9975
 20
-21.0864
 11
427.9975
 21
-20.7102
  0
LINE
  8
LAYER_1
 10
427.9975
 20
-20.7102
 11
428.3526
 21
-20.7102
  0
LINE
  8
LAYER_1
 10
428.3526
 20
-20.7102
 11
428.3526
 21
-21.0864
  0
LINE
  8
LAYER_1
 10
428.3305
 20
-24.2035
 11
428.0196
 21
-24.2035
  0
LINE
  8
LAYER_1
 10
428.0196
 20
-24.2035
 11
428.0196
 21
-21.7492
  0
LINE
  8
LAYER_1
 10
428.0196
 20
-21.7492
 11
428.3305
 21
-21.7492
  0
LINE
  8
LAYER_1
 10
428.3305
 20
-21.7492
 11
428.3305
 21
-24.2035
  0
ENDBLK
  0
BLOCK
  8
LAYER_1
  2
AIGNBL01030014
 70
64
 10
0
 20
0
 30
0
  3
AIGNBL01030014
  0
LINE
  8
LAYER_1
 10
429.3521
 20
-22.9137
 11
430.6625
 21
-21.7492
  0
LINE
  8
LAYER_1
 10
430.6625
 20
-21.7492
 11
431.0621
 21
-21.7492
  0
LINE
  8
LAYER_1
 10
431.0621
 20
-21.7492
 11
430.0629
 21
-22.6629
  0
LINE
  8
LAYER_1
 10
430.0629
 20
-22.6629
 11
431.2179
 21
-24.2035
  0
LINE
  8
LAYER_1
 10
431.2179
 20
-24.2035
 11
430.84
 21
-24.2035
  0
LINE
  8
LAYER_1
 10
430.84
 20
-24.2035
 11
429.8408
 21
-22.8599
  0
LINE
  8
LAYER_1
 10
429.8408
 20
-22.8599
 11
429.3521
 21
-23.272
  0
LINE
  8
LAYER_1
 10
429.3521
 20
-23.272
 11
429.3521
 21
-24.2035
  0
LINE
  8
LAYER_1
 10
429.3521
 20
-24.2035
 11
429.0413
 21
-24.2035
  0
LINE
  8
LAYER_1
 10
429.0413
 20
-24.2035
 11
429.0413
 21
-20.7102
  0
LINE
  8
LAYER_1
 10
429.0413
 20
-20.7102
 11
429.3521
 21
-20.7102
  0
LINE
  8
LAYER_1
 10
429.3521
 20
-20.7102
 11
429.3521
 21
-22.9137
  0
ENDBLK
  0
BLOCK
  8
LAYER_1
  2
AIGNBL01030015
 70
64
 10
0
 20
0
 30
0
  3
AIGNBL01030015
  0
ARC
  8
LAYER_1
 10
433.1825
 20
-22.6522
 40
0.8778
 50
12.60762265
 51
49.76593377
  0
ARC
  8
LAYER_1
 10
432.0735
 20
-22.9753
 40
2.0319
 50
358.7061651
 51
14.67381124
  0
LINE
  8
LAYER_1
 10
434.1049
 20
-23.0212
 11
432.2391
 21
-23.0212
  0
ARC
  8
LAYER_1
 10
433.4042
 20
-23.018
 40
1.1651
 50
180.1558715
 51
212.9340521
  0
ARC
  8
LAYER_1
 10
432.9147
 20
-23.2773
 40
0.6152
 50
217.4591197
 51
231.0467545
  0
ARC
  8
LAYER_1
 10
433.0316
 20
-23.137
 40
0.7978
 50
230.8483722
 51
270.5075942
  0
ARC
  8
LAYER_1
 10
433.0443
 20
-23.1327
 40
0.8021
 50
269.6030079
 51
309.0410257
  0
ARC
  8
LAYER_1
 10
433.1891
 20
-23.315
 40
0.5693
 50
309.2741342
 51
349.8536404
  0
LINE
  8
LAYER_1
 10
433.7495
 20
-23.4153
 11
434.0603
 21
-23.4153
  0
ARC
  8
LAYER_1
 10
433.2398
 20
-23.3231
 40
0.8257
 50
314.9082692
 51
353.5909947
  0
ARC
  8
LAYER_1
 10
433.2875
 20
-23.3488
 40
0.774
 50
308.7196044
 51
313.7496745
  0
ARC
  8
LAYER_1
 10
433.0596
 20
-23.0684
 40
1.1353
 50
268.9430762
 51
308.8390436
  0
ARC
  8
LAYER_1
 10
433.021
 20
-22.9766
 40
1.227
 50
239.2915575
 51
270.8243559
  0
ARC
  8
LAYER_1
 10
432.9715
 20
-23.1041
 40
1.0923
 50
230.9757754
 51
238.1127847
  0
ARC
  8
LAYER_1
 10
432.8828
 20
-23.2226
 40
0.9445
 50
194.4673121
 51
230.6254269
  0
ARC
  8
LAYER_1
 10
433.6177
 20
-23.0004
 40
1.7118
 50
178.8963074
 51
195.5256383
  0
ARC
  8
LAYER_1
 10
433.3699
 20
-22.9325
 40
1.4642
 50
152.2578244
 51
181.3644851
  0
ARC
  8
LAYER_1
 10
432.9198
 20
-22.7455
 40
0.9797
 50
128.8098969
 51
149.6829014
  0
ARC
  8
LAYER_1
 10
432.9612
 20
-22.81
 40
1.0559
 50
94.54633015
 51
128.3661435
  0
ARC
  8
LAYER_1
 10
433.0296
 20
-23.1564
 40
1.4073
 50
89.62772971
 51
96.20349867
  0
ARC
  8
LAYER_1
 10
433.0571
 20
-22.911
 40
1.162
 50
58.69952131
 51
90.90490401
  0
ARC
  8
LAYER_1
 10
433.1139
 20
-22.7712
 40
1.0132
 50
51.14782851
 51
57.33687238
  0
ARC
  8
LAYER_1
 10
432.8785
 20
-22.7623
 40
0.8931
 50
0.6345507974
 51
37.95250503
  0
ARC
  8
LAYER_1
 10
433.1818
 20
-22.5869
 40
0.5483
 50
42.99529209
 51
50.92000113
  0
ARC
  8
LAYER_1
 10
433.0628
 20
-22.748
 40
0.7484
 50
51.62315581
 51
91.8449322
  0
ARC
  8
LAYER_1
 10
433.0165
 20
-22.8192
 40
0.8195
 50
88.44903279
 51
126.6010303
  0
ARC
  8
LAYER_1
 10
433.0209
 20
-22.7683
 40
0.7819
 50
129.0832464
 51
178.8382778
  0
LINE
  8
LAYER_1
 10
432.2391
 20
-22.7524
 11
433.7716
 21
-22.7524
  0
ENDBLK
  0
BLOCK
  8
LAYER_1
  2
AIGNBL01030016
 70
64
 10
0
 20
0
 30
0
  3
AIGNBL01030016
  0
ARC
  8
LAYER_1
 10
436.1033
 20
-22.4255
 40
0.6523
 50
6.057824587
 51
49.65076746
  0
ARC
  8
LAYER_1
 10
435.3293
 20
-22.5855
 40
1.4409
 50
359.7751054
 51
9.139665558
  0
LINE
  8
LAYER_1
 10
436.7702
 20
-22.5912
 11
436.7702
 21
-24.2035
  0
LINE
  8
LAYER_1
 10
436.7702
 20
-24.2035
 11
436.4593
 21
-24.2035
  0
LINE
  8
LAYER_1
 10
436.4593
 20
-24.2035
 11
436.4593
 21
-22.627
  0
ARC
  8
LAYER_1
 10
435.5993
 20
-22.5979
 40
0.8605
 50
358.0648143
 51
19.47992018
  0
ARC
  8
LAYER_1
 10
436.0028
 20
-22.4568
 40
0.4331
 50
19.68415817
 51
49.93849285
  0
ARC
  8
LAYER_1
 10
435.9475
 20
-22.5816
 40
0.5653
 50
53.79218892
 51
94.41727432
  0
ARC
  8
LAYER_1
 10
435.9043
 20
-22.7111
 40
0.6932
 50
90.02872182
 51
129.8856998
  0
ARC
  8
LAYER_1
 10
436.1624
 20
-23.0412
 40
1.1121
 50
129.1838779
 51
162.0625498
  0
LINE
  8
LAYER_1
 10
435.1044
 20
-22.6987
 11
435.1044
 21
-24.2035
  0
LINE
  8
LAYER_1
 10
435.1044
 20
-24.2035
 11
434.7936
 21
-24.2035
  0
LINE
  8
LAYER_1
 10
434.7936
 20
-24.2035
 11
434.7936
 21
-21.7492
  0
LINE
  8
LAYER_1
 10
434.7936
 20
-21.7492
 11
435.1044
 21
-21.7492
  0
LINE
  8
LAYER_1
 10
435.1044
 20
-21.7492
 11
435.1044
 21
-22.2508
  0
ARC
  8
LAYER_1
 10
436.025
 20
-22.8421
 40
1.0941
 50
128.1836958
 51
147.2859099
  0
ARC
  8
LAYER_1
 10
435.9971
 20
-22.7612
 40
1.0137
 50
94.72376074
 51
129.776402
  0
ARC
  8
LAYER_1
 10
435.9699
 20
-22.6674
 40
0.9182
 50
89.95828009
 51
93.51329337
  0
ARC
  8
LAYER_1
 10
435.9899
 20
-22.6405
 40
0.8915
 50
53.90537529
 51
91.24248329
  0
ARC
  8
LAYER_1
 10
436.0418
 20
-22.5293
 40
0.7714
 50
51.16368699
 51
52.15552028
  0
ENDBLK
  0
BLOCK
  8
LAYER_1
  2
AIGNBL01030017
 70
64
 10
0
 20
0
 30
0
  3
AIGNBL01030017
  0
LINE
  8
LAYER_1
 10
438.9022
 20
-23.7736
 11
439.9684
 21
-20.7102
  0
LINE
  8
LAYER_1
 10
439.9684
 20
-20.7102
 11
440.3459
 21
-20.7102
  0
LINE
  8
LAYER_1
 10
440.3459
 20
-20.7102
 11
439.0801
 21
-24.2035
  0
LINE
  8
LAYER_1
 10
439.0801
 20
-24.2035
 11
438.7247
 21
-24.2035
  0
LINE
  8
LAYER_1
 10
438.7247
 20
-24.2035
 11
437.4589
 21
-20.7102
  0
LINE
  8
LAYER_1
 10
437.4589
 20
-20.7102
 11
437.8364
 21
-20.7102
  0
LINE
  8
LAYER_1
 10
437.8364
 20
-20.7102
 11
438.9022
 21
-23.7736
  0
ENDBLK
  0
BLOCK
  8
LAYER_1
  2
AIGNBL01030018
 70
64
 10
0
 20
0
 30
0
  3
AIGNBL01030018
  0
ARC
  8
LAYER_1
 10
442.3109
 20
-22.6522
 40
0.8778
 50
12.60762265
 51
49.76593377
  0
ARC
  8
LAYER_1
 10
441.2019
 20
-22.9753
 40
2.0319
 50
358.7061651
 51
14.67381124
  0
LINE
  8
LAYER_1
 10
443.2333
 20
-23.0212
 11
441.3675
 21
-23.0212
  0
ARC
  8
LAYER_1
 10
442.5326
 20
-23.018
 40
1.1651
 50
180.1558715
 51
212.9340521
  0
ARC
  8
LAYER_1
 10
442.0431
 20
-23.2773
 40
0.6152
 50
217.4591197
 51
231.0467545
  0
ARC
  8
LAYER_1
 10
442.16
 20
-23.137
 40
0.7978
 50
230.8483722
 51
270.5075942
  0
ARC
  8
LAYER_1
 10
442.1727
 20
-23.1327
 40
0.8021
 50
269.6030079
 51
309.0410257
  0
ARC
  8
LAYER_1
 10
442.3175
 20
-23.315
 40
0.5693
 50
309.2741342
 51
349.8536404
  0
LINE
  8
LAYER_1
 10
442.8779
 20
-23.4153
 11
443.1887
 21
-23.4153
  0
ARC
  8
LAYER_1
 10
442.3682
 20
-23.3231
 40
0.8257
 50
314.9082692
 51
353.5909947
  0
ARC
  8
LAYER_1
 10
442.4159
 20
-23.3488
 40
0.774
 50
308.7196044
 51
313.7496745
  0
ARC
  8
LAYER_1
 10
442.188
 20
-23.0684
 40
1.1353
 50
268.9430762
 51
308.8390436
  0
ARC
  8
LAYER_1
 10
442.1494
 20
-22.9766
 40
1.227
 50
239.2915575
 51
270.8243559
  0
ARC
  8
LAYER_1
 10
442.0999
 20
-23.1041
 40
1.0923
 50
230.9757754
 51
238.1127847
  0
ARC
  8
LAYER_1
 10
442.0112
 20
-23.2226
 40
0.9445
 50
194.4673121
 51
230.6254269
  0
ARC
  8
LAYER_1
 10
442.7461
 20
-23.0004
 40
1.7118
 50
178.8963074
 51
195.5256383
  0
ARC
  8
LAYER_1
 10
442.4983
 20
-22.9325
 40
1.4642
 50
152.2578244
 51
181.3644851
  0
ARC
  8
LAYER_1
 10
442.0482
 20
-22.7455
 40
0.9797
 50
128.8098969
 51
149.6829014
  0
ARC
  8
LAYER_1
 10
442.0896
 20
-22.81
 40
1.0559
 50
94.54633015
 51
128.3661435
  0
ARC
  8
LAYER_1
 10
442.158
 20
-23.1564
 40
1.4073
 50
89.62772971
 51
96.20349867
  0
ARC
  8
LAYER_1
 10
442.1855
 20
-22.911
 40
1.162
 50
58.69952131
 51
90.90490401
  0
ARC
  8
LAYER_1
 10
442.2423
 20
-22.7712
 40
1.0132
 50
51.14782851
 51
57.33687238
  0
ARC
  8
LAYER_1
 10
442.0069
 20
-22.7623
 40
0.8931
 50
0.6345507974
 51
37.95250503
  0
ARC
  8
LAYER_1
 10
442.3102
 20
-22.5869
 40
0.5483
 50
42.99529209
 51
50.92000113
  0
ARC
  8
LAYER_1
 10
442.1912
 20
-22.748
 40
0.7484
 50
51.62315581
 51
91.8449322
  0
ARC
  8
LAYER_1
 10
442.1449
 20
-22.8192
 40
0.8195
 50
88.44903279
 51
126.6010303
  0
ARC
  8
LAYER_1
 10
442.1493
 20
-22.7683
 40
0.7819
 50
129.0832464
 51
178.8382778
  0
LINE
  8
LAYER_1
 10
441.3675
 20
-22.7524
 11
442.9
 21
-22.7524
  0
ENDBLK
  0
BLOCK
  8
LAYER_1
  2
AIGNBL01030019
 70
64
 10
0
 20
0
 30
0
  3
AIGNBL01030019
  0
ARC
  8
LAYER_1
 10
445.2166
 20
-22.6158
 40
0.8378
 50
1.681662675
 51
51.05299491
  0
LINE
  8
LAYER_1
 10
446.054
 20
-22.5912
 11
445.7207
 21
-22.5912
  0
ARC
  8
LAYER_1
 10
445.0765
 20
-22.6091
 40
0.6444
 50
1.595682985
 51
45.69974221
  0
ARC
  8
LAYER_1
 10
445.2284
 20
-22.5047
 40
0.465
 50
50.10635622
 51
50.98376178
  0
ARC
  8
LAYER_1
 10
445.1032
 20
-22.6782
 40
0.6787
 50
51.9955685
 51
92.22141304
  0
ARC
  8
LAYER_1
 10
445.0717
 20
-22.8039
 40
0.8039
 50
89.62906034
 51
129.0069382
  0
ARC
  8
LAYER_1
 10
445.0781
 20
-22.7964
 40
0.8022
 50
129.6953429
 51
169.2422479
  0
ARC
  8
LAYER_1
 10
445.763
 20
-22.9704
 40
1.5082
 50
167.6061446
 51
180.565491
  0
ARC
  8
LAYER_1
 10
445.467
 20
-23.0302
 40
1.2129
 50
177.8795579
 51
209.756134
  0
ARC
  8
LAYER_1
 10
444.9497
 20
-23.2714
 40
0.6459
 50
213.9597053
 51
231.0404803
  0
ARC
  8
LAYER_1
 10
445.04
 20
-23.1755
 40
0.7773
 50
230.3114696
 51
269.4421016
  0
ARC
  8
LAYER_1
 10
445.0525
 20
-23.3173
 40
0.6357
 50
268.1898153
 51
306.6553403
  0
ARC
  8
LAYER_1
 10
445.0015
 20
-23.3075
 40
0.6749
 50
309.6288235
 51
331.4031628
  0
ARC
  8
LAYER_1
 10
444.5674
 20
-23.0835
 40
1.1634
 50
331.9508886
 51
352.4616445
  0
LINE
  8
LAYER_1
 10
445.7207
 20
-23.2361
 11
446.054
 21
-23.2361
  0
ARC
  8
LAYER_1
 10
444.8705
 20
-23.1671
 40
1.1855
 50
324.4713839
 51
356.6622092
  0
ARC
  8
LAYER_1
 10
445.2453
 20
-23.3806
 40
0.7577
 50
308.8646436
 51
321.1451066
  0
ARC
  8
LAYER_1
 10
445.0645
 20
-23.1629
 40
1.0406
 50
269.4475231
 51
309.0911903
  0
ARC
  8
LAYER_1
 10
445.0303
 20
-22.9838
 40
1.22
 50
239.4742138
 51
271.1358593
  0
ARC
  8
LAYER_1
 10
444.9359
 20
-23.2104
 40
0.9773
 50
231.0597509
 51
237.4946614
  0
ARC
  8
LAYER_1
 10
444.9582
 20
-23.1859
 40
1.0104
 50
196.1948171
 51
230.9490573
  0
ARC
  8
LAYER_1
 10
445.51
 20
-23.0142
 40
1.5883
 50
178.9563742
 51
196.5909639
  0
ARC
  8
LAYER_1
 10
445.3857
 20
-22.9504
 40
1.4642
 50
152.2578244
 51
181.3644851
  0
ARC
  8
LAYER_1
 10
444.9356
 20
-22.7634
 40
0.9797
 50
128.8098969
 51
149.6829014
  0
ARC
  8
LAYER_1
 10
445.0405
 20
-22.9023
 40
1.1537
 50
88.19172
 51
128.5461335
  0
ARC
  8
LAYER_1
 10
445.0977
 20
-22.8382
 40
1.0892
 50
57.48337982
 51
91.09649987
  0
ARC
  8
LAYER_1
 10
445.1661
 20
-22.68
 40
0.9195
 50
51.1229112
 51
55.77503012
  0
ENDBLK
  0
BLOCK
  8
LAYER_1
  2
AIGNBL0103001A
 70
64
 10
0
 20
0
 30
0
  3
AIGNBL0103001A
  0
LINE
  8
LAYER_1
 10
447.1202
 20
-22.0179
 11
446.7427
 21
-22.0179
  0
LINE
  8
LAYER_1
 10
446.7427
 20
-22.0179
 11
446.7427
 21
-21.7492
  0
LINE
  8
LAYER_1
 10
446.7427
 20
-21.7492
 11
447.1202
 21
-21.7492
  0
LINE
  8
LAYER_1
 10
447.1202
 20
-21.7492
 11
447.1202
 21
-21.0685
  0
LINE
  8
LAYER_1
 10
447.1202
 20
-21.0685
 11
447.431
 21
-21.0685
  0
LINE
  8
LAYER_1
 10
447.431
 20
-21.0685
 11
447.431
 21
-21.7492
  0
LINE
  8
LAYER_1
 10
447.431
 20
-21.7492
 11
448.0752
 21
-21.7492
  0
LINE
  8
LAYER_1
 10
448.0752
 20
-21.7492
 11
448.0752
 21
-22.0179
  0
LINE
  8
LAYER_1
 10
448.0752
 20
-22.0179
 11
447.431
 21
-22.0179
  0
LINE
  8
LAYER_1
 10
447.431
 20
-22.0179
 11
447.431
 21
-23.7198
  0
ARC
  8
LAYER_1
 10
447.6262
 20
-23.7335
 40
0.1957
 50
175.9776718
 51
228.9540035
  0
ARC
  8
LAYER_1
 10
447.6867
 20
-23.5857
 40
0.3507
 50
237.3939769
 51
275.4214479
  0
ARC
  8
LAYER_1
 10
447.6475
 20
-21.8806
 40
2.0554
 50
272.0153519
 51
283.2809087
  0
LINE
  8
LAYER_1
 10
448.1197
 20
-23.8811
 11
448.1197
 21
-24.1498
  0
ARC
  8
LAYER_1
 10
447.7111
 20
-22.6343
 40
1.5697
 50
268.6889408
 51
285.0880874
  0
ARC
  8
LAYER_1
 10
447.6288
 20
-23.5045
 40
0.7006
 50
237.6031931
 51
273.7942508
  0
ARC
  8
LAYER_1
 10
447.5018
 20
-23.8046
 40
0.3828
 50
175.3554851
 51
229.5709398
  0
LINE
  8
LAYER_1
 10
447.1202
 20
-23.7736
 11
447.1202
 21
-22.0179
  0
ENDBLK
  0
BLOCK
  8
LAYER_1
  2
AIGNBL0103001B
 70
64
 10
0
 20
0
 30
0
  3
AIGNBL0103001B
  0
ARC
  8
LAYER_1
 10
449.9441
 20
-22.9352
 40
1.186
 50
50.66407849
 51
90.1744078
  0
ARC
  8
LAYER_1
 10
450.0882
 20
-22.7601
 40
0.9592
 50
14.76585385
 51
50.68641275
  0
ARC
  8
LAYER_1
 10
449.4766
 20
-22.9416
 40
1.597
 50
359.0757295
 51
15.47348178
  0
ARC
  8
LAYER_1
 10
449.5849
 20
-23.0054
 40
1.489
 50
332.9248548
 51
1.463570552
  0
ARC
  8
LAYER_1
 10
450.1272
 20
-23.2318
 40
0.9042
 50
308.9730079
 51
330.0558863
  0
ARC
  8
LAYER_1
 10
449.9415
 20
-23.01
 40
1.1935
 50
269.9536806
 51
309.2078331
  0
ARC
  8
LAYER_1
 10
449.9367
 20
-23.0194
 40
1.1841
 50
230.6312932
 51
270.1832296
  0
ARC
  8
LAYER_1
 10
449.7861
 20
-23.2004
 40
0.9487
 50
194.5571008
 51
230.7288295
  0
ARC
  8
LAYER_1
 10
450.4684
 20
-22.9964
 40
1.6605
 50
179.000404
 51
195.4530529
  0
ARC
  8
LAYER_1
 10
450.2424
 20
-22.9314
 40
1.4347
 50
152.4410049
 51
181.436924
  0
ARC
  8
LAYER_1
 10
449.7589
 20
-22.7294
 40
0.9137
 50
128.860566
 51
149.6458489
  0
ARC
  8
LAYER_1
 10
449.9395
 20
-22.9411
 40
1.1919
 50
89.95050091
 51
129.2349763
  0
ARC
  8
LAYER_1
 10
449.9108
 20
-22.7711
 40
0.7489
 50
129.9690508
 51
170.50432
  0
ARC
  8
LAYER_1
 10
450.6626
 20
-22.954
 40
1.5216
 50
168.3814377
 51
180.5052229
  0
ARC
  8
LAYER_1
 10
450.3531
 20
-23.0123
 40
1.2129
 50
177.8795579
 51
209.756134
  0
ARC
  8
LAYER_1
 10
449.8358
 20
-23.2535
 40
0.6459
 50
213.9597053
 51
231.0404803
  0
ARC
  8
LAYER_1
 10
449.9335
 20
-23.1368
 40
0.798
 50
230.8526879
 51
270.5032785
  0
ARC
  8
LAYER_1
 10
449.9461
 20
-23.1324
 40
0.8024
 50
269.6036594
 51
309.0333707
  0
ARC
  8
LAYER_1
 10
449.9681
 20
-23.1825
 40
0.7497
 50
310.1410327
 51
351.1994917
  0
ARC
  8
LAYER_1
 10
449.135
 20
-22.9824
 40
1.6051
 50
348.6867346
 51
0.5342940393
  0
ARC
  8
LAYER_1
 10
449.5787
 20
-22.9257
 40
1.1621
 50
357.9422659
 51
30.40728733
  0
ARC
  8
LAYER_1
 10
450.0356
 20
-22.711
 40
0.661
 50
34.40395552
 51
51.02323355
  0
ARC
  8
LAYER_1
 10
449.9462
 20
-22.8194
 40
0.8015
 50
50.93274761
 51
90.41024883
  0
ARC
  8
LAYER_1
 10
449.9354
 20
-22.8209
 40
0.803
 50
89.63522685
 51
129.0287832
  0
ENDBLK
  0
BLOCK
  8
LAYER_1
  2
AIGNBL0103001C
 70
64
 10
0
 20
0
 30
0
  3
AIGNBL0103001C
  0
ARC
  8
LAYER_1
 10
453.1523
 20
-23.0997
 40
1.0465
 50
91.95006866
 51
126.0589336
  0
ARC
  8
LAYER_1
 10
453.0987
 20
-22.9892
 40
0.9259
 50
127.3990604
 51
128.9129794
  0
ARC
  8
LAYER_1
 10
453.338
 20
-23.271
 40
1.2955
 50
129.3197231
 51
159.9017807
  0
ARC
  8
LAYER_1
 10
453.6745
 20
-23.4369
 40
1.669
 50
158.5258794
 51
163.6634749
  0
LINE
  8
LAYER_1
 10
452.0729
 20
-22.9674
 11
452.0729
 21
-24.2035
  0
LINE
  8
LAYER_1
 10
452.0729
 20
-24.2035
 11
451.7621
 21
-24.2035
  0
LINE
  8
LAYER_1
 10
451.7621
 20
-24.2035
 11
451.7621
 21
-21.7492
  0
LINE
  8
LAYER_1
 10
451.7621
 20
-21.7492
 11
452.0729
 21
-21.7492
  0
LINE
  8
LAYER_1
 10
452.0729
 20
-21.7492
 11
452.0729
 21
-22.3942
  0
ARC
  8
LAYER_1
 10
452.9959
 20
-22.8402
 40
1.0252
 50
126.6636484
 51
154.2091464
  0
ARC
  8
LAYER_1
 10
453.1457
 20
-22.9848
 40
1.231
 50
96.7347369
 51
128.2380372
  0
ARC
  8
LAYER_1
 10
453.2456
 20
-23.4024
 40
1.6582
 50
94.45866182
 51
98.47013404
  0
LINE
  8
LAYER_1
 10
453.1167
 20
-21.7492
 11
453.1167
 21
-22.0538
  0
ENDBLK
  0
BLOCK
  8
LAYER_1
  2
AIGNBL0103001D
 70
64
 10
0
 20
0
 30
0
  3
AIGNBL0103001D
  0
ARC
  8
LAYER_1
 10
457.1753
 20
-22.0719
 40
1.3704
 50
21.61418022
 51
51.67198497
  0
ARC
  8
LAYER_1
 10
457.138
 20
-22.0611
 40
1.4013
 50
3.965228661
 51
20.64382931
  0
LINE
  8
LAYER_1
 10
458.536
 20
-21.9642
 11
458.1806
 21
-21.9642
  0
ARC
  8
LAYER_1
 10
456.8922
 20
-22.1739
 40
1.3053
 50
9.244936017
 51
39.89846196
  0
ARC
  8
LAYER_1
 10
457.1574
 20
-22.0012
 40
0.9919
 50
42.07227079
 51
51.06597021
  0
ARC
  8
LAYER_1
 10
457.1726
 20
-21.9819
 40
0.9673
 50
51.04363883
 51
90.80293306
  0
ARC
  8
LAYER_1
 10
457.1589
 20
-22.0216
 40
1.0069
 50
89.99521346
 51
129.7637352
  0
ARC
  8
LAYER_1
 10
457.2372
 20
-22.1292
 40
1.1397
 50
129.3293651
 51
161.8412392
  0
ARC
  8
LAYER_1
 10
458.0699
 20
-22.4231
 40
2.0226
 50
161.2811784
 51
181.7173816
  0
ARC
  8
LAYER_1
 10
458.1487
 20
-22.5383
 40
2.1012
 50
178.511837
 51
202.8960359
  0
ARC
  8
LAYER_1
 10
457.0934
 20
-22.9307
 40
0.9776
 50
205.7715322
 51
230.4037019
  0
ARC
  8
LAYER_1
 10
457.0794
 20
-22.9156
 40
0.9805
 50
231.5938004
 51
266.9237548
  0
ARC
  8
LAYER_1
 10
457.1312
 20
-22.6202
 40
1.2788
 50
265.3194285
 51
270.2391832
  0
ARC
  8
LAYER_1
 10
457.1575
 20
-22.8096
 40
1.0896
 50
268.8933599
 51
302.5105701
  0
ARC
  8
LAYER_1
 10
457.2266
 20
-22.9693
 40
0.9182
 50
304.2356646
 51
308.892763
  0
ARC
  8
LAYER_1
 10
457.1851
 20
-22.9444
 40
0.9638
 50
309.8804575
 51
345.8002502
  0
ARC
  8
LAYER_1
 10
456.3589
 20
-22.668
 40
1.8338
 50
343.7622191
 51
353.4314757
  0
LINE
  8
LAYER_1
 10
458.1806
 20
-22.8778
 11
458.536
 21
-22.8778
  0
ARC
  8
LAYER_1
 10
456.7712
 20
-22.7489
 40
1.7695
 50
329.5066507
 51
355.8236719
  0
ARC
  8
LAYER_1
 10
457.389
 20
-23.0598
 40
1.0804
 50
309.0346406
 51
327.0857395
  0
ARC
  8
LAYER_1
 10
457.1994
 20
-22.8112
 40
1.3929
 50
268.3359211
 51
308.6509953
  0
ARC
  8
LAYER_1
 10
457.1426
 20
-22.6457
 40
1.5579
 50
242.6642661
 51
270.6016744
  0
ARC
  8
LAYER_1
 10
457.1122
 20
-22.758
 40
1.4443
 50
231.0389559
 51
241.6904948
  0
ARC
  8
LAYER_1
 10
456.9706
 20
-22.9498
 40
1.2063
 50
198.8274796
 51
230.5427575
  0
ARC
  8
LAYER_1
 10
457.7174
 20
-22.6504
 40
2.0102
 50
188.8832669
 51
200.0347189
  0
ARC
  8
LAYER_1
 10
458.8656
 20
-22.4699
 40
3.1725
 50
179.6026947
 51
188.9012247
  0
ARC
  8
LAYER_1
 10
457.8225
 20
-22.4168
 40
2.1295
 50
156.9961882
 51
180.8363253
  0
ARC
  8
LAYER_1
 10
457.2413
 20
-22.2164
 40
1.5168
 50
128.7059702
 51
155.3860587
  0
ARC
  8
LAYER_1
 10
457.208
 20
-22.1401
 40
1.4366
 50
100.5848343
 51
129.571126
  0
ARC
  8
LAYER_1
 10
457.1583
 20
-22.0146
 40
1.3044
 50
89.97128554
 51
99.45371105
  0
ARC
  8
LAYER_1
 10
457.1776
 20
-22.1351
 40
1.425
 50
61.29295446
 51
90.74801616
  0
ARC
  8
LAYER_1
 10
457.2263
 20
-21.9897
 40
1.2744
 50
51.18098152
 51
60.07445683
  0
ENDBLK
  0
BLOCK
  8
LAYER_1
  2
AIGNBL0103001E
 70
64
 10
0
 20
0
 30
0
  3
AIGNBL0103001E
  0
ARC
  8
LAYER_1
 10
460.3608
 20
-22.9354
 40
1.1862
 50
50.66677427
 51
90.17171201
  0
ARC
  8
LAYER_1
 10
460.5049
 20
-22.7601
 40
0.9592
 50
14.76585385
 51
50.68641275
  0
ARC
  8
LAYER_1
 10
459.8933
 20
-22.9416
 40
1.597
 50
359.0757295
 51
15.47348178
  0
ARC
  8
LAYER_1
 10
460.0016
 20
-23.0054
 40
1.489
 50
332.9248548
 51
1.463570552
  0
ARC
  8
LAYER_1
 10
460.5439
 20
-23.2318
 40
0.9042
 50
308.9730079
 51
330.0558863
  0
ARC
  8
LAYER_1
 10
460.3581
 20
-23.0099
 40
1.1936
 50
269.9562788
 51
309.2052349
  0
ARC
  8
LAYER_1
 10
460.3534
 20
-23.0192
 40
1.1844
 50
230.6348894
 51
270.1844284
  0
ARC
  8
LAYER_1
 10
460.2031
 20
-23.2001
 40
0.9491
 50
194.5638459
 51
230.717391
  0
ARC
  8
LAYER_1
 10
460.8845
 20
-22.9963
 40
1.6601
 50
179.0015303
 51
195.4587807
  0
ARC
  8
LAYER_1
 10
460.6588
 20
-22.9315
 40
1.4346
 50
152.436114
 51
181.4349136
  0
ARC
  8
LAYER_1
 10
460.1759
 20
-22.7296
 40
0.9141
 50
128.8724161
 51
149.6456964
  0
ARC
  8
LAYER_1
 10
460.3562
 20
-22.9415
 40
1.1923
 50
89.95302455
 51
129.2276577
  0
ARC
  8
LAYER_1
 10
460.3271
 20
-22.7709
 40
0.7485
 50
129.9545216
 51
170.5146889
  0
ARC
  8
LAYER_1
 10
461.0801
 20
-22.954
 40
1.5225
 50
168.3885338
 51
180.5058284
  0
ARC
  8
LAYER_1
 10
460.7698
 20
-23.0123
 40
1.2129
 50
177.8763812
 51
209.7521938
  0
ARC
  8
LAYER_1
 10
460.2522
 20
-23.2536
 40
0.6455
 50
213.9633399
 51
231.0556063
  0
ARC
  8
LAYER_1
 10
460.3501
 20
-23.137
 40
0.7978
 50
230.8483722
 51
270.5075942
  0
ARC
  8
LAYER_1
 10
460.3628
 20
-23.1328
 40
0.802
 50
269.600767
 51
309.0432666
  0
ARC
  8
LAYER_1
 10
460.3849
 20
-23.1825
 40
0.7496
 50
310.1250546
 51
351.1971443
  0
ARC
  8
LAYER_1
 10
459.552
 20
-22.9824
 40
1.6049
 50
348.6851655
 51
0.5346466607
  0
ARC
  8
LAYER_1
 10
459.9958
 20
-22.9257
 40
1.1618
 50
357.9409237
 51
30.41562059
  0
ARC
  8
LAYER_1
 10
460.4524
 20
-22.711
 40
0.661
 50
34.41492789
 51
51.03830788
  0
ARC
  8
LAYER_1
 10
460.363
 20
-22.8189
 40
0.801
 50
50.91885077
 51
90.41713913
  0
ARC
  8
LAYER_1
 10
460.352
 20
-22.8208
 40
0.8029
 50
89.63079039
 51
129.0332197
  0
ENDBLK
  0
BLOCK
  8
LAYER_1
  2
AIGNBL0103001F
 70
64
 10
0
 20
0
 30
0
  3
AIGNBL0103001F
  0
ARC
  8
LAYER_1
 10
463.5689
 20
-23.0995
 40
1.0463
 50
91.95197716
 51
126.062447
  0
ARC
  8
LAYER_1
 10
463.5145
 20
-22.9877
 40
0.9242
 50
127.4136018
 51
128.9297811
  0
ARC
  8
LAYER_1
 10
463.7547
 20
-23.271
 40
1.2955
 50
129.3197231
 51
159.9017807
  0
ARC
  8
LAYER_1
 10
464.0912
 20
-23.4369
 40
1.669
 50
158.5258794
 51
163.6634749
  0
LINE
  8
LAYER_1
 10
462.4896
 20
-22.9674
 11
462.4896
 21
-24.2035
  0
LINE
  8
LAYER_1
 10
462.4896
 20
-24.2035
 11
462.1788
 21
-24.2035
  0
LINE
  8
LAYER_1
 10
462.1788
 20
-24.2035
 11
462.1788
 21
-21.7492
  0
LINE
  8
LAYER_1
 10
462.1788
 20
-21.7492
 11
462.4896
 21
-21.7492
  0
LINE
  8
LAYER_1
 10
462.4896
 20
-21.7492
 11
462.4896
 21
-22.3942
  0
ARC
  8
LAYER_1
 10
463.4132
 20
-22.8405
 40
1.0258
 50
126.6830526
 51
154.2078427
  0
ARC
  8
LAYER_1
 10
463.5627
 20
-22.9856
 40
1.2319
 50
96.74353549
 51
128.2269731
  0
ARC
  8
LAYER_1
 10
463.6622
 20
-23.4019
 40
1.6577
 50
94.46061072
 51
98.47202668
  0
LINE
  8
LAYER_1
 10
463.5333
 20
-21.7492
 11
463.5333
 21
-22.0538
  0
ENDBLK
  0
BLOCK
  8
LAYER_1
  2
AIGNBL01030020
 70
64
 10
0
 20
0
 30
0
  3
AIGNBL01030020
  0
LINE
  8
LAYER_1
 10
464.5329
 20
-24.8664
 11
464.222
 21
-24.8664
  0
LINE
  8
LAYER_1
 10
464.222
 20
-24.8664
 11
464.222
 21
-21.7492
  0
LINE
  8
LAYER_1
 10
464.222
 20
-21.7492
 11
464.5329
 21
-21.7492
  0
LINE
  8
LAYER_1
 10
464.5329
 20
-21.7492
 11
464.5329
 21
-22.215
  0
ARC
  8
LAYER_1
 10
465.4518
 20
-22.8045
 40
1.0917
 50
128.1761014
 51
147.3168645
  0
ARC
  8
LAYER_1
 10
465.3301
 20
-22.6238
 40
0.8746
 50
89.84965379
 51
129.2277939
  0
ARC
  8
LAYER_1
 10
465.3495
 20
-22.7135
 40
0.9645
 50
55.40604137
 51
91.0140482
  0
ARC
  8
LAYER_1
 10
465.3915
 20
-22.6165
 40
0.861
 50
51.11842627
 51
54.045517
  0
ARC
  8
LAYER_1
 10
465.2936
 20
-22.7325
 40
1.0127
 50
16.23827118
 51
50.92475838
  0
ARC
  8
LAYER_1
 10
464.7471
 20
-22.9029
 40
1.5852
 50
358.9639507
 51
16.62896615
  0
ARC
  8
LAYER_1
 10
464.6422
 20
-22.9757
 40
1.6904
 50
334.4923237
 51
1.494793202
  0
ARC
  8
LAYER_1
 10
465.3354
 20
-23.2546
 40
0.9458
 50
309.1094806
 51
331.6568369
  0
ARC
  8
LAYER_1
 10
465.3241
 20
-23.2371
 40
0.9665
 50
269.1816546
 51
308.9717735
  0
ARC
  8
LAYER_1
 10
465.311
 20
-23.3202
 40
0.8833
 50
230.9836467
 51
269.9572311
  0
ARC
  8
LAYER_1
 10
465.2139
 20
-23.4014
 40
0.7595
 50
206.2850183
 51
232.8210961
  0
LINE
  8
LAYER_1
 10
464.5329
 20
-23.7377
 11
464.5329
 21
-24.8664
  0
ARC
  8
LAYER_1
 10
465.3046
 20
-23.3007
 40
0.6365
 50
309.5487948
 51
332.3183397
  0
ARC
  8
LAYER_1
 10
464.9803
 20
-23.1359
 40
1.0003
 50
332.5883075
 51
348.2788412
  0
ARC
  8
LAYER_1
 10
464.112
 20
-22.9568
 40
1.8868
 50
348.309497
 51
0.7638614413
  0
ARC
  8
LAYER_1
 10
464.5054
 20
-22.8989
 40
1.4936
 50
358.745005
 51
14.80219719
  0
ARC
  8
LAYER_1
 10
465.2622
 20
-22.6928
 40
0.7093
 50
14.32134294
 51
48.52360238
  0
ARC
  8
LAYER_1
 10
465.3236
 20
-22.6706
 40
0.6528
 50
51.27265633
 51
91.16591854
  0
ARC
  8
LAYER_1
 10
465.3028
 20
-22.7517
 40
0.7338
 50
89.41375603
 51
128.7259852
  0
ARC
  8
LAYER_1
 10
465.3532
 20
-22.7979
 40
0.8015
 50
129.4672988
 51
169.0444422
  0
ARC
  8
LAYER_1
 10
465.9737
 20
-22.9542
 40
1.4408
 50
167.6325628
 51
180.5241893
  0
ARC
  8
LAYER_1
 10
465.7413
 20
-23.0057
 40
1.209
 50
178.1847678
 51
209.9064193
  0
ARC
  8
LAYER_1
 10
465.3001
 20
-23.2067
 40
0.7278
 50
213.5084044
 51
231.1608171
  0
ARC
  8
LAYER_1
 10
465.2917
 20
-23.2316
 40
0.7032
 50
230.4203105
 51
269.6880615
  0
ARC
  8
LAYER_1
 10
465.2979
 20
-23.2713
 40
0.6636
 50
269.1350422
 51
308.3772055
  0
ENDBLK
  0
BLOCK
  8
LAYER_1
  2
AIGNBL01030021
 70
64
 10
0
 20
0
 30
0
  3
AIGNBL01030021
  0
LINE
  8
LAYER_1
 10
467.4644
 20
-23.8273
 11
467.4644
 21
-24.2035
  0
LINE
  8
LAYER_1
 10
467.4644
 20
-24.2035
 11
467.0203
 21
-24.2035
  0
LINE
  8
LAYER_1
 10
467.0203
 20
-24.2035
 11
467.0203
 21
-23.8273
  0
LINE
  8
LAYER_1
 10
467.0203
 20
-23.8273
 11
467.4644
 21
-23.8273
  0
ENDBLK
  0
BLOCK
  8
LAYER_1
  2
AIGNBL01020003
 70
64
 10
0
 20
0
 30
0
  3
AIGNBL01020003
  0
LINE
  8
LAYER_1
 10
339.2705
 20
-26.6172
 11
469.2192
 21
-26.6172
  0
LINE
  8
LAYER_1
 10
339.2705
 20
-66.6014
 11
339.2705
 21
-16.6211
  0
LINE
  8
LAYER_1
 10
339.2705
 20
-16.6211
 11
469.2192
 21
-16.6211
  0
LINE
  8
LAYER_1
 10
359.2626
 20
-66.6014
 11
359.2626
 21
-26.6172
  0
LINE
  8
LAYER_1
 10
424.2369
 20
-66.6014
 11
424.2369
 21
-26.6172
  0
LINE
  8
LAYER_1
 10
404.2448
 20
-66.6014
 11
404.2448
 21
-26.6172
  0
LINE
  8
LAYER_1
 10
339.2705
 20
-36.6132
 11
469.2192
 21
-36.6132
  0
LINE
  8
LAYER_1
 10
339.2705
 20
-46.6093
 11
469.2192
 21
-46.6093
  0
LINE
  8
LAYER_1
 10
339.2705
 20
-56.6053
 11
469.2192
 21
-56.6053
  0
ENDBLK
  0
BLOCK
  8
LAYER_1
  2
AIGNBL01020004
 70
64
 10
0
 20
0
 30
0
  3
AIGNBL01020004
  0
INSERT
  8
LAYER_1
  2
AIGNBL01030005
 10
0
 20
0
 30
0
  0
INSERT
  8
LAYER_1
  2
AIGNBL01030006
 10
0
 20
0
 30
0
  0
LINE
  8
LAYER_1
 10
364.2316
 20
-18.593
 11
364.2316
 21
-19.3256
  0
LINE
  8
LAYER_1
 10
364.2316
 20
-19.3256
 11
366.1829
 21
-19.3256
  0
LINE
  8
LAYER_1
 10
366.1829
 20
-19.3256
 11
366.1829
 21
-19.6099
  0
LINE
  8
LAYER_1
 10
366.1829
 20
-19.6099
 11
363.7498
 21
-19.6099
  0
LINE
  8
LAYER_1
 10
363.7498
 20
-19.6099
 11
363.7498
 21
-21.1532
  0
LINE
  8
LAYER_1
 10
363.7498
 20
-21.1532
 11
364.5768
 21
-21.1532
  0
LINE
  8
LAYER_1
 10
364.5768
 20
-21.1532
 11
364.5768
 21
-20.3293
  0
LINE
  8
LAYER_1
 10
364.5768
 20
-20.3293
 11
366.1791
 21
-20.3293
  0
LINE
  8
LAYER_1
 10
366.1791
 20
-20.3293
 11
366.1791
 21
-21.951
  0
LINE
  8
LAYER_1
 10
366.1791
 20
-21.951
 11
367.0965
 21
-21.951
  0
LINE
  8
LAYER_1
 10
367.0965
 20
-21.951
 11
367.0965
 21
-20.3293
  0
LINE
  8
LAYER_1
 10
367.0965
 20
-20.3293
 11
368.7118
 21
-20.3293
  0
LINE
  8
LAYER_1
 10
368.7118
 20
-20.3293
 11
368.7118
 21
-21.1532
  0
LINE
  8
LAYER_1
 10
368.7118
 20
-21.1532
 11
369.5774
 21
-21.1532
  0
LINE
  8
LAYER_1
 10
369.5774
 20
-21.1532
 11
369.5774
 21
-19.6099
  0
LINE
  8
LAYER_1
 10
369.5774
 20
-19.6099
 11
367.1003
 21
-19.6099
  0
LINE
  8
LAYER_1
 10
367.1003
 20
-19.6099
 11
367.1003
 21
-19.3256
  0
LINE
  8
LAYER_1
 10
367.1003
 20
-19.3256
 11
369.0579
 21
-19.3256
  0
LINE
  8
LAYER_1
 10
369.0579
 20
-19.3256
 11
369.0579
 21
-18.593
  0
LINE
  8
LAYER_1
 10
369.0579
 20
-18.593
 11
364.2316
 21
-18.593
  0
LINE
  8
LAYER_1
 10
364.7286
 20
-21.0494
 11
365.9083
 21
-21.0494
  0
LINE
  8
LAYER_1
 10
365.9083
 20
-21.0494
 11
365.9083
 21
-20.5839
  0
LINE
  8
LAYER_1
 10
365.9083
 20
-20.5839
 11
364.7286
 21
-20.5839
  0
LINE
  8
LAYER_1
 10
364.7286
 20
-20.5839
 11
364.7286
 21
-21.0494
  0
LINE
  8
LAYER_1
 10
364.5863
 20
-21.7545
 11
365.9082
 21
-21.7545
  0
LINE
  8
LAYER_1
 10
365.9082
 20
-21.7545
 11
365.9082
 21
-21.2892
  0
LINE
  8
LAYER_1
 10
365.9082
 20
-21.2892
 11
364.5863
 21
-21.2892
  0
LINE
  8
LAYER_1
 10
364.5863
 20
-21.2892
 11
364.5863
 21
-21.7545
  0
LINE
  8
LAYER_1
 10
367.3672
 20
-21.0494
 11
368.5469
 21
-21.0494
  0
LINE
  8
LAYER_1
 10
368.5469
 20
-21.0494
 11
368.5469
 21
-20.5839
  0
LINE
  8
LAYER_1
 10
368.5469
 20
-20.5839
 11
367.3672
 21
-20.5839
  0
LINE
  8
LAYER_1
 10
367.3672
 20
-20.5839
 11
367.3672
 21
-21.0494
  0
LINE
  8
LAYER_1
 10
367.3672
 20
-21.7545
 11
368.6955
 21
-21.7545
  0
LINE
  8
LAYER_1
 10
368.6955
 20
-21.7545
 11
368.6955
 21
-21.2892
  0
LINE
  8
LAYER_1
 10
368.6955
 20
-21.2892
 11
367.3672
 21
-21.2892
  0
LINE
  8
LAYER_1
 10
367.3672
 20
-21.2892
 11
367.3672
 21
-21.7545
  0
INSERT
  8
LAYER_1
  2
AIGNBL01030007
 10
0
 20
0
 30
0
  0
INSERT
  8
LAYER_1
  2
AIGNBL01030008
 10
0
 20
0
 30
0
  0
INSERT
  8
LAYER_1
  2
AIGNBL01030009
 10
0
 20
0
 30
0
  0
LINE
  8
LAYER_1
 10
341.8942
 20
-18.5614
 11
343.4346
 21
-18.5614
  0
LINE
  8
LAYER_1
 10
343.4346
 20
-18.5614
 11
345.5421
 21
-23.0789
  0
LINE
  8
LAYER_1
 10
345.5421
 20
-23.0789
 11
345.5421
 21
-22.3097
  0
LINE
  8
LAYER_1
 10
345.5421
 20
-22.3097
 11
347.0847
 21
-22.3097
  0
LINE
  8
LAYER_1
 10
347.0847
 20
-22.3097
 11
347.0847
 21
-24.6193
  0
LINE
  8
LAYER_1
 10
347.0847
 20
-24.6193
 11
344.7769
 21
-24.6193
  0
LINE
  8
LAYER_1
 10
344.7769
 20
-24.6193
 11
343.4307
 21
-21.7969
  0
LINE
  8
LAYER_1
 10
343.4307
 20
-21.7969
 11
343.4307
 21
-24.6193
  0
LINE
  8
LAYER_1
 10
343.4307
 20
-24.6193
 11
341.8942
 21
-24.6193
  0
LINE
  8
LAYER_1
 10
341.8942
 20
-24.6193
 11
341.8942
 21
-18.5614
  0
INSERT
  8
LAYER_1
  2
AIGNBL0103000A
 10
0
 20
0
 30
0
  0
ARC
  8
LAYER_1
 10
395.6228
 20
-22.2421
 40
1.991
 50
311.8536983
 51
336.66565
  0
ARC
  8
LAYER_1
 10
395.2143
 20
-22.0387
 40
2.4468
 50
336.0820229
 51
355.050887
  0
LINE
  8
LAYER_1
 10
397.652
 20
-22.2498
 11
397.652
 21
-19.0493
  0
LINE
  8
LAYER_1
 10
397.652
 20
-19.0493
 11
396.4658
 21
-19.0493
  0
LINE
  8
LAYER_1
 10
396.4658
 20
-19.0493
 11
396.4658
 21
-21.9151
  0
ARC
  8
LAYER_1
 10
394.9478
 20
-21.874
 40
1.5185
 50
331.8956217
 51
358.4504934
  0
ARC
  8
LAYER_1
 10
395.7367
 20
-22.2196
 40
0.6633
 50
317.1782762
 51
326.1116703
  0
ARC
  8
LAYER_1
 10
394.7907
 20
-21.265
 40
2.0068
 50
296.3435913
 51
315.5475613
  0
LINE
  8
LAYER_1
 10
395.6812
 20
-23.0634
 11
395.6812
 21
-24.2581
  0
ARC
  8
LAYER_1
 10
395.7315
 20
-23.1228
 40
1.1364
 50
267.460987
 51
280.8278078
  0
ARC
  8
LAYER_1
 10
395.6077
 20
-22.387
 40
1.8825
 50
280.3227292
 51
303.5087591
  0
ARC
  8
LAYER_1
 10
395.3215
 20
-21.8982
 40
2.4483
 50
302.7778523
 51
311.7357705
  0
ARC
  8
LAYER_1
 10
383.8582
 20
-21.2369
 40
1.9121
 50
200.4586691
 51
212.6743406
  0
ARC
  8
LAYER_1
 10
360.8299
 20
-29.6321
 40
22.5988
 50
19.99339328
 51
22.95988574
  0
ARC
  8
LAYER_1
 10
378.6335
 20
-22.195
 40
3.306
 50
24.64219126
 51
41.47959493
  0
ARC
  8
LAYER_1
 10
379.7074
 20
-21.3145
 40
1.9189
 50
43.02136381
 51
66.4525374
  0
ARC
  8
LAYER_1
 10
379.7452
 20
-21.2722
 40
1.8651
 50
66.99773131
 51
74.27463074
  0
ARC
  8
LAYER_1
 10
379.3948
 20
-22.5663
 40
3.2057
 50
74.51389392
 51
94.05361784
  0
ARC
  8
LAYER_1
 10
379.436
 20
-23.458
 40
4.0982
 50
93.74752603
 51
109.4964459
  0
ARC
  8
LAYER_1
 10
379.3155
 20
-23.2494
 40
3.8616
 50
108.8443826
 51
117.7785401
  0
ARC
  8
LAYER_1
 10
368.4808
 20
-19.7127
 40
9.0358
 50
353.3545297
 51
359.2384651
  0
ARC
  8
LAYER_1
 10
374.5967
 20
-20.478
 40
2.873
 50
340.8545036
 51
354.3986112
  0
ARC
  8
LAYER_1
 10
375.9845
 20
-20.8638
 40
1.4382
 50
308.1960555
 51
337.240372
  0
ARC
  8
LAYER_1
 10
376.186
 20
-21.1609
 40
1.0804
 50
298.9411123
 51
309.5405453
  0
LINE
  8
LAYER_1
 10
376.7088
 20
-22.1064
 11
376.7088
 21
-23.3788
  0
ARC
  8
LAYER_1
 10
376.133
 20
-20.8091
 40
2.6334
 50
282.629217
 51
311.7889792
  0
ARC
  8
LAYER_1
 10
376.7481
 20
-21.591
 40
1.6417
 50
313.9680024
 51
325.0993696
  0
ARC
  8
LAYER_1
 10
376.075
 20
-21.1667
 40
2.4368
 50
325.9722368
 51
337.2435268
  0
ARC
  8
LAYER_1
 10
374.4452
 20
-20.4759
 40
4.207
 50
337.1535495
 51
344.91421
  0
ARC
  8
LAYER_1
 10
372.5495
 20
-19.9463
 40
6.1753
 50
344.7481064
 51
353.2474184
  0
ARC
  8
LAYER_1
 10
379.476
 20
-22.45
 40
1.947
 50
90.61781687
 51
114.0708883
  0
ARC
  8
LAYER_1
 10
379.4502
 20
-21.5938
 40
1.0907
 50
61.474306
 51
89.74539799
  0
ARC
  8
LAYER_1
 10
379.5976
 20
-21.2581
 40
0.7259
 50
38.2714468
 51
59.04055946
  0
ARC
  8
LAYER_1
 10
378.9476
 20
-21.7619
 40
1.5482
 50
25.3011504
 51
38.01183044
  0
ARC
  8
LAYER_1
 10
374.0025
 20
-24.0904
 40
7.0141
 50
19.69622915
 51
25.23323144
  0
ARC
  8
LAYER_1
 10
386.9461
 20
-19.5396
 40
6.7064
 50
199.0304142
 51
214.1619839
  0
ARC
  8
LAYER_1
 10
385.1883
 20
-20.5955
 40
4.6604
 50
215.5556146
 51
216.3864829
  0
ARC
  8
LAYER_1
 10
383.6855
 20
-21.6697
 40
2.8135
 50
216.9324038
 51
237.9526107
  0
ARC
  8
LAYER_1
 10
383.2601
 20
-22.3143
 40
2.0414
 50
238.4737585
 51
260.7134162
  0
ARC
  8
LAYER_1
 10
383.0587
 20
-23.1943
 40
1.1418
 50
263.5627283
 51
265.8887812
  0
LINE
  8
LAYER_1
 10
382.9768
 20
-24.3332
 11
382.9768
 21
-22.9742
  0
ARC
  8
LAYER_1
 10
383.3434
 20
-22.147
 40
0.9048
 50
229.9708589
 51
246.0997112
  0
ARC
  8
LAYER_1
 10
384.4169
 20
-20.8366
 40
2.5987
 50
213.4542661
 51
230.4296508
  0
LINE
  8
LAYER_1
 10
382.0901
 20
-19.8796
 11
381.4745
 21
-19.8796
  0
LINE
  8
LAYER_1
 10
381.4745
 20
-19.8796
 11
381.3155
 21
-18.8814
  0
LINE
  8
LAYER_1
 10
381.3155
 20
-18.8814
 11
381.9318
 21
-18.8814
  0
LINE
  8
LAYER_1
 10
381.9318
 20
-18.8814
 11
382.0901
 21
-19.8796
  0
LINE
  8
LAYER_1
 10
383.0188
 20
-19.8796
 11
382.4029
 21
-19.8796
  0
LINE
  8
LAYER_1
 10
382.4029
 20
-19.8796
 11
382.2442
 21
-18.8814
  0
LINE
  8
LAYER_1
 10
382.2442
 20
-18.8814
 11
382.8606
 21
-18.8814
  0
LINE
  8
LAYER_1
 10
382.8606
 20
-18.8814
 11
383.0188
 21
-19.8796
  0
ARC
  8
LAYER_1
 10
383.3452
 20
-19.5626
 40
1.2598
 50
294.8462392
 51
325.7593989
  0
ARC
  8
LAYER_1
 10
383.5868
 20
-20.0818
 40
0.6873
 50
280.6862667
 51
294.7597554
  0
LINE
  8
LAYER_1
 10
383.7142
 20
-20.7571
 11
383.7142
 21
-22.0072
  0
ARC
  8
LAYER_1
 10
383.3879
 20
-19.5706
 40
2.4583
 50
277.6270469
 51
307.9992312
  0
ARC
  8
LAYER_1
 10
383.7857
 20
-20.2045
 40
1.7156
 50
310.5659115
 51
312.159519
  0
ARC
  8
LAYER_1
 10
383.3126
 20
-19.7505
 40
2.3702
 50
313.2688841
 51
336.1288754
  0
ARC
  8
LAYER_1
 10
382.549
 20
-19.2963
 40
3.254
 50
334.2571503
 51
342.7179381
  0
LINE
  8
LAYER_1
 10
385.6561
 20
-20.263
 11
388.0832
 21
-20.263
  0
ARC
  8
LAYER_1
 10
384.0183
 20
-20.476
 40
4.0705
 50
346.9025011
 51
2.999941785
  0
ARC
  8
LAYER_1
 10
385.3231
 20
-20.7848
 40
2.7296
 50
327.7013818
 51
347.0097259
  0
ARC
  8
LAYER_1
 10
386.118
 20
-21.2401
 40
1.8149
 50
312.9843281
 51
326.4412197
  0
ARC
  8
LAYER_1
 10
386.162
 20
-21.2473
 40
1.7799
 50
298.6772297
 51
312.1042011
  0
ARC
  8
LAYER_1
 10
385.719
 20
-20.4337
 40
2.7063
 50
288.7192833
 51
298.64049
  0
ARC
  8
LAYER_1
 10
385.0665
 20
-18.4569
 40
4.7879
 50
273.6020975
 51
288.52267
  0
ARC
  8
LAYER_1
 10
384.7612
 20
-16.1994
 40
7.062
 50
268.3271717
 51
274.9240462
  0
LINE
  8
LAYER_1
 10
384.555
 20
-23.2584
 11
384.555
 21
-24.3879
  0
ARC
  8
LAYER_1
 10
384.9661
 20
-16.1363
 40
8.2618
 50
267.1475499
 51
278.4142478
  0
ARC
  8
LAYER_1
 10
385.3877
 20
-18.8538
 40
5.5119
 50
278.2131806
 51
291.6024907
  0
ARC
  8
LAYER_1
 10
386.3117
 20
-21.293
 40
2.9041
 50
292.3703177
 51
310.8518436
  0
ARC
  8
LAYER_1
 10
386.898
 20
-22.0381
 40
1.9575
 50
312.1363704
 51
321.4360617
  0
ARC
  8
LAYER_1
 10
386.3493
 20
-21.2741
 40
2.8742
 50
316.3403134
 51
335.9447601
  0
ARC
  8
LAYER_1
 10
384.9732
 20
-20.6215
 40
4.3969
 50
335.488256
 51
350.554217
  0
ARC
  8
LAYER_1
 10
382.3156
 20
-20.0996
 40
7.1046
 50
349.9195385
 51
2.135290941
  0
ARC
  8
LAYER_1
 10
382.3137
 20
-20.0083
 40
7.1036
 50
1.398744845
 51
7.163066818
  0
LINE
  8
LAYER_1
 10
389.3619
 20
-19.1225
 11
384.6757
 21
-19.1225
  0
ARC
  8
LAYER_1
 10
379.5567
 20
-18.5724
 40
5.1485
 50
346.1208209
 51
353.8665991
  0
ARC
  8
LAYER_1
 10
382.5401
 20
-19.3399
 40
2.0683
 50
333.2294573
 51
346.9363389
  0
ARC
  8
LAYER_1
 10
377.3708
 20
-106.144
 40
86.7721
 50
78.78700631
 51
80.56640675
  0
LINE
  8
LAYER_1
 10
391.5931
 20
-20.5454
 11
391.5931
 21
-18.9096
  0
LINE
  8
LAYER_1
 10
391.5931
 20
-18.9096
 11
390.2958
 21
-18.9096
  0
LINE
  8
LAYER_1
 10
390.2958
 20
-18.9096
 11
390.2958
 21
-24.3878
  0
LINE
  8
LAYER_1
 10
390.2958
 20
-24.3878
 11
391.5931
 21
-24.3878
  0
LINE
  8
LAYER_1
 10
391.5931
 20
-24.3878
 11
391.5931
 21
-21.7936
  0
ARC
  8
LAYER_1
 10
391.8122
 20
-24.3619
 40
2.5777
 50
85.26912846
 51
94.87697352
  0
ARC
  8
LAYER_1
 10
391.5474
 20
-28.0073
 40
6.2326
 50
76.32160786
 51
85.60637667
  0
ARC
  8
LAYER_1
 10
382.6865
 20
-65.0935
 40
44.3625
 50
73.58294073
 51
76.52865465
  0
LINE
  8
LAYER_1
 10
395.2246
 20
-22.5396
 11
395.2246
 21
-21.2884
  0
ARC
  8
LAYER_1
 10
392.0121
 20
-31.4196
 40
10.6283
 50
72.40665783
 51
77.87678181
  0
ARC
  8
LAYER_1
 10
398.8888
 20
-20.9171
 40
3.2368
 50
288.2682375
 51
307.5749128
  0
ARC
  8
LAYER_1
 10
398.4053
 20
-19.5973
 40
4.6418
 50
274.0145895
 51
288.8290898
  0
ARC
  8
LAYER_1
 10
398.4053
 20
-20.3924
 40
3.8491
 50
268.360011
 51
274.8439918
  0
LINE
  8
LAYER_1
 10
398.2951
 20
-24.2399
 11
398.2951
 21
-18.8434
  0
LINE
  8
LAYER_1
 10
398.2951
 20
-18.8434
 11
399.5838
 21
-18.8434
  0
LINE
  8
LAYER_1
 10
399.5838
 20
-18.8434
 11
399.5838
 21
-22.8383
  0
ARC
  8
LAYER_1
 10
399.4956
 20
-22.1335
 40
0.7103
 50
277.1314049
 51
295.958207
  0
ARC
  8
LAYER_1
 10
399.2786
 20
-21.686
 40
1.2076
 50
295.9193969
 51
325.4807177
  0
ARC
  8
LAYER_1
 10
398.9134
 20
-21.3577
 40
1.6958
 50
323.3344126
 51
327.8455613
  0
ARC
  8
LAYER_1
 10
399.1503
 20
-21.5329
 40
1.4022
 50
328.753104
 51
343.5635435
  0
ARC
  8
LAYER_1
 10
397.9377
 20
-21.1696
 40
2.6681
 50
343.4495362
 51
352.9514753
  0
ARC
  8
LAYER_1
 10
395.8698
 20
-20.9074
 40
4.7525
 50
352.8742823
 51
4.069265984
  0
LINE
  8
LAYER_1
 10
400.6103
 20
-20.5702
 11
401.7958
 21
-20.5702
  0
ARC
  8
LAYER_1
 10
396.0506
 20
-20.8034
 40
5.75
 50
348.7691617
 51
2.324459127
  0
ARC
  8
LAYER_1
 10
398.1468
 20
-21.2257
 40
3.6116
 50
332.2799632
 51
348.8629354
  0
ARC
  8
LAYER_1
 10
399.6246
 20
-21.96
 40
1.9623
 50
309.1184749
 51
331.1898301
  0
ENDBLK
  0
BLOCK
  8
LAYER_1
  2
AIGNBL0102000B
 70
64
 10
0
 20
0
 30
0
  3
AIGNBL0102000B
  0
INSERT
  8
LAYER_1
  2
AIGNBL0103000C
 10
0
 20
0
 30
0
  0
INSERT
  8
LAYER_1
  2
AIGNBL0103000D
 10
0
 20
0
 30
0
  0
INSERT
  8
LAYER_1
  2
AIGNBL0103000E
 10
0
 20
0
 30
0
  0
INSERT
  8
LAYER_1
  2
AIGNBL0103000F
 10
0
 20
0
 30
0
  0
INSERT
  8
LAYER_1
  2
AIGNBL01030010
 10
0
 20
0
 30
0
  0
INSERT
  8
LAYER_1
  2
AIGNBL01030011
 10
0
 20
0
 30
0
  0
INSERT
  8
LAYER_1
  2
AIGNBL01030012
 10
0
 20
0
 30
0
  0
INSERT
  8
LAYER_1
  2
AIGNBL01030013
 10
0
 20
0
 30
0
  0
INSERT
  8
LAYER_1
  2
AIGNBL01030014
 10
0
 20
0
 30
0
  0
INSERT
  8
LAYER_1
  2
AIGNBL01030015
 10
0
 20
0
 30
0
  0
INSERT
  8
LAYER_1
  2
AIGNBL01030016
 10
0
 20
0
 30
0
  0
INSERT
  8
LAYER_1
  2
AIGNBL01030017
 10
0
 20
0
 30
0
  0
INSERT
  8
LAYER_1
  2
AIGNBL01030018
 10
0
 20
0
 30
0
  0
INSERT
  8
LAYER_1
  2
AIGNBL01030019
 10
0
 20
0
 30
0
  0
INSERT
  8
LAYER_1
  2
AIGNBL0103001A
 10
0
 20
0
 30
0
  0
INSERT
  8
LAYER_1
  2
AIGNBL0103001B
 10
0
 20
0
 30
0
  0
INSERT
  8
LAYER_1
  2
AIGNBL0103001C
 10
0
 20
0
 30
0
  0
INSERT
  8
LAYER_1
  2
AIGNBL0103001D
 10
0
 20
0
 30
0
  0
INSERT
  8
LAYER_1
  2
AIGNBL0103001E
 10
0
 20
0
 30
0
  0
INSERT
  8
LAYER_1
  2
AIGNBL0103001F
 10
0
 20
0
 30
0
  0
INSERT
  8
LAYER_1
  2
AIGNBL01030020
 10
0
 20
0
 30
0
  0
INSERT
  8
LAYER_1
  2
AIGNBL01030021
 10
0
 20
0
 30
0
  0
ENDBLK
  0
BLOCK
  8
LAYER_1
  2
AIGNBL01020026
 70
64
 10
0
 20
0
 30
0
  3
AIGNBL01020026
  0
ENDBLK
  0
BLOCK
  8
LAYER_1
  2
AIGNBL01020027
 70
64
 10
0
 20
0
 30
0
  3
AIGNBL01020027
  0
LINE
  8
LAYER_1
 62
3
 10
273.355
 20
127.0081
 11
228.2737
 21
127.0081
  0
ENDBLK
  0
BLOCK
  8
LAYER_1
  2
AIGNBL01020028
 70
64
 10
0
 20
0
 30
0
  3
AIGNBL01020028
  0
LINE
  8
LAYER_1
 62
3
 10
273.355
 20
37.0081
 11
228.2737
 21
37.0081
  0
ENDBLK
  0
BLOCK
  8
LAYER_1
  2
AIGNBL01020029
 70
64
 10
0
 20
0
 30
0
  3
AIGNBL01020029
  0
LINE
  8
LAYER_1
 62
3
 10
229.5237
 20
124.5081
 11
229.5237
 21
39.5081
  0
ENDBLK
  0
BLOCK
  8
LAYER_1
  2
AIGNBL0102002A
 70
64
 10
0
 20
0
 30
0
  3
AIGNBL0102002A
  0
LINE
  8
LAYER_1
 62
3
 10
229.107
 20
124.5081
 11
229.5237
 21
127.0081
  0
LINE
  8
LAYER_1
 62
3
 10
229.5237
 20
127.0081
 11
229.9404
 21
124.5081
  0
LINE
  8
LAYER_1
 62
3
 10
229.9404
 20
124.5081
 11
229.107
 21
124.5081
  0
ENDBLK
  0
BLOCK
  8
LAYER_1
  2
AIGNBL0102002B
 70
64
 10
0
 20
0
 30
0
  3
AIGNBL0102002B
  0
LINE
  8
LAYER_1
 62
3
 10
229.107
 20
39.5081
 11
229.5237
 21
37.0081
  0
LINE
  8
LAYER_1
 62
3
 10
229.5237
 20
37.0081
 11
229.9404
 21
39.5081
  0
LINE
  8
LAYER_1
 62
3
 10
229.9404
 20
39.5081
 11
229.107
 21
39.5081
  0
ENDBLK
  0
BLOCK
  8
LAYER_1
  2
AIGNBL0102002C
 70
64
 10
0
 20
0
 30
0
  3
AIGNBL0102002C
  0
TEXT
  8
LAYER_1
 10
228.856
 20
80.0795
 11
228.856
 21
80.0795
 40
3.7421
 41
0.5
 50
89.99999999
 62
3
  1
90
  0
ENDBLK
  0
BLOCK
  8
LAYER_1
  2
AIGNBL0102002E
 70
64
 10
0
 20
0
 30
0
  3
AIGNBL0102002E
  0
ENDBLK
  0
BLOCK
  8
LAYER_1
  2
AIGNBL0102002F
 70
64
 10
0
 20
0
 30
0
  3
AIGNBL0102002F
  0
LINE
  8
LAYER_1
 62
3
 10
250.48
 20
43.3831
 11
250.48
 21
27.6532
  0
ENDBLK
  0
BLOCK
  8
LAYER_1
  2
AIGNBL01020030
 70
64
 10
0
 20
0
 30
0
  3
AIGNBL01020030
  0
LINE
  8
LAYER_1
 62
3
 10
300.48
 20
43.3831
 11
300.48
 21
27.6532
  0
ENDBLK
  0
BLOCK
  8
LAYER_1
  2
AIGNBL01020031
 70
64
 10
0
 20
0
 30
0
  3
AIGNBL01020031
  0
LINE
  8
LAYER_1
 62
3
 10
252.98
 20
28.9032
 11
297.98
 21
28.9032
  0
ENDBLK
  0
BLOCK
  8
LAYER_1
  2
AIGNBL01020032
 70
64
 10
0
 20
0
 30
0
  3
AIGNBL01020032
  0
LINE
  8
LAYER_1
 62
3
 10
252.98
 20
29.3199
 11
250.48
 21
28.9032
  0
LINE
  8
LAYER_1
 62
3
 10
250.48
 20
28.9032
 11
252.98
 21
28.4865
  0
LINE
  8
LAYER_1
 62
3
 10
252.98
 20
28.4865
 11
252.98
 21
29.3199
  0
ENDBLK
  0
BLOCK
  8
LAYER_1
  2
AIGNBL01020033
 70
64
 10
0
 20
0
 30
0
  3
AIGNBL01020033
  0
LINE
  8
LAYER_1
 62
3
 10
297.98
 20
29.3199
 11
300.48
 21
28.9032
  0
LINE
  8
LAYER_1
 62
3
 10
300.48
 20
28.9032
 11
297.98
 21
28.4865
  0
LINE
  8
LAYER_1
 62
3
 10
297.98
 20
28.4865
 11
297.98
 21
29.3199
  0
ENDBLK
  0
BLOCK
  8
LAYER_1
  2
AIGNBL01020034
 70
64
 10
0
 20
0
 30
0
  3
AIGNBL01020034
  0
TEXT
  8
LAYER_1
 10
273.5512
 20
29.5709
 11
273.5512
 21
29.5709
 40
3.7421
 41
0.5
 62
3
  1
50
  0
ENDBLK
  0
BLOCK
  8
LAYER_1
  2
AIGNBL01010002
 70
64
 10
0
 20
0
 30
0
  3
AIGNBL01010002
  0
INSERT
  8
LAYER_1
  2
AIGNBL01020003
 10
0
 20
0
 30
0
  0
TEXT
  8
LAYER_1
 10
348.9088
 20
-30.5741
 11
348.9088
 21
-30.5741
 40
3.1044
 41
0.5
 72
1
  1
品名
  0
TEXT
  8
LAYER_1
 10
348.9088
 20
-35.2308
 11
348.9088
 21
-35.2308
 40
3.1044
 41
0.5
 72
1
  1
PRODUCT
  0
TEXT
  8
LAYER_1
 10
414.219
 20
-30.5741
 11
414.219
 21
-30.5741
 40
3.1044
 41
0.5
 72
1
  1
型式
  0
TEXT
  8
LAYER_1
 10
414.219
 20
-35.2308
 11
414.219
 21
-35.2308
 40
3.1044
 41
0.5
 72
1
  1
TYPE
  0
TEXT
  8
LAYER_1
 10
414.219
 20
-40.4516
 11
414.219
 21
-40.4516
 40
3.1044
 41
0.5
 72
1
  1
単位
  0
TEXT
  8
LAYER_1
 10
414.219
 20
-45.1084
 11
414.219
 21
-45.1084
 40
3.1044
 41
0.5
 72
1
  1
UNIT
  0
TEXT
  8
LAYER_1
 10
414.219
 20
-60.5799
 11
414.219
 21
-60.5799
 40
3.4815
 41
0.5
 72
1
  1
設計
  0
TEXT
  8
LAYER_1
 10
414.2191
 20
-65.802
 11
414.2191
 21
-65.802
 40
3.4815
 41
0.5
 72
1
  1
DESIGNED
  0
TEXT
  8
LAYER_1
 10
349.219
 20
-40.4517
 11
349.219
 21
-40.4517
 40
3.1044
 41
0.5
 72
1
  1
寸法
  0
TEXT
  8
LAYER_1
 10
349.219
 20
-45.1085
 11
349.219
 21
-45.1085
 40
3.1044
 41
0.5
 72
1
  1
SIZE
  0
TEXT
  8
LAYER_1
 10
349.219
 20
-60.5801
 11
349.219
 21
-60.5801
 40
3.1044
 41
0.5
 72
1
  1
材質
  0
TEXT
  8
LAYER_1
 10
349.219
 20
-65.2368
 11
349.219
 21
-65.2368
 40
3.1044
 41
0.5
 72
1
  1
MATERIAL
  0
TEXT
  8
LAYER_1
 10
349.7268
 20
-50.452
 11
349.7268
 21
-50.452
 40
3.1044
 41
0.5
 72
1
  1
ネジ
  0
TEXT
  8
LAYER_1
 10
349.219
 20
-55.1087
 11
349.219
 21
-55.1087
 40
3.1044
 41
0.5
 72
1
  1
SCREW
  0
TEXT
  8
LAYER_1
 10
413.9088
 20
-50.4519
 11
413.9088
 21
-50.4519
 40
3.1044
 41
0.5
 72
1
  1
日付
  0
TEXT
  8
LAYER_1
 10
413.9088
 20
-55.1086
 11
413.9088
 21
-55.1086
 40
3.1044
 41
0.5
 72
1
  1
DATE
  0
TEXT
  8
LAYER_1
 10
380.3578
 20
-43.2231
 11
380.3578
 21
-43.2231
 40
3.6689
 41
0.5
 72
1
  1
W50×H90×D50
  0
TEXT
  8
LAYER_1
 10
446.7193
 20
-43.2231
 11
446.7193
 21
-43.2231
 40
3.6689
 41
0.5
 72
1
  1
mm
  0
TEXT
  8
LAYER_1
 10
446.7193
 20
-33.2231
 11
446.7193
 21
-33.2231
 40
3.6689
 41
0.5
 72
1
  1
NRP-24-1
  0
TEXT
  8
LAYER_1
 10
446.7193
 20
-53.2231
 11
446.7193
 21
-53.2231
 40
3.6689
 41
0.5
 72
1
  1
2017.07.24
  0
TEXT
  8
LAYER_1
 10
446.7193
 20
-63.2231
 11
446.7193
 21
-63.2231
 40
3.6689
 41
0.5
 72
1
  1
戸森 幹二
  0
TEXT
  8
LAYER_1
 10
384.1826
 20
-63.2231
 11
384.1826
 21
-63.2231
 40
3.6689
 41
0.5
 72
1
  1
黒色プラスチック
  0
TEXT
  8
LAYER_1
 10
381.7193
 20
-30.8515
 11
381.7193
 21
-30.8515
 40
3.1044
 41
0.5
 72
1
  1
計装信号用
  0
TEXT
  8
LAYER_1
 10
383.5687
 20
-35.5083
 11
383.5687
 21
-35.5083
 40
3.1044
 41
0.5
 72
1
  1
モリブデン避雷器
  0
TEXT
  8
LAYER_1
 10
384.4706
 20
-50.8515
 11
384.4706
 21
-50.8515
 40
3.1044
 41
0.5
 72
1
  1
鉄　三価ホワイト
  0
TEXT
  8
LAYER_1
 10
381.7193
 20
-55.5083
 11
381.7193
 21
-55.5083
 40
3.1044
 41
0.5
 72
1
  1
M3.5
  0
INSERT
  8
LAYER_1
  2
AIGNBL01020004
 10
0
 20
0
 30
0
  0
INSERT
  8
LAYER_1
  2
AIGNBL0102000B
 10
0
 20
0
 30
0
  0
ENDBLK
  0
BLOCK
  8
LAYER_1
  2
AIGNBL01010022
 70
64
 10
0
 20
0
 30
0
  3
AIGNBL01010022
  0
LINE
  8
LAYER_1
 10
469.2192
 20
-66.6014
 11
124.874
 21
-66.6014
  0
LINE
  8
LAYER_1
 10
124.874
 20
-66.6014
 11
124.874
 21
169.592
  0
LINE
  8
LAYER_1
 10
124.874
 20
169.592
 11
469.2192
 21
169.592
  0
LINE
  8
LAYER_1
 10
469.2192
 20
169.592
 11
469.2192
 21
-66.6014
  0
LINE
  8
LAYER_1
 10
250.48
 20
45.5079
 11
250.48
 21
44.0081
  0
LINE
  8
LAYER_1
 10
250.48
 20
44.0081
 11
271.28
 21
44.0081
  0
LINE
  8
LAYER_1
 10
271.28
 20
120.0081
 11
250.48
 21
120.0081
  0
LINE
  8
LAYER_1
 10
250.48
 20
120.0081
 11
250.48
 21
118.5081
  0
LINE
  8
LAYER_1
 10
279.68
 20
44.0081
 11
300.48
 21
44.0081
  0
LINE
  8
LAYER_1
 10
300.48
 20
44.0081
 11
300.48
 21
45.5081
  0
LINE
  8
LAYER_1
 10
300.48
 20
118.5084
 11
300.48
 21
120.0081
  0
LINE
  8
LAYER_1
 10
300.48
 20
120.0081
 11
279.68
 21
120.0081
  0
LINE
  8
LAYER_1
 10
251.48
 20
44.5081
 11
299.48
 21
44.5081
  0
ARC
  8
LAYER_1
 10
299.48
 20
45.5081
 40
1
 50
270.0014705
 51
359.9985295
  0
LINE
  8
LAYER_1
 10
300.48
 20
45.5081
 11
300.48
 21
118.5081
  0
ARC
  8
LAYER_1
 10
299.48
 20
118.5081
 40
1
 50
0.0002867260903
 51
89.99971326
  0
LINE
  8
LAYER_1
 10
299.48
 20
119.5081
 11
251.48
 21
119.5081
  0
ARC
  8
LAYER_1
 10
251.48
 20
118.5081
 40
1
 50
89.99852852
 51
180.0014715
  0
LINE
  8
LAYER_1
 10
250.48
 20
118.5081
 11
250.48
 21
45.5081
  0
ARC
  8
LAYER_1
 10
251.48
 20
45.5081
 40
1
 50
179.9997125
 51
270.0002875
  0
LINE
  8
LAYER_1
 10
300.48
 20
120.0081
 11
300.18
 21
120.0081
  0
ARC
  8
LAYER_1
 10
300.1799
 20
117.8081
 40
2.2
 50
89.99798411
 51
129.4006055
  0
ARC
  8
LAYER_1
 10
250.78
 20
117.8081
 40
2.2
 50
50.59928018
 51
89.99952588
  0
LINE
  8
LAYER_1
 10
250.78
 20
120.0081
 11
250.48
 21
120.0081
  0
LINE
  8
LAYER_1
 10
250.48
 20
44.0081
 11
250.78
 21
44.0081
  0
ARC
  8
LAYER_1
 10
250.78
 20
46.2081
 40
2.2
 50
270.0008157
 51
309.4003783
  0
ARC
  8
LAYER_1
 10
300.1799
 20
46.2081
 40
2.2
 50
230.5997361
 51
270.0016743
  0
LINE
  8
LAYER_1
 10
300.18
 20
44.0081
 11
300.48
 21
44.0081
  0
LINE
  8
LAYER_1
 10
253.18
 20
44.0081
 11
253.18
 21
44.5081
  0
LINE
  8
LAYER_1
 10
260.88
 20
44.0081
 11
260.88
 21
44.5081
  0
LINE
  8
LAYER_1
 10
263.58
 20
44.0081
 11
263.58
 21
44.5081
  0
LINE
  8
LAYER_1
 10
287.38
 20
44.0081
 11
287.38
 21
44.5081
  0
LINE
  8
LAYER_1
 10
290.08
 20
44.0081
 11
290.08
 21
44.5081
  0
LINE
  8
LAYER_1
 10
297.78
 20
44.0081
 11
297.78
 21
44.5081
  0
LINE
  8
LAYER_1
 10
253.18
 20
119.5081
 11
253.18
 21
120.0081
  0
LINE
  8
LAYER_1
 10
260.88
 20
119.5081
 11
260.88
 21
120.0081
  0
LINE
  8
LAYER_1
 10
263.58
 20
119.5081
 11
263.58
 21
120.0081
  0
LINE
  8
LAYER_1
 10
287.38
 20
119.5081
 11
287.38
 21
120.0081
  0
LINE
  8
LAYER_1
 10
290.08
 20
119.5081
 11
290.08
 21
120.0081
  0
LINE
  8
LAYER_1
 10
297.78
 20
119.5081
 11
297.78
 21
120.0081
  0
LINE
  8
LAYER_1
 10
279.68
 20
119.5081
 11
279.68
 21
122.0081
  0
LINE
  8
LAYER_1
 10
279.68
 20
122.0081
 11
276.98
 21
122.0081
  0
LINE
  8
LAYER_1
 10
273.98
 20
122.0081
 11
271.28
 21
122.0081
  0
LINE
  8
LAYER_1
 10
271.28
 20
122.0081
 11
271.28
 21
119.5081
  0
LINE
  8
LAYER_1
 10
271.28
 20
120.4081
 11
273.98
 21
120.4081
  0
LINE
  8
LAYER_1
 10
276.98
 20
120.4081
 11
279.68
 21
120.4081
  0
LINE
  8
LAYER_1
 10
273.98
 20
125.1081
 11
276.98
 21
125.1081
  0
LINE
  8
LAYER_1
 10
279.68
 20
44.5081
 11
279.68
 21
42.0081
  0
LINE
  8
LAYER_1
 10
279.68
 20
42.0081
 11
276.98
 21
42.0081
  0
LINE
  8
LAYER_1
 10
273.98
 20
42.0081
 11
271.28
 21
42.0081
  0
LINE
  8
LAYER_1
 10
271.28
 20
42.0081
 11
271.28
 21
44.5081
  0
LINE
  8
LAYER_1
 10
271.28
 20
43.6081
 11
273.98
 21
43.6081
  0
LINE
  8
LAYER_1
 10
276.98
 20
43.6081
 11
279.68
 21
43.6081
  0
LINE
  8
LAYER_1
 10
273.98
 20
38.9081
 11
276.98
 21
38.9081
  0
LINE
  8
LAYER_1
 10
273.98
 20
38.0081
 11
272.68
 21
38.0081
  0
LINE
  8
LAYER_1
 10
272.68
 20
38.0081
 11
269.68
 21
40.0081
  0
LINE
  8
LAYER_1
 10
269.68
 20
40.0081
 11
269.68
 21
42.0081
  0
LINE
  8
LAYER_1
 10
269.68
 20
42.0081
 11
262.98
 21
42.0081
  0
LINE
  8
LAYER_1
 10
262.98
 20
42.0081
 11
261.48
 21
43.5081
  0
LINE
  8
LAYER_1
 10
261.48
 20
43.5081
 11
261.48
 21
44.0081
  0
LINE
  8
LAYER_1
 10
276.98
 20
38.0081
 11
278.28
 21
38.0081
  0
LINE
  8
LAYER_1
 10
278.28
 20
38.0081
 11
281.28
 21
40.0081
  0
LINE
  8
LAYER_1
 10
281.28
 20
40.0081
 11
281.28
 21
42.0081
  0
LINE
  8
LAYER_1
 10
281.28
 20
42.0081
 11
287.98
 21
42.0081
  0
LINE
  8
LAYER_1
 10
287.98
 20
42.0081
 11
289.48
 21
43.5081
  0
LINE
  8
LAYER_1
 10
289.48
 20
43.5081
 11
289.48
 21
44.0081
  0
ARC
  8
LAYER_1
 10
275.48
 20
41.0081
 40
1.8
 50
179.9994183
 51
213.5574916
  0
LINE
  8
LAYER_1
 10
273.68
 20
41.0081
 11
272.08
 21
41.0081
  0
LINE
  8
LAYER_1
 10
272.08
 20
41.0081
 11
272.08
 21
42.0081
  0
ARC
  8
LAYER_1
 10
275.48
 20
41.0081
 40
1.8
 50
326.4430483
 51
4.182031546e-005
  0
LINE
  8
LAYER_1
 10
277.28
 20
41.0081
 11
278.88
 21
41.0081
  0
LINE
  8
LAYER_1
 10
278.88
 20
41.0081
 11
278.88
 21
42.0081
  0
LINE
  8
LAYER_1
 10
276.98
 20
119.5081
 11
276.98
 21
127.0081
  0
LINE
  8
LAYER_1
 10
276.98
 20
127.0081
 11
273.98
 21
127.0081
  0
LINE
  8
LAYER_1
 10
273.98
 20
127.0081
 11
273.98
 21
119.5081
  0
LINE
  8
LAYER_1
 10
276.98
 20
44.5081
 11
276.98
 21
37.0081
  0
LINE
  8
LAYER_1
 10
276.98
 20
37.0081
 11
273.98
 21
37.0081
  0
LINE
  8
LAYER_1
 10
273.98
 20
37.0081
 11
273.98
 21
44.5081
  0
ENDBLK
  0
BLOCK
  8
LAYER_1
  2
AIGNBL01010023
 70
64
 10
0
 20
0
 30
0
  3
AIGNBL01010023
  0
LINE
  8
LAYER_1
 10
320.2162
 20
119.5081
 11
350.2162
 21
119.5081
  0
LINE
  8
LAYER_1
 10
350.2162
 20
119.5081
 11
350.2162
 21
44.5081
  0
LINE
  8
LAYER_1
 10
350.2162
 20
44.5081
 11
320.2162
 21
44.5081
  0
LINE
  8
LAYER_1
 10
320.2162
 20
44.5081
 11
320.2162
 21
119.5081
  0
LINE
  8
LAYER_1
 10
351.4162
 20
104.0081
 11
350.2162
 21
104.0081
  0
LINE
  8
LAYER_1
 10
351.4162
 20
99.4081
 11
350.2162
 21
99.4081
  0
LINE
  8
LAYER_1
 10
351.4162
 20
60.0081
 11
350.2162
 21
60.0081
  0
LINE
  8
LAYER_1
 10
351.4162
 20
64.6081
 11
350.2162
 21
64.6081
  0
LINE
  8
LAYER_1
 10
351.4162
 20
96.5081
 11
350.2162
 21
96.5081
  0
LINE
  8
LAYER_1
 10
351.4162
 20
67.5081
 11
350.2162
 21
67.5081
  0
LINE
  8
LAYER_1
 10
351.4162
 20
77.8081
 11
355.4162
 21
77.8081
  0
LINE
  8
LAYER_1
 10
355.4162
 20
77.8081
 11
355.4162
 21
86.2081
  0
LINE
  8
LAYER_1
 10
355.4162
 20
86.2081
 11
351.4162
 21
86.2081
  0
LINE
  8
LAYER_1
 10
366.7162
 20
40.0081
 11
370.2162
 21
40.0081
  0
LINE
  8
LAYER_1
 10
366.7162
 20
42.0081
 11
370.2162
 21
42.0081
  0
LINE
  8
LAYER_1
 10
366.7162
 20
43.5081
 11
370.2162
 21
43.5081
  0
LINE
  8
LAYER_1
 10
370.2162
 20
120.0081
 11
370.2162
 21
122.1081
  0
LINE
  8
LAYER_1
 10
370.2162
 20
122.1081
 11
352.8162
 21
122.1081
  0
LINE
  8
LAYER_1
 10
352.8162
 20
122.1081
 11
351.4162
 21
120.7081
  0
LINE
  8
LAYER_1
 10
351.4162
 20
120.7081
 11
351.4162
 21
118.6081
  0
LINE
  8
LAYER_1
 10
366.7162
 20
41.9081
 11
352.8162
 21
41.9081
  0
LINE
  8
LAYER_1
 10
352.8162
 20
41.9081
 11
351.4162
 21
43.3081
  0
LINE
  8
LAYER_1
 10
351.4162
 20
43.3081
 11
351.4162
 21
45.4081
  0
LINE
  8
LAYER_1
 10
351.4162
 20
118.6081
 11
352.8162
 21
120.0081
  0
LINE
  8
LAYER_1
 10
352.8162
 20
120.0081
 11
370.2162
 21
120.0081
  0
LINE
  8
LAYER_1
 10
370.2162
 20
120.0081
 11
370.2162
 21
99.6081
  0
LINE
  8
LAYER_1
 10
370.2162
 20
99.6081
 11
365.9162
 21
99.6081
  0
LINE
  8
LAYER_1
 10
365.9162
 20
99.6081
 11
365.9162
 21
64.4081
  0
LINE
  8
LAYER_1
 10
365.9162
 20
64.4081
 11
370.2162
 21
64.4081
  0
LINE
  8
LAYER_1
 10
370.2162
 20
64.4081
 11
370.2162
 21
44.0081
  0
LINE
  8
LAYER_1
 10
370.2162
 20
44.0081
 11
352.8162
 21
44.0081
  0
LINE
  8
LAYER_1
 10
352.8162
 20
44.0081
 11
351.4162
 21
45.4081
  0
LINE
  8
LAYER_1
 10
351.4162
 20
45.4081
 11
351.4162
 21
118.6081
  0
LINE
  8
LAYER_1
 10
365.9162
 20
86.8081
 11
370.2162
 21
86.8081
  0
LINE
  8
LAYER_1
 10
370.2162
 20
86.8081
 11
370.2162
 21
90.8081
  0
LINE
  8
LAYER_1
 10
370.2162
 20
90.8081
 11
365.9162
 21
90.8081
  0
LINE
  8
LAYER_1
 10
365.9162
 20
73.2081
 11
370.2162
 21
73.2081
  0
LINE
  8
LAYER_1
 10
370.2162
 20
73.2081
 11
370.2162
 21
77.2081
  0
LINE
  8
LAYER_1
 10
370.2162
 20
77.2081
 11
365.9162
 21
77.2081
  0
ARC
  8
LAYER_1
 10
363.6662
 20
96.6081
 40
2.55
 50
331.9278486
 51
28.0721514
  0
LINE
  8
LAYER_1
 10
367.4162
 20
99.6081
 11
367.4162
 21
97.8081
  0
LINE
  8
LAYER_1
 10
367.4162
 20
97.8081
 11
368.4162
 21
97.8081
  0
LINE
  8
LAYER_1
 10
368.4162
 20
97.8081
 11
370.2162
 21
99.6081
  0
LINE
  8
LAYER_1
 10
370.2162
 20
64.4081
 11
368.7162
 21
66.4081
  0
LINE
  8
LAYER_1
 10
368.7162
 20
66.4081
 11
367.7162
 21
66.4081
  0
LINE
  8
LAYER_1
 10
367.7162
 20
66.4081
 11
367.7162
 21
64.4081
  0
LINE
  8
LAYER_1
 10
351.4162
 20
119.4251
 11
349.0227
 21
119.9064
  0
LINE
  8
LAYER_1
 10
349.0227
 20
119.9064
 11
349.0819
 21
120.2006
  0
ARC
  8
LAYER_1
 10
348.1995
 20
120.378
 40
0.9
 50
348.6342724
 51
78.62849682
  0
ARC
  8
LAYER_1
 10
348.1995
 20
120.378
 40
0.9
 50
78.62650478
 51
168.6312781
  0
LINE
  8
LAYER_1
 10
347.3172
 20
120.5554
 11
347.1066
 21
119.5081
  0
LINE
  8
LAYER_1
 10
343.3325
 20
119.5081
 11
344.3602
 21
124.6182
  0
LINE
  8
LAYER_1
 10
344.3602
 20
124.6182
 11
341.8602
 21
125.121
  0
ARC
  8
LAYER_1
 10
342.0475
 20
126.0523
 40
0.95
 50
168.6295724
 51
258.6275444
  0
ARC
  8
LAYER_1
 10
342.0476
 20
126.0523
 40
0.95
 50
78.63278563
 51
168.6314331
  0
LINE
  8
LAYER_1
 10
342.2348
 20
126.9837
 11
354.0483
 21
124.6079
  0
LINE
  8
LAYER_1
 10
354.0483
 20
124.6079
 11
355.711
 21
122.1081
  0
LINE
  8
LAYER_1
 10
351.4162
 20
44.5911
 11
349.0227
 21
44.1098
  0
LINE
  8
LAYER_1
 10
349.0227
 20
44.1098
 11
349.0819
 21
43.8157
  0
ARC
  8
LAYER_1
 10
348.1995
 20
43.6383
 40
0.9
 50
281.371906
 51
11.37031112
  0
ARC
  8
LAYER_1
 10
348.1995
 20
43.6382
 40
0.9
 50
191.3702709
 51
281.3719462
  0
LINE
  8
LAYER_1
 10
347.3172
 20
43.4608
 11
347.1066
 21
44.5081
  0
LINE
  8
LAYER_1
 10
343.3325
 20
44.5081
 11
344.3602
 21
39.398
  0
LINE
  8
LAYER_1
 10
344.3602
 20
39.398
 11
341.8602
 21
38.8953
  0
ARC
  8
LAYER_1
 10
342.0475
 20
37.964
 40
0.95
 50
101.3732468
 51
191.37436
  0
ARC
  8
LAYER_1
 10
342.0475
 20
37.9639
 40
0.95
 50
191.3729908
 51
281.3698924
  0
LINE
  8
LAYER_1
 10
342.2348
 20
37.0326
 11
354.0483
 21
39.4084
  0
LINE
  8
LAYER_1
 10
354.0483
 20
39.4084
 11
355.711
 21
41.9081
  0
LINE
  8
LAYER_1
 10
370.2162
 20
44.0081
 11
370.2162
 21
38.0081
  0
LINE
  8
LAYER_1
 10
370.2162
 20
38.0081
 11
366.7162
 21
38.0081
  0
LINE
  8
LAYER_1
 10
366.7162
 20
38.0081
 11
366.7162
 21
44.0081
  0
ENDBLK
  0
BLOCK
  8
LAYER_1
  2
AIGNBL01010024
 70
64
 10
0
 20
0
 30
0
  3
AIGNBL01010024
  0
LINE
  8
LAYER_1
 10
276.98
 20
-10.2762
 11
300.48
 21
-10.2762
  0
LINE
  8
LAYER_1
 10
300.48
 20
-10.2762
 11
300.48
 21
19.7238
  0
LINE
  8
LAYER_1
 10
300.48
 20
19.7238
 11
250.48
 21
19.7238
  0
LINE
  8
LAYER_1
 10
250.48
 20
19.7238
 11
250.48
 21
-10.2762
  0
LINE
  8
LAYER_1
 10
250.48
 20
-10.2762
 11
273.98
 21
-10.2762
  0
LINE
  8
LAYER_1
 10
250.68
 20
-10.2762
 11
250.68
 21
-11.4762
  0
LINE
  8
LAYER_1
 10
276.98
 20
-11.4762
 11
300.48
 21
-11.4762
  0
LINE
  8
LAYER_1
 10
300.48
 20
-11.4762
 11
300.48
 21
-30.2762
  0
LINE
  8
LAYER_1
 10
300.48
 20
-30.2762
 11
250.48
 21
-30.2762
  0
LINE
  8
LAYER_1
 10
250.48
 20
-30.2762
 11
250.48
 21
-11.4762
  0
LINE
  8
LAYER_1
 10
250.48
 20
-11.4762
 11
273.98
 21
-11.4762
  0
LINE
  8
LAYER_1
 10
289.48
 20
-30.2762
 11
289.48
 21
-26.7762
  0
LINE
  8
LAYER_1
 10
289.48
 20
-26.7762
 11
261.48
 21
-26.7762
  0
LINE
  8
LAYER_1
 10
261.48
 20
-26.7762
 11
261.48
 21
-30.2762
  0
LINE
  8
LAYER_1
 10
260.88
 20
-11.4762
 11
260.88
 21
-23.3762
  0
LINE
  8
LAYER_1
 10
260.88
 20
-23.3762
 11
253.18
 21
-23.3762
  0
LINE
  8
LAYER_1
 10
253.18
 20
-23.3762
 11
253.18
 21
-11.4762
  0
LINE
  8
LAYER_1
 10
263.58
 20
-11.4762
 11
263.58
 21
-23.3762
  0
LINE
  8
LAYER_1
 10
263.58
 20
-23.3762
 11
271.28
 21
-23.3762
  0
LINE
  8
LAYER_1
 10
287.38
 20
-11.4762
 11
287.38
 21
-23.3762
  0
LINE
  8
LAYER_1
 10
287.38
 20
-23.3762
 11
279.68
 21
-23.3762
  0
LINE
  8
LAYER_1
 10
297.78
 20
-11.4762
 11
297.78
 21
-23.3762
  0
LINE
  8
LAYER_1
 10
297.78
 20
-23.3762
 11
290.08
 21
-23.3762
  0
LINE
  8
LAYER_1
 10
290.08
 20
-23.3762
 11
290.08
 21
-11.4762
  0
LINE
  8
LAYER_1
 10
250.48
 20
-12.8762
 11
253.18
 21
-12.8762
  0
LINE
  8
LAYER_1
 10
260.88
 20
-12.8762
 11
263.58
 21
-12.8762
  0
LINE
  8
LAYER_1
 10
287.38
 20
-12.8762
 11
290.08
 21
-12.8762
  0
LINE
  8
LAYER_1
 10
297.78
 20
-12.8762
 11
300.48
 21
-12.8762
  0
LINE
  8
LAYER_1
 10
262.98
 20
-30.2762
 11
262.98
 21
-26.7762
  0
LINE
  8
LAYER_1
 10
287.98
 20
-30.2762
 11
287.98
 21
-26.7762
  0
LINE
  8
LAYER_1
 10
269.68
 20
-30.2762
 11
269.68
 21
-26.7762
  0
LINE
  8
LAYER_1
 10
281.28
 20
-30.2762
 11
281.28
 21
-26.7762
  0
LINE
  8
LAYER_1
 10
278.28
 20
-30.2762
 11
278.28
 21
-26.7762
  0
LINE
  8
LAYER_1
 10
272.68
 20
-30.2762
 11
272.68
 21
-26.7762
  0
LINE
  8
LAYER_1
 10
271.28
 20
-26.7762
 11
271.28
 21
-11.4762
  0
LINE
  8
LAYER_1
 10
279.68
 20
-11.4762
 11
279.68
 21
-26.7762
  0
LINE
  8
LAYER_1
 10
277.78
 20
-21.5762
 11
276.98
 21
-21.5762
  0
LINE
  8
LAYER_1
 10
273.18
 20
-25.1762
 11
277.78
 21
-25.1762
  0
LINE
  8
LAYER_1
 10
273.98
 20
-21.5762
 11
273.18
 21
-21.5762
  0
LINE
  8
LAYER_1
 10
277.78
 20
-26.7762
 11
277.78
 21
-19.0762
  0
LINE
  8
LAYER_1
 10
277.78
 20
-19.0762
 11
276.98
 21
-19.0762
  0
LINE
  8
LAYER_1
 10
273.18
 20
-26.7762
 11
273.18
 21
-19.0762
  0
LINE
  8
LAYER_1
 10
273.18
 20
-19.0762
 11
273.98
 21
-19.0762
  0
LINE
  8
LAYER_1
 10
276.98
 20
-23.3762
 11
276.98
 21
-1.1762
  0
LINE
  8
LAYER_1
 10
276.98
 20
-1.1762
 11
273.98
 21
-1.1762
  0
LINE
  8
LAYER_1
 10
273.98
 20
-1.1762
 11
273.98
 21
-23.3762
  0
LINE
  8
LAYER_1
 10
276.68
 20
-26.7762
 11
276.68
 21
-25.7762
  0
LINE
  8
LAYER_1
 10
276.68
 20
-25.7762
 11
274.28
 21
-25.7762
  0
LINE
  8
LAYER_1
 10
274.28
 20
-25.7762
 11
274.28
 21
-26.7762
  0
LINE
  8
LAYER_1
 10
255.28
 20
-10.2762
 11
255.28
 21
-11.4762
  0
LINE
  8
LAYER_1
 10
295.68
 20
-10.2762
 11
295.68
 21
-11.4762
  0
LINE
  8
LAYER_1
 10
300.28
 20
-10.2762
 11
300.28
 21
-11.4762
  0
LINE
  8
LAYER_1
 10
260.98
 20
-10.2762
 11
260.98
 21
-11.4762
  0
LINE
  8
LAYER_1
 10
289.98
 20
-10.2762
 11
289.98
 21
-11.4762
  0
LINE
  8
LAYER_1
 10
253.18
 20
-18.7762
 11
260.88
 21
-18.7762
  0
LINE
  8
LAYER_1
 10
263.58
 20
-18.7762
 11
271.28
 21
-18.7762
  0
LINE
  8
LAYER_1
 10
279.68
 20
-18.7762
 11
287.38
 21
-18.7762
  0
LINE
  8
LAYER_1
 10
290.08
 20
-18.7762
 11
297.78
 21
-18.7762
  0
LINE
  8
LAYER_1
 10
253.18
 20
-22.3762
 11
260.88
 21
-22.3762
  0
LINE
  8
LAYER_1
 10
263.58
 20
-22.3762
 11
271.28
 21
-22.3762
  0
LINE
  8
LAYER_1
 10
279.68
 20
-22.3762
 11
287.38
 21
-22.3762
  0
LINE
  8
LAYER_1
 10
290.08
 20
-22.3762
 11
297.78
 21
-22.3762
  0
LINE
  8
LAYER_1
 10
254.48
 20
-16.7762
 11
259.48
 21
-16.7762
  0
ARC
  8
LAYER_1
 10
259.48
 20
-16.2762
 40
0.5
 50
270.003699
 51
359.9963011
  0
ARC
  8
LAYER_1
 10
257.98
 20
-16.2762
 40
2
 50
359.999959
 51
90.00004103
  0
LINE
  8
LAYER_1
 10
257.98
 20
-14.2762
 11
255.98
 21
-14.2762
  0
ARC
  8
LAYER_1
 10
255.98
 20
-16.2762
 40
2
 50
89.99907516
 51
180.0009249
  0
ARC
  8
LAYER_1
 10
254.48
 20
-16.2762
 40
0.5
 50
180.0001645
 51
269.9998355
  0
LINE
  8
LAYER_1
 10
264.88
 20
-16.7762
 11
269.88
 21
-16.7762
  0
ARC
  8
LAYER_1
 10
269.88
 20
-16.2762
 40
0.5
 50
270.0036988
 51
359.9963012
  0
ARC
  8
LAYER_1
 10
268.38
 20
-16.2762
 40
2
 50
359.9999589
 51
90.00004107
  0
LINE
  8
LAYER_1
 10
268.38
 20
-14.2762
 11
266.38
 21
-14.2762
  0
ARC
  8
LAYER_1
 10
266.38
 20
-16.2762
 40
2
 50
89.99907519
 51
180.0009248
  0
ARC
  8
LAYER_1
 10
264.88
 20
-16.2762
 40
0.5
 50
180.0001647
 51
269.9998354
  0
LINE
  8
LAYER_1
 10
280.98
 20
-16.7762
 11
285.98
 21
-16.7762
  0
ARC
  8
LAYER_1
 10
285.98
 20
-16.2762
 40
0.5
 50
270.0036986
 51
359.9963014
  0
ARC
  8
LAYER_1
 10
284.48
 20
-16.2762
 40
2
 50
359.9999589
 51
90.00004113
  0
LINE
  8
LAYER_1
 10
284.48
 20
-14.2762
 11
282.48
 21
-14.2762
  0
ARC
  8
LAYER_1
 10
282.48
 20
-16.2762
 40
2
 50
89.99907525
 51
180.0009248
  0
ARC
  8
LAYER_1
 10
280.98
 20
-16.2762
 40
0.5
 50
180.0001649
 51
269.9998351
  0
LINE
  8
LAYER_1
 10
291.38
 20
-16.7762
 11
296.38
 21
-16.7762
  0
ARC
  8
LAYER_1
 10
296.38
 20
-16.2762
 40
0.5
 50
270.0036984
 51
359.9963016
  0
ARC
  8
LAYER_1
 10
294.88
 20
-16.2762
 40
2
 50
359.9999588
 51
90.00004116
  0
LINE
  8
LAYER_1
 10
294.88
 20
-14.2762
 11
292.88
 21
-14.2762
  0
ARC
  8
LAYER_1
 10
292.88
 20
-16.2762
 40
2
 50
89.99907529
 51
180.0009247
  0
ARC
  8
LAYER_1
 10
291.38
 20
-16.2762
 40
0.5
 50
180.000165
 51
269.999835
  0
LINE
  8
LAYER_1
 10
271.28
 20
-12.8762
 11
273.98
 21
-12.8762
  0
LINE
  8
LAYER_1
 10
276.98
 20
-12.8762
 11
279.68
 21
-12.8762
  0
LINE
  8
LAYER_1
 10
267.88
 20
-18.7762
 11
267.9321
 21
-18.4807
  0
LINE
  8
LAYER_1
 10
267.9321
 20
-18.4807
 11
269.1321
 21
-18.4807
  0
LINE
  8
LAYER_1
 10
269.1321
 20
-18.4807
 11
270.68
 21
-18.7762
  0
LINE
  8
LAYER_1
 10
270.68
 20
-18.7762
 11
270.68
 21
-17.0716
  0
LINE
  8
LAYER_1
 10
270.68
 20
-17.0716
 11
269.1321
 21
-16.7762
  0
LINE
  8
LAYER_1
 10
269.1321
 20
-16.7762
 11
268.08
 21
-16.7762
  0
LINE
  8
LAYER_1
 10
268.08
 20
-16.7762
 11
267.8748
 21
-17.34
  0
LINE
  8
LAYER_1
 10
267.8748
 20
-17.34
 11
266.8852
 21
-17.34
  0
LINE
  8
LAYER_1
 10
266.8852
 20
-17.34
 11
266.68
 21
-16.7762
  0
LINE
  8
LAYER_1
 10
266.68
 20
-16.7762
 11
265.6279
 21
-16.7762
  0
LINE
  8
LAYER_1
 10
265.6279
 20
-16.7762
 11
264.18
 21
-17.0716
  0
LINE
  8
LAYER_1
 10
264.18
 20
-17.0716
 11
264.18
 21
-18.7762
  0
LINE
  8
LAYER_1
 10
264.18
 20
-18.7762
 11
265.6279
 21
-18.4807
  0
LINE
  8
LAYER_1
 10
265.6279
 20
-18.4807
 11
266.8279
 21
-18.4807
  0
LINE
  8
LAYER_1
 10
266.8279
 20
-18.4807
 11
266.88
 21
-18.7762
  0
LINE
  8
LAYER_1
 10
266.88
 20
-18.7762
 11
267.88
 21
-18.7762
  0
LINE
  8
LAYER_1
 10
283.98
 20
-18.7762
 11
284.0321
 21
-18.4807
  0
LINE
  8
LAYER_1
 10
284.0321
 20
-18.4807
 11
285.2321
 21
-18.4807
  0
LINE
  8
LAYER_1
 10
285.2321
 20
-18.4807
 11
286.78
 21
-18.7762
  0
LINE
  8
LAYER_1
 10
286.78
 20
-18.7762
 11
286.78
 21
-17.0716
  0
LINE
  8
LAYER_1
 10
286.78
 20
-17.0716
 11
285.2321
 21
-16.7762
  0
LINE
  8
LAYER_1
 10
285.2321
 20
-16.7762
 11
284.18
 21
-16.7762
  0
LINE
  8
LAYER_1
 10
284.18
 20
-16.7762
 11
283.9748
 21
-17.34
  0
LINE
  8
LAYER_1
 10
283.9748
 20
-17.34
 11
282.9852
 21
-17.34
  0
LINE
  8
LAYER_1
 10
282.9852
 20
-17.34
 11
282.78
 21
-16.7762
  0
LINE
  8
LAYER_1
 10
282.78
 20
-16.7762
 11
281.7279
 21
-16.7762
  0
LINE
  8
LAYER_1
 10
281.7279
 20
-16.7762
 11
280.28
 21
-17.0716
  0
LINE
  8
LAYER_1
 10
280.28
 20
-17.0716
 11
280.28
 21
-18.7762
  0
LINE
  8
LAYER_1
 10
280.28
 20
-18.7762
 11
281.7279
 21
-18.4807
  0
LINE
  8
LAYER_1
 10
281.7279
 20
-18.4807
 11
282.9279
 21
-18.4807
  0
LINE
  8
LAYER_1
 10
282.9279
 20
-18.4807
 11
282.98
 21
-18.7762
  0
LINE
  8
LAYER_1
 10
282.98
 20
-18.7762
 11
283.98
 21
-18.7762
  0
LINE
  8
LAYER_1
 10
294.38
 20
-18.7762
 11
294.4321
 21
-18.4807
  0
LINE
  8
LAYER_1
 10
294.4321
 20
-18.4807
 11
295.6321
 21
-18.4807
  0
LINE
  8
LAYER_1
 10
295.6321
 20
-18.4807
 11
297.18
 21
-18.7762
  0
LINE
  8
LAYER_1
 10
297.18
 20
-18.7762
 11
297.18
 21
-17.0716
  0
LINE
  8
LAYER_1
 10
297.18
 20
-17.0716
 11
295.6321
 21
-16.7762
  0
LINE
  8
LAYER_1
 10
295.6321
 20
-16.7762
 11
294.58
 21
-16.7762
  0
LINE
  8
LAYER_1
 10
294.58
 20
-16.7762
 11
294.3748
 21
-17.34
  0
LINE
  8
LAYER_1
 10
294.3748
 20
-17.34
 11
293.3852
 21
-17.34
  0
LINE
  8
LAYER_1
 10
293.3852
 20
-17.34
 11
293.18
 21
-16.7762
  0
LINE
  8
LAYER_1
 10
293.18
 20
-16.7762
 11
292.1279
 21
-16.7762
  0
LINE
  8
LAYER_1
 10
292.1279
 20
-16.7762
 11
290.68
 21
-17.0716
  0
LINE
  8
LAYER_1
 10
290.68
 20
-17.0716
 11
290.68
 21
-18.7762
  0
LINE
  8
LAYER_1
 10
290.68
 20
-18.7762
 11
292.1279
 21
-18.4807
  0
LINE
  8
LAYER_1
 10
292.1279
 20
-18.4807
 11
293.3279
 21
-18.4807
  0
LINE
  8
LAYER_1
 10
293.3279
 20
-18.4807
 11
293.38
 21
-18.7762
  0
LINE
  8
LAYER_1
 10
293.38
 20
-18.7762
 11
294.38
 21
-18.7762
  0
LINE
  8
LAYER_1
 10
257.43
 20
-18.7762
 11
257.4821
 21
-18.4807
  0
LINE
  8
LAYER_1
 10
257.4821
 20
-18.4807
 11
258.6821
 21
-18.4807
  0
LINE
  8
LAYER_1
 10
258.6821
 20
-18.4807
 11
260.23
 21
-18.7762
  0
LINE
  8
LAYER_1
 10
260.23
 20
-18.7762
 11
260.23
 21
-17.0716
  0
LINE
  8
LAYER_1
 10
260.23
 20
-17.0716
 11
258.6821
 21
-16.7762
  0
LINE
  8
LAYER_1
 10
258.6821
 20
-16.7762
 11
257.63
 21
-16.7762
  0
LINE
  8
LAYER_1
 10
257.63
 20
-16.7762
 11
257.4248
 21
-17.34
  0
LINE
  8
LAYER_1
 10
257.4248
 20
-17.34
 11
256.4352
 21
-17.34
  0
LINE
  8
LAYER_1
 10
256.4352
 20
-17.34
 11
256.23
 21
-16.7762
  0
LINE
  8
LAYER_1
 10
256.23
 20
-16.7762
 11
255.1779
 21
-16.7762
  0
LINE
  8
LAYER_1
 10
255.1779
 20
-16.7762
 11
253.73
 21
-17.0716
  0
LINE
  8
LAYER_1
 10
253.73
 20
-17.0716
 11
253.73
 21
-18.7762
  0
LINE
  8
LAYER_1
 10
253.73
 20
-18.7762
 11
255.1779
 21
-18.4807
  0
LINE
  8
LAYER_1
 10
255.1779
 20
-18.4807
 11
256.3779
 21
-18.4807
  0
LINE
  8
LAYER_1
 10
256.3779
 20
-18.4807
 11
256.43
 21
-18.7762
  0
LINE
  8
LAYER_1
 10
256.43
 20
-18.7762
 11
257.43
 21
-18.7762
  0
ENDBLK
  0
BLOCK
  8
LAYER_1
  2
AIGNBL01010025
 70
64
 10
0
 20
0
 30
0
  3
AIGNBL01010025
  0
INSERT
  8
LAYER_1
  2
AIGNBL01020026
 10
0
 20
0
 30
0
  0
INSERT
  8
LAYER_1
  2
AIGNBL01020027
 10
0
 20
0
 30
0
  0
INSERT
  8
LAYER_1
  2
AIGNBL01020028
 10
0
 20
0
 30
0
  0
INSERT
  8
LAYER_1
  2
AIGNBL01020029
 10
0
 20
0
 30
0
  0
INSERT
  8
LAYER_1
  2
AIGNBL0102002A
 10
0
 20
0
 30
0
  0
INSERT
  8
LAYER_1
  2
AIGNBL0102002B
 10
0
 20
0
 30
0
  0
INSERT
  8
LAYER_1
  2
AIGNBL0102002C
 10
0
 20
0
 30
0
  0
ENDBLK
  0
BLOCK
  8
LAYER_1
  2
AIGNBL0101002D
 70
64
 10
0
 20
0
 30
0
  3
AIGNBL0101002D
  0
INSERT
  8
LAYER_1
  2
AIGNBL0102002E
 10
0
 20
0
 30
0
  0
INSERT
  8
LAYER_1
  2
AIGNBL0102002F
 10
0
 20
0
 30
0
  0
INSERT
  8
LAYER_1
  2
AIGNBL01020030
 10
0
 20
0
 30
0
  0
INSERT
  8
LAYER_1
  2
AIGNBL01020031
 10
0
 20
0
 30
0
  0
INSERT
  8
LAYER_1
  2
AIGNBL01020032
 10
0
 20
0
 30
0
  0
INSERT
  8
LAYER_1
  2
AIGNBL01020033
 10
0
 20
0
 30
0
  0
INSERT
  8
LAYER_1
  2
AIGNBL01020034
 10
0
 20
0
 30
0
  0
ENDBLK
  0
BLOCK
  8
LAYER_1
  2
AIGNBL01010035
 70
64
 10
0
 20
0
 30
0
  3
AIGNBL01010035
  0
LINE
  8
LAYER_1
 62
3
 10
249.855
 20
19.7238
 11
228.2737
 21
19.7238
  0
ENDBLK
  0
BLOCK
  8
LAYER_1
  2
AIGNBL01010036
 70
64
 10
0
 20
0
 30
0
  3
AIGNBL01010036
  0
LINE
  8
LAYER_1
 62
3
 10
249.855
 20
-30.2762
 11
228.2737
 21
-30.2762
  0
ENDBLK
  0
BLOCK
  8
LAYER_1
  2
AIGNBL01010037
 70
64
 10
0
 20
0
 30
0
  3
AIGNBL01010037
  0
LINE
  8
LAYER_1
 62
3
 10
229.5237
 20
17.2238
 11
229.5237
 21
-27.7762
  0
ENDBLK
  0
BLOCK
  8
LAYER_1
  2
AIGNBL01010038
 70
64
 10
0
 20
0
 30
0
  3
AIGNBL01010038
  0
LINE
  8
LAYER_1
 62
3
 10
229.107
 20
17.2238
 11
229.5237
 21
19.7238
  0
LINE
  8
LAYER_1
 62
3
 10
229.5237
 20
19.7238
 11
229.9404
 21
17.2238
  0
LINE
  8
LAYER_1
 62
3
 10
229.9404
 20
17.2238
 11
229.107
 21
17.2238
  0
ENDBLK
  0
BLOCK
  8
LAYER_1
  2
AIGNBL01010039
 70
64
 10
0
 20
0
 30
0
  3
AIGNBL01010039
  0
LINE
  8
LAYER_1
 62
3
 10
229.107
 20
-27.7762
 11
229.5237
 21
-30.2762
  0
LINE
  8
LAYER_1
 62
3
 10
229.5237
 20
-30.2762
 11
229.9404
 21
-27.7762
  0
LINE
  8
LAYER_1
 62
3
 10
229.9404
 20
-27.7762
 11
229.107
 21
-27.7762
  0
ENDBLK
  0
BLOCK
  8
LAYER_1
  2
AIGNBL0101003A
 70
64
 10
0
 20
0
 30
0
  3
AIGNBL0101003A
  0
TEXT
  8
LAYER_1
 10
228.856
 20
-7.2051
 11
228.856
 21
-7.2051
 40
3.7421
 41
0.5
 50
89.99999999
 62
3
  1
50
  0
ENDBLK
  0
ENDSEC
  0
SECTION
  2
ENTITIES
  0
INSERT
  8
LAYER_1
  2
AIGNBL01010002
 10
0
 20
0
 30
0
  0
INSERT
  8
LAYER_1
  2
AIGNBL01010022
 10
0
 20
0
 30
0
  0
INSERT
  8
LAYER_1
  2
AIGNBL01010023
 10
0
 20
0
 30
0
  0
INSERT
  8
LAYER_1
  2
AIGNBL01010024
 10
0
 20
0
 30
0
  0
INSERT
  8
LAYER_1
  2
AIGNBL01010025
 10
0
 20
0
 30
0
  0
INSERT
  8
LAYER_1
  2
AIGNBL0101002D
 10
0
 20
0
 30
0
  0
INSERT
  8
LAYER_1
  2
AIGNBL01010035
 10
0
 20
0
 30
0
  0
INSERT
  8
LAYER_1
  2
AIGNBL01010036
 10
0
 20
0
 30
0
  0
INSERT
  8
LAYER_1
  2
AIGNBL01010037
 10
0
 20
0
 30
0
  0
INSERT
  8
LAYER_1
  2
AIGNBL01010038
 10
0
 20
0
 30
0
  0
INSERT
  8
LAYER_1
  2
AIGNBL01010039
 10
0
 20
0
 30
0
  0
INSERT
  8
LAYER_1
  2
AIGNBL0101003A
 10
0
 20
0
 30
0
  0
ENDSEC
  0
EOF
